  0
SECTION
  2
HEADER
  9
$ACADVER
  1
AC1015
  9
$ACADMAINTVER
 70
    20
  9
$DWGCODEPAGE
  3
ANSI_1252
  9
$INSBASE
 10
0.0
 20
0.0
 30
0.0
  9
$EXTMIN
 10
23.06326483428223
 20
-2.568036171951408
 30
-0.062
  9
$EXTMAX
 10
26.38745942688601
 20
-0.1520766523272026
 30
0.0
  9
$LIMMIN
 10
0.0
 20
0.0
  9
$LIMMAX
 10
12.0
 20
9.0
  9
$ORTHOMODE
 70
     1
  9
$REGENMODE
 70
     1
  9
$FILLMODE
 70
     1
  9
$QTEXTMODE
 70
     0
  9
$MIRRTEXT
 70
     1
  9
$LTSCALE
 40
1.0
  9
$ATTMODE
 70
     1
  9
$TEXTSIZE
 40
0.2
  9
$TRACEWID
 40
0.05
  9
$TEXTSTYLE
  7
Standard
  9
$CLAYER
  8
Housing
  9
$CELTYPE
  6
ByLayer
  9
$CECOLOR
 62
   256
  9
$CELTSCALE
 40
1.0
  9
$DISPSILH
 70
     0
  9
$DIMSCALE
 40
1.0
  9
$DIMASZ
 40
0.125
  9
$DIMEXO
 40
0.0625
  9
$DIMDLI
 40
0.38
  9
$DIMRND
 40
0.0
  9
$DIMDLE
 40
0.0
  9
$DIMEXE
 40
0.08
  9
$DIMTP
 40
0.0
  9
$DIMTM
 40
0.0
  9
$DIMTXT
 40
0.09
  9
$DIMCEN
 40
0.09
  9
$DIMTSZ
 40
0.0
  9
$DIMTOL
 70
     0
  9
$DIMLIM
 70
     0
  9
$DIMTIH
 70
     1
  9
$DIMTOH
 70
     1
  9
$DIMSE1
 70
     0
  9
$DIMSE2
 70
     0
  9
$DIMTAD
 70
     0
  9
$DIMZIN
 70
     4
  9
$DIMBLK
  1

  9
$DIMASO
 70
     1
  9
$DIMSHO
 70
     1
  9
$DIMPOST
  1

  9
$DIMAPOST
  1

  9
$DIMALT
 70
     0
  9
$DIMALTD
 70
     2
  9
$DIMALTF
 40
25.4
  9
$DIMLFAC
 40
1.0
  9
$DIMTOFL
 70
     0
  9
$DIMTVP
 40
0.0
  9
$DIMTIX
 70
     0
  9
$DIMSOXD
 70
     0
  9
$DIMSAH
 70
     0
  9
$DIMBLK1
  1

  9
$DIMBLK2
  1

  9
$DIMSTYLE
  2
3 Decimal Places
  9
$DIMCLRD
 70
   256
  9
$DIMCLRE
 70
   256
  9
$DIMCLRT
 70
   256
  9
$DIMTFAC
 40
1.0
  9
$DIMGAP
 40
0.09
  9
$DIMJUST
 70
     0
  9
$DIMSD1
 70
     0
  9
$DIMSD2
 70
     0
  9
$DIMTOLJ
 70
     1
  9
$DIMTZIN
 70
     4
  9
$DIMALTZ
 70
     4
  9
$DIMALTTZ
 70
     4
  9
$DIMUPT
 70
     0
  9
$DIMDEC
 70
     3
  9
$DIMTDEC
 70
     3
  9
$DIMALTU
 70
     2
  9
$DIMALTTD
 70
     2
  9
$DIMTXSTY
  7
ROMANS
  9
$DIMAUNIT
 70
     0
  9
$DIMADEC
 70
     0
  9
$DIMALTRND
 40
0.0
  9
$DIMAZIN
 70
     0
  9
$DIMDSEP
 70
    46
  9
$DIMATFIT
 70
     3
  9
$DIMFRAC
 70
     0
  9
$DIMLDRBLK
  1

  9
$DIMLUNIT
 70
     2
  9
$DIMLWD
 70
    -1
  9
$DIMLWE
 70
    -1
  9
$DIMTMOVE
 70
     0
  9
$LUNITS
 70
     2
  9
$LUPREC
 70
     4
  9
$SKETCHINC
 40
0.1
  9
$FILLETRAD
 40
0.5
  9
$AUNITS
 70
     0
  9
$AUPREC
 70
     0
  9
$MENU
  1
.
  9
$ELEVATION
 40
0.0
  9
$PELEVATION
 40
0.0
  9
$THICKNESS
 40
0.0
  9
$LIMCHECK
 70
     0
  9
$CHAMFERA
 40
0.5
  9
$CHAMFERB
 40
0.5
  9
$CHAMFERC
 40
1.0
  9
$CHAMFERD
 40
0.0
  9
$SKPOLY
 70
     0
  9
$TDCREATE
 40
2454494.837450614
  9
$TDUCREATE
 40
2454495.004117280
  9
$TDUPDATE
 40
2456905.545898125
  9
$TDUUPDATE
 40
2456905.712564791
  9
$TDINDWG
 40
0.1662673032
  9
$TDUSRTIMER
 40
0.1662671528
  9
$USRTIMER
 70
     1
  9
$ANGBASE
 50
0.0
  9
$ANGDIR
 70
     0
  9
$PDMODE
 70
     0
  9
$PDSIZE
 40
0.0
  9
$PLINEWID
 40
0.0
  9
$SPLFRAME
 70
     0
  9
$SPLINETYPE
 70
     6
  9
$SPLINESEGS
 70
     8
  9
$HANDSEED
  5
406C
  9
$SURFTAB1
 70
     6
  9
$SURFTAB2
 70
     6
  9
$SURFTYPE
 70
     6
  9
$SURFU
 70
     6
  9
$SURFV
 70
     6
  9
$UCSBASE
  2

  9
$UCSNAME
  2

  9
$UCSORG
 10
0.0
 20
0.0
 30
0.0
  9
$UCSXDIR
 10
1.0
 20
0.0
 30
0.0
  9
$UCSYDIR
 10
0.0
 20
1.0
 30
0.0
  9
$UCSORTHOREF
  2

  9
$UCSORTHOVIEW
 70
     0
  9
$UCSORGTOP
 10
0.0
 20
0.0
 30
0.0
  9
$UCSORGBOTTOM
 10
0.0
 20
0.0
 30
0.0
  9
$UCSORGLEFT
 10
0.0
 20
0.0
 30
0.0
  9
$UCSORGRIGHT
 10
0.0
 20
0.0
 30
0.0
  9
$UCSORGFRONT
 10
0.0
 20
0.0
 30
0.0
  9
$UCSORGBACK
 10
0.0
 20
0.0
 30
0.0
  9
$PUCSBASE
  2

  9
$PUCSNAME
  2

  9
$PUCSORG
 10
0.0
 20
0.0
 30
0.0
  9
$PUCSXDIR
 10
1.0
 20
0.0
 30
0.0
  9
$PUCSYDIR
 10
0.0
 20
1.0
 30
0.0
  9
$PUCSORTHOREF
  2

  9
$PUCSORTHOVIEW
 70
     0
  9
$PUCSORGTOP
 10
0.0
 20
0.0
 30
0.0
  9
$PUCSORGBOTTOM
 10
0.0
 20
0.0
 30
0.0
  9
$PUCSORGLEFT
 10
0.0
 20
0.0
 30
0.0
  9
$PUCSORGRIGHT
 10
0.0
 20
0.0
 30
0.0
  9
$PUCSORGFRONT
 10
0.0
 20
0.0
 30
0.0
  9
$PUCSORGBACK
 10
0.0
 20
0.0
 30
0.0
  9
$USERI1
 70
     0
  9
$USERI2
 70
     0
  9
$USERI3
 70
     0
  9
$USERI4
 70
     0
  9
$USERI5
 70
     0
  9
$USERR1
 40
0.0
  9
$USERR2
 40
0.0
  9
$USERR3
 40
0.0
  9
$USERR4
 40
0.0
  9
$USERR5
 40
0.0
  9
$WORLDVIEW
 70
     1
  9
$SHADEDGE
 70
     3
  9
$SHADEDIF
 70
    70
  9
$TILEMODE
 70
     1
  9
$MAXACTVP
 70
    64
  9
$PINSBASE
 10
0.0
 20
0.0
 30
0.0
  9
$PLIMCHECK
 70
     0
  9
$PEXTMIN
 10
1.000000000000000E+20
 20
1.000000000000000E+20
 30
1.000000000000000E+20
  9
$PEXTMAX
 10
-1.000000000000000E+20
 20
-1.000000000000000E+20
 30
-1.000000000000000E+20
  9
$PLIMMIN
 10
0.0
 20
0.0
  9
$PLIMMAX
 10
12.0
 20
9.0
  9
$UNITMODE
 70
     0
  9
$VISRETAIN
 70
     1
  9
$PLINEGEN
 70
     0
  9
$PSLTSCALE
 70
     1
  9
$TREEDEPTH
 70
  3020
  9
$CMLSTYLE
  2
Standard
  9
$CMLJUST
 70
     0
  9
$CMLSCALE
 40
1.0
  9
$PROXYGRAPHICS
 70
     1
  9
$MEASUREMENT
 70
     0
  9
$CELWEIGHT
370
    -1
  9
$ENDCAPS
280
     0
  9
$JOINSTYLE
280
     0
  9
$LWDISPLAY
290
     0
  9
$INSUNITS
 70
     1
  9
$HYPERLINKBASE
  1

  9
$STYLESHEET
  1
MONOCHROME.CTB
  9
$XEDIT
290
     1
  9
$CEPSNTYPE
380
     0
  9
$PSTYLEMODE
290
     1
  9
$FINGERPRINTGUID
  2
{1EFF4B40-43D6-4315-84AB-46688295E3F0}
  9
$VERSIONGUID
  2
{8B740C9B-FC13-439F-BF50-A8E95B3D7B41}
  9
$EXTNAMES
290
     1
  9
$PSVPSCALE
 40
0.0
  9
$OLESTARTUP
290
     0
  0
ENDSEC
  0
SECTION
  2
CLASSES
  0
CLASS
  1
ACDBDICTIONARYWDFLT
  2
AcDbDictionaryWithDefault
  3
ObjectDBX Classes
 90
        0
280
     0
281
     0
  0
CLASS
  1
ACDBPLACEHOLDER
  2
AcDbPlaceHolder
  3
ObjectDBX Classes
 90
        0
280
     0
281
     0
  0
CLASS
  1
LAYOUT
  2
AcDbLayout
  3
ObjectDBX Classes
 90
        0
280
     0
281
     0
  0
CLASS
  1
SORTENTSTABLE
  2
AcDbSortentsTable
  3
ObjectDBX Classes
 90
        0
280
     0
281
     0
  0
CLASS
  1
DIMASSOC
  2
AcDbDimAssoc
  3
"AcDbDimAssoc|Product Desc:     AcDim ARX App For Dimension|Company:          Autodesk, Inc.|WEB Address:      www.autodesk.com"
 90
    32768
280
     0
281
     0
  0
CLASS
  1
DICTIONARYVAR
  2
AcDbDictionaryVar
  3
ObjectDBX Classes
 90
        0
280
     0
281
     0
  0
CLASS
  1
MATERIAL
  2
AcDbMaterial
  3
ObjectDBX Classes
 90
     1153
280
     0
281
     0
  0
CLASS
  1
VISUALSTYLE
  2
AcDbVisualStyle
  3
ObjectDBX Classes
 90
     4095
280
     0
281
     0
  0
CLASS
  1
TABLESTYLE
  2
AcDbTableStyle
  3
ObjectDBX Classes
 90
     4095
280
     0
281
     0
  0
CLASS
  1
SCALE
  2
AcDbScale
  3
ObjectDBX Classes
 90
     1153
280
     0
281
     0
  0
CLASS
  1
MLEADERSTYLE
  2
AcDbMLeaderStyle
  3
ACDB_MLEADERSTYLE_CLASS
 90
     4095
280
     0
281
     0
  0
CLASS
  1
ACME_DOCUMENT
  2
AcMeDbDoc
  3
AcMeServices
 90
     1024
280
     0
281
     0
  0
CLASS
  1
AMGSETTINGSOBJ
  2
AmgSettingsObj
  3
"AcadM|Product Description: AutoCAD Mechanical|Company: Autodesk, Inc."
 90
     1024
280
     0
281
     0
  0
CLASS
  1
ACMESCOPE
  2
AcMeScope
  3
AcMeServices
 90
     1024
280
     0
281
     0
  0
CLASS
  1
ACMECOMMANDHISTORY
  2
AcMeCommandHistory
  3
AcMeServices
 90
     1024
280
     0
281
     0
  0
CLASS
  1
ACIMSYSVARMAN
  2
AcImSysVarManager
  3
AcMeServices
 90
     1024
280
     0
281
     0
  0
CLASS
  1
ACIMINTSYSVAR
  2
AcImIntSysVar
  3
AcMeServices
 90
     1024
280
     0
281
     0
  0
CLASS
  1
ACMEDRAWINGMAN
  2
AcMeDrawingMan
  3
AcMeServices
 90
    33792
280
     0
281
     0
  0
CLASS
  1
ACMEVIEW
  2
AcMeView
  3
AcMeServices
 90
    33792
280
     0
281
     0
  0
CLASS
  1
ACDBENTITYCACHE
  2
AcMeEntityCache
  3
AcMeServices
 90
     1024
280
     0
281
     0
  0
CLASS
  1
GSMANAGER
  2
AcMeGSManager
  3
AcMeServices
 90
    33792
280
     0
281
     0
  0
CLASS
  1
AMDTINTERNALREACTOR
  2
AmdtInternalReactor
  3
AcMeServices
 90
    33792
280
     0
281
     0
  0
CLASS
  1
ACMESTATEMGR
  2
AcMeStateMgr
  3
AcMeServices
 90
     1024
280
     0
281
     0
  0
CLASS
  1
ACGREFMASTER
  2
AcGrefMaster
  3
AcAttribServices
 90
     1024
280
     0
281
     0
  0
CLASS
  1
AM_DRAWING_MGR
  2
AcDmDwgMgr
  3
AcMechDwgViewMgmt
 90
    33792
280
     0
281
     0
  0
CLASS
  1
AM_DWG_DOCUMENT
  2
AcDmDwgDocument
  3
AcMechDwgViewMgmt
 90
    33792
280
     0
281
     0
  0
CLASS
  1
AM_DWG_SHEET
  2
AcDmSheet
  3
AcMechDwgViewMgmt
 90
    33792
280
     0
281
     0
  0
CLASS
  1
AM_VIEWDIMPARMAP
  2
AcDmViewDimParMap
  3
AcMechDwgViewMgmt
 90
    33792
280
     0
281
     0
  0
CLASS
  1
ACIMREALSYSVAR
  2
AcImRealSysVar
  3
AcMeServices
 90
    33792
280
     0
281
     0
  0
CLASS
  1
AM_DWGMGR_NAME
  2
AcDmDwgMgrName
  3
AcMechDwgViewMgmt
 90
    33792
280
     0
281
     0
  0
CLASS
  1
ACME_DATABASE
  2
AcMeDbDatabase
  3
AcMeServices
 90
     1024
280
     0
281
     0
  0
CLASS
  1
ACRFINSADJUSTERMGR
  2
AcRfInsAdjusterMgr
  3
AcMeServices
 90
     1024
280
     0
281
     0
  0
CLASS
  1
ACGREFACADMASTER
  2
AcGrefacadMaster
  3
AcGrefServices
 90
     1024
280
     0
281
     0
  0
CLASS
  1
AMDTMENUSTATEMGR
  2
AmdtMenuStateMgr
  3
McadcomServices
 90
     1024
280
     0
281
     0
  0
CLASS
  1
AMDTMCOMMENUSTATE
  2
AmdtMcomMenuState
  3
McadcomServices
 90
     1024
280
     0
281
     0
  0
CLASS
  1
AMIMASTER
  2
AmiMaster
  3
AmiServices
 90
     1024
280
     0
281
     0
  0
CLASS
  1
MAPIAMMOUDLE
  2
MApiAmModule
  3
MApiAmServices
 90
     1024
280
     0
281
     0
  0
CLASS
  1
ACIMSTRSYSVAR
  2
AcImStrSysVar
  3
AcMeServices
 90
     1024
280
     0
281
     0
  0
CLASS
  1
AMDTADMENUSTATE
  2
AmdtAdMenuState
  3
DesignerServices
 90
    33792
280
     0
281
     0
  0
CLASS
  1
ADAPPL
  2
AcAdAppl
  3
DesignerAssemblies
 90
    33792
280
     0
281
     0
  0
CLASS
  1
DEPMGR
  2
AcAdDepMgr
  3
DesignerAssemblies
 90
    33792
280
     0
281
     0
  0
CLASS
  1
PARAMMGR
  2
AcAdParamMgr
  3
DesignerAssemblies
 90
    33792
280
     0
281
     0
  0
CLASS
  1
PARAMSCOPE
  2
AcAdParamScope
  3
DesignerAssemblies
 90
    33792
280
     0
281
     0
  0
CLASS
  1
NAMEDAPPL
  2
AcAdNamedAppl
  3
DesignerAssemblies
 90
    33792
280
     0
281
     0
  0
CLASS
  1
AMDTDMMENUSTATE
  2
AmdtDmMenuState
  3
AcMechDwgViewMgmt
 90
    33792
280
     0
281
     0
  0
CLASS
  1
AMDTAMMENUSTATE
  2
AmdtAmMenuState
  3
DesignerAssemblies
 90
     1024
280
     0
281
     0
  0
CLASS
  1
ACAMPROJECT
  2
AcAmProject
  3
DesignerAssemblies
 90
     1024
280
     0
281
     0
  0
CLASS
  1
ACAMGRCOMPDEF
  2
AcAmGrCompDef
  3
DesignerAssemblies
 90
     1024
280
     0
281
     0
  0
CLASS
  1
ACCMCONTEXT
  2
AcCmContext
  3
DesignerAssemblies
 90
    33792
280
     0
281
     0
  0
CLASS
  1
ACAMCOMPDEF
  2
AcAmCompDef
  3
DesignerAssemblies
 90
     1024
280
     0
281
     0
  0
CLASS
  1
ACAMCOMPDEFMGR
  2
AcAmCompDefMgr
  3
DesignerAssemblies
 90
     1024
280
     0
281
     0
  0
CLASS
  1
AMCONTEXTMGR
  2
AcAmContextMgr
  3
DesignerAssemblies
 90
     1024
280
     0
281
     0
  0
CLASS
  1
ACAMCONTEXTMODELER
  2
AcAmContextModeler
  3
DesignerAssemblies
 90
     1024
280
     0
281
     0
  0
CLASS
  1
ACMDATADICTIONARY
  2
AcmDataDictionary
  3
"AcmSymBB|Product Description: AutoCAD Mechanical|Company: Autodesk, Inc."
 90
     1024
280
     0
281
     0
  0
CLASS
  1
CATALOGSTATE
  2
AcAmCatalogState
  3
DesignerAssemblies
 90
    33792
280
     0
281
     0
  0
CLASS
  1
ACAMGRCOMPDEFSET
  2
AcAmGrCompDefSet
  3
DesignerAssemblies
 90
     1024
280
     0
281
     0
  0
CLASS
  1
AMDTBROWSERDBTAB
  2
AmdtBrowserDbTab
  3
McadcomServices
 90
     1024
280
     0
281
     0
  0
CLASS
  1
CBROWSERAPPOBJECT
  2
CBrowserAppObject
  3
McadcomServices
 90
     1024
280
     0
281
     0
  0
CLASS
  1
DM_PLACEHOLDER
  2
AcDmSelsetPlaceholder
  3
McadcomServices
 90
     1024
280
     0
281
     0
  0
CLASS
  1
ACMSTANDARDANSI
  2
AcmStandardANSI
  3
"Amdt_StdImp|Product Description: AutoCAD Mechanical|Company: Autodesk, Inc."
 90
     1024
280
     0
281
     0
  0
CLASS
  1
AMGOBJPROPCFG
  2
AmgObjPropCfg
  3
"AmgLay|Product Description: AutoCAD Mechanical|Company: Autodesk, Inc."
 90
     1024
280
     0
281
     0
  0
CLASS
  1
ACMSURFSTANDARDANSI
  2
AcmSurfTextStdANSI
  3
"Amdt_StdImp|Product Description: AutoCAD Mechanical|Company: Autodesk, Inc."
 90
     1024
280
     0
281
     0
  0
CLASS
  1
ACMFCFSTANDARDANSI
  2
AcmFCFStdANSI
  3
"Amdt_StdImp|Product Description: AutoCAD Mechanical|Company: Autodesk, Inc."
 90
     1024
280
     0
281
     0
  0
CLASS
  1
ACMWELDSTANDARDANSI
  2
AcmWeldingStdANSI
  3
"Amdt_StdImp|Product Description: AutoCAD Mechanical|Company: Autodesk, Inc."
 90
     1024
280
     0
281
     0
  0
CLASS
  1
ACMIDSTANDARDANSI
  2
AcmIdStdANSI
  3
"Amdt_StdImp|Product Description: AutoCAD Mechanical|Company: Autodesk, Inc."
 90
     1024
280
     0
281
     0
  0
CLASS
  1
ACMDATUMSTANDARDANSI
  2
AcmDatumStdANSI
  3
"Amdt_StdImp|Product Description: AutoCAD Mechanical|Company: Autodesk, Inc."
 90
     1024
280
     0
281
     0
  0
CLASS
  1
ACMBOMSTANDARDANSI
  2
AcmBOMStdANSI
  3
"Amdt_StdImp|Product Description: AutoCAD Mechanical|Company: Autodesk, Inc."
 90
     1024
280
     0
281
     0
  0
CLASS
  1
ACMDETAILSTANDARDANSI
  2
AmdtDetailSymStdANSI
  3
"Amdt_StdImp|Product Description: AutoCAD Mechanical|Company: Autodesk, Inc."
 90
     1024
280
     0
281
     0
  0
CLASS
  1
ACMSECTIONSTANDARDANSI
  2
AmdtSectionSymStdANSI
  3
"Amdt_StdImp|Product Description: AutoCAD Mechanical|Company: Autodesk, Inc."
 90
     1024
280
     0
281
     0
  0
CLASS
  1
ACMCENTERLINESTANDARDANSI
  2
AmdtCenterLineStdANSI
  3
"Amdt_StdImp|Product Description: AutoCAD Mechanical|Company: Autodesk, Inc."
 90
     1024
280
     0
281
     0
  0
CLASS
  1
ACMTHREADLINESTANDARDANSI
  2
AmdtThreadLineStdANSI
  3
"Amdt_StdImp|Product Description: AutoCAD Mechanical|Company: Autodesk, Inc."
 90
     1024
280
     0
281
     0
  0
CLASS
  1
ACMNOTESTANDARDANSI
  2
AmdtNoteStdANSI
  3
"Amdt_StdImp|Product Description: AutoCAD Mechanical|Company: Autodesk, Inc."
 90
     1024
280
     0
281
     0
  0
CLASS
  1
ACMTAPERSTANDARDANSI
  2
AcmTaperStdANSI
  3
"Amdt_StdImp|Product Description: AutoCAD Mechanical|Company: Autodesk, Inc."
 90
     1024
280
     0
281
     0
  0
CLASS
  1
ACMANOOTATIONVIEWSTANDARDANSI
  2
AmdtAnViewStdANSI
  3
"Amdt_StdImp|Product Description: AutoCAD Mechanical|Company: Autodesk, Inc."
 90
     1024
280
     0
281
     0
  0
CLASS
  1
AMDTNOTETEMPLATEDB
  2
AmdtNoteTemplateDB
  3
AcmSymBB|Product Description: AutoCAD Mechanical|Company: Autodesk, Inc.
 90
     1024
280
     0
281
     0
  0
CLASS
  1
ACAMGLAYSTD
  2
AcAmgLayStd
  3
"AmgLay|Product Description: AutoCAD Mechanical|Company: Autodesk, Inc."
 90
     1024
280
     0
281
     0
  0
CLASS
  1
ACAMGDIMSTD
  2
AcAmgDimStd
  3
"AmgDim|Product Description: AutoCAD Mechanical|Company: Autodesk, Inc."
 90
     1024
280
     0
281
     0
  0
CLASS
  1
ACAMGHOLECHARTSTDANSI
  2
AcAmgHoleChartStdANSI
  3
AmgDim|Product Description: AutoCAD Mechanical|Company: Autodesk, Inc.
 90
     1024
280
     0
281
     0
  0
CLASS
  1
ACAMGTITLESTD
  2
AcAmgTitleStd
  3
"AmgTitle|Product Description: AutoCAD Mechanical|Company: Autodesk, Inc."
 90
     1024
280
     0
281
     0
  0
CLASS
  1
ACAMGFILTERDAT
  2
AcAmgFilterDat
  3
"AcadM|Product Description: AutoCAD Mechanical|Company: Autodesk, Inc."
 90
    33792
280
     0
281
     0
  0
CLASS
  1
CELLSTYLEMAP
  2
AcDbCellStyleMap
  3
ObjectDBX Classes
 90
     1152
280
     0
281
     0
  0
CLASS
  1
SOLID_BACKGROUND
  2
AcDbSolidBackground
  3
SCENEOE
 90
    36863
280
     0
281
     0
  0
CLASS
  1
NPOCOLLECTION
  2
AcDbImpNonPersistentObjectsCollection
  3
ObjectDBX Classes
 90
    33921
280
     0
281
     0
  0
CLASS
  1
PLOTSETTINGS
  2
AcDbPlotSettings
  3
ObjectDBX Classes
 90
        0
280
     0
281
     0
  0
CLASS
  1
CAMSSTRUCTBTNSTATE
  2
StructBtnState
  3
DesignerAssemblies
 90
    33792
280
     0
281
     0
  0
CLASS
  1
ACDBSECTIONVIEWSTYLE
  2
AcDbSectionViewStyle
  3
ObjectDBX Classes
 90
     1025
280
     0
281
     0
  0
CLASS
  1
ACDBDETAILVIEWSTYLE
  2
AcDbDetailViewStyle
  3
ObjectDBX Classes
 90
     1025
280
     0
281
     0
  0
ENDSEC
  0
SECTION
  2
TABLES
  0
TABLE
  2
VPORT
  5
26
102
{ACAD_XDICTIONARY
360
2A
102
}
330
0
100
AcDbSymbolTable
 70
     1
  0
VPORT
  5
27
330
26
100
AcDbSymbolTableRecord
100
AcDbViewportTableRecord
  2
*Active
 70
     0
 10
0.0
 20
0.0
 11
1.0
 21
1.0
 12
25.21547600216714
 22
-1.723281177160563
 13
0.0
 23
0.0
 14
0.5
 24
0.5
 15
0.5
 25
0.5
 16
0.0
 26
0.0
 36
1.0
 17
0.0
 27
0.0
 37
0.0
 40
3.758412302557342
 41
2.035582822085889
 42
50.0
 43
0.0
 44
0.0
 50
0.0
 51
0.0
 71
     0
 72
   100
 73
     1
 74
     3
 75
     0
 76
     0
 77
     0
 78
     0
281
     0
 65
     0
110
0.0
120
0.0
130
0.0
111
1.0
121
0.0
131
0.0
112
0.0
122
1.0
132
0.0
 79
     0
146
0.0
1001
ACAD_NAV_VCDISPLAY
1070
     3
  0
ENDTAB
  0
TABLE
  2
LTYPE
  5
21
330
0
100
AcDbSymbolTable
 70
    16
  0
LTYPE
  5
22
330
21
100
AcDbSymbolTableRecord
100
AcDbLinetypeTableRecord
  2
ByBlock
 70
     0
  3

 72
    65
 73
     0
 40
0.0
  0
LTYPE
  5
23
330
21
100
AcDbSymbolTableRecord
100
AcDbLinetypeTableRecord
  2
ByLayer
 70
     0
  3

 72
    65
 73
     0
 40
0.0
  0
LTYPE
  5
1B
330
21
100
AcDbSymbolTableRecord
100
AcDbLinetypeTableRecord
  2
Continuous
 70
     0
  3
Solid line
 72
    65
 73
     0
 40
0.0
  0
LTYPE
  5
28FC
330
21
100
AcDbSymbolTableRecord
100
AcDbLinetypeTableRecord
  2
Amconstr
 70
     0
  3
_______________________
 72
    65
 73
     2
 40
9999.0
 49
9999.0
 74
     0
 49
0.0
 74
     0
  0
LTYPE
  5
292D
330
21
100
AcDbSymbolTableRecord
100
AcDbLinetypeTableRecord
  2
HIDDEN
 70
     0
  3
Hidden __ __ __ __ __ __ __ __ __ __ __ __ __ _
 72
    65
 73
     2
 40
0.375
 49
0.25
 74
     0
 49
-0.125
 74
     0
  0
LTYPE
  5
292E
330
21
100
AcDbSymbolTableRecord
100
AcDbLinetypeTableRecord
  2
PHANTOM2
 70
     0
  3
Phantom (.5x) ___ _ _ ___ _ _ ___ _ _ ___ _ _
 72
    65
 73
     6
 40
1.25
 49
0.625
 74
     0
 49
-0.125
 74
     0
 49
0.125
 74
     0
 49
-0.125
 74
     0
 49
0.125
 74
     0
 49
-0.125
 74
     0
  0
LTYPE
  5
292F
330
21
100
AcDbSymbolTableRecord
100
AcDbLinetypeTableRecord
  2
CENTER
 70
     0
  3
Center ____ _ ____ _ ____ _ ____ _ ____ _ ____
 72
    65
 73
     4
 40
2.0
 49
1.25
 74
     0
 49
-0.25
 74
     0
 49
0.25
 74
     0
 49
-0.25
 74
     0
  0
LTYPE
  5
2998
330
21
100
AcDbSymbolTableRecord
100
AcDbLinetypeTableRecord
  2
CENTER2
 70
     0
  3
Center (.5x) ___ _ ___ _ ___ _ ___ _ ___ _ ___
 72
    65
 73
     4
 40
1.125
 49
0.75
 74
     0
 49
-0.125
 74
     0
 49
0.125
 74
     0
 49
-0.125
 74
     0
  0
LTYPE
  5
2999
330
21
100
AcDbSymbolTableRecord
100
AcDbLinetypeTableRecord
  2
HIDDEN2
 70
     0
  3
Hidden (.5x) _ _ _ _ _ _ _ _ _ _ _ _ _ _ _ _ _
 72
    65
 73
     2
 40
0.1875
 49
0.125
 74
     0
 49
-0.0625
 74
     0
  0
LTYPE
  5
299A
330
21
100
AcDbSymbolTableRecord
100
AcDbLinetypeTableRecord
  2
Amzigzag2
 70
     0
  3
/\/-/\/-/\/-/\/-/\/-/\/
 72
    65
 73
     2
 40
0.4401
 49
0.0001
 74
     4
 75
   136
340
2900
 46
0.0016
 50
0.0
 44
0.0
 45
0.0
 49
-0.4400000000000003
 74
     0
  0
LTYPE
  5
299B
330
21
100
AcDbSymbolTableRecord
100
AcDbLinetypeTableRecord
  2
ACANSTGB
 70
     0
  3
__ . . __ . .
 72
    65
 73
     6
 40
0.35433070866
 49
0.15748031496
 74
     0
 49
-0.03937007874
 74
     0
 49
0.03937007874
 74
     0
 49
-0.03937007874
 74
     0
 49
0.03937007874
 74
     0
 49
-0.03937007874
 74
     0
  0
LTYPE
  5
299C
330
21
100
AcDbSymbolTableRecord
100
AcDbLinetypeTableRecord
  2
ACANSTGL
 70
     0
  3
_ _ _ _ _
 72
    65
 73
     2
 40
0.11811023622
 49
0.07874015748
 74
     0
 49
-0.03937007874
 74
     0
  0
LTYPE
  5
3C8C
330
21
100
AcDbSymbolTableRecord
100
AcDbLinetypeTableRecord
  2
AM_ISO02W050
 70
     0
  3
__ __ __ __ __ __ __ __ __ __ __ __ __ __ __
 72
    65
 73
     2
 40
7.5
 49
6.0
 74
     0
 49
-1.5
 74
     0
  0
LTYPE
  5
3C8D
330
21
100
AcDbSymbolTableRecord
100
AcDbLinetypeTableRecord
  2
AM_ISO08W050
 70
     0
  3
____ . ____ . ____ . ____ . ____ . ____ . ____
 72
    65
 73
     4
 40
18.0
 49
12.0
 74
     0
 49
-1.5
 74
     0
 49
3.0
 74
     0
 49
-1.5
 74
     0
  0
LTYPE
  5
3C8E
330
21
100
AcDbSymbolTableRecord
100
AcDbLinetypeTableRecord
  2
AM_ISO09W050
 70
     0
  3
_____ . . _____ . . _____ . . ____ .. ____
 72
    65
 73
     6
 40
22.5
 49
12.0
 74
     0
 49
-1.5
 74
     0
 49
3.0
 74
     0
 49
-1.5
 74
     0
 49
3.0
 74
     0
 49
-1.5
 74
     0
  0
LTYPE
  5
3C8F
330
21
100
AcDbSymbolTableRecord
100
AcDbLinetypeTableRecord
  2
AM_ISO08W050x2
 70
     0
  3
__ . __ . __ . __ . __ . __
 72
    65
 73
     4
 40
9.0
 49
6.0
 74
     0
 49
-0.75
 74
     0
 49
1.5
 74
     0
 49
-0.75
 74
     0
  0
LTYPE
  5
3C90
330
21
100
AcDbSymbolTableRecord
100
AcDbLinetypeTableRecord
  2
AM_ISO02W050x2
 70
     0
  3
 _ _ _ _ _ _ _ _ _ _ _ _
 72
    65
 73
     2
 40
3.75
 49
3.0
 74
     0
 49
-0.75
 74
     0
  0
LTYPE
  5
3C91
330
21
100
AcDbSymbolTableRecord
100
AcDbLinetypeTableRecord
  2
Amzigzag
 70
     0
  3
/\/-/\/-/\/-/\/-/\/-/\/
 72
    65
 73
     2
 40
11.0001
 49
0.0001
 74
     4
 75
   136
340
2900
 46
0.04
 50
0.0
 44
0.0
 45
0.0
 49
-11.0
 74
     0
  0
ENDTAB
  0
TABLE
  2
LAYER
  5
C
102
{ACAD_XDICTIONARY
360
1C
102
}
330
0
100
AcDbSymbolTable
 70
    13
  0
LAYER
  5
D
102
{ACAD_XDICTIONARY
360
E
102
}
330
C
100
AcDbSymbolTableRecord
100
AcDbLayerTableRecord
  2
0
 70
     0
 62
     7
  6
Continuous
370
    -3
390
10
  0
LAYER
  5
94
102
{ACAD_XDICTIONARY
360
95
102
}
330
C
100
AcDbSymbolTableRecord
100
AcDbLayerTableRecord
  2
Border
 70
     0
 62
     5
  6
Continuous
370
    -3
390
10
  0
LAYER
  5
98
102
{ACAD_XDICTIONARY
360
99
102
}
330
C
100
AcDbSymbolTableRecord
100
AcDbLayerTableRecord
  2
Text
 70
     0
 62
     3
  6
Continuous
370
    -3
390
10
  0
LAYER
  5
7E
330
C
100
AcDbSymbolTableRecord
100
AcDbLayerTableRecord
  2
DEFPOINTS
 70
     0
 62
     7
  6
Continuous
290
     0
370
    -3
390
10
  0
LAYER
  5
10C
102
{ACAD_XDICTIONARY
360
10D
102
}
330
C
100
AcDbSymbolTableRecord
100
AcDbLayerTableRecord
  2
PCB_TOP
 70
     0
 62
     5
  6
Continuous
370
    -3
390
10
  0
LAYER
  5
117
102
{ACAD_XDICTIONARY
360
118
102
}
330
C
100
AcDbSymbolTableRecord
100
AcDbLayerTableRecord
  2
PCB_BOT
 70
     0
 62
     1
  6
Continuous
370
    -3
390
10
  0
LAYER
  5
108
102
{ACAD_XDICTIONARY
360
109
102
}
330
C
100
AcDbSymbolTableRecord
100
AcDbLayerTableRecord
  2
PCB_OUTLINE
 70
     0
 62
   142
  6
Continuous
370
    -3
390
10
  0
LAYER
  5
BF
102
{ACAD_XDICTIONARY
360
C0
102
}
330
C
100
AcDbSymbolTableRecord
100
AcDbLayerTableRecord
  2
Layer1
 70
     0
 62
     1
  6
Continuous
370
    -3
390
10
1001
AcAecLayerStandard
1000

1000

  0
LAYER
  5
6F
102
{ACAD_XDICTIONARY
360
70
102
}
330
C
100
AcDbSymbolTableRecord
100
AcDbLayerTableRecord
  2
DIMS
 70
     0
 62
    82
  6
Continuous
370
    -3
390
10
  0
LAYER
  5
288C
330
C
100
AcDbSymbolTableRecord
100
AcDbLayerTableRecord
  2
Ref
 70
     0
 62
     7
  6
Continuous
370
    -3
390
10
1001
AcAecLayerStandard
1000

1000

  0
LAYER
  5
33A0
330
C
100
AcDbSymbolTableRecord
100
AcDbLayerTableRecord
  2
Housing
 70
     0
 62
     1
  6
Continuous
370
    -3
390
10
1001
AcAecLayerStandard
1000

1000

  0
LAYER
  5
3F78
102
{ACAD_XDICTIONARY
360
3F79
102
}
330
C
100
AcDbSymbolTableRecord
100
AcDbLayerTableRecord
  2
Dimensions
 70
     0
 62
    -4
  6
Continuous
370
    -3
390
10
1001
RAK
1000
{ACET-LAYISO
1070
     0
1070
     4
1000
Continuous
1070
     1
1071
       -3
1071
        1
1005
10
1000
ACET-LAYISO}
  0
LAYER
  5
3F7A
330
C
100
AcDbSymbolTableRecord
100
AcDbLayerTableRecord
  2
Part
 70
     0
 62
     1
  6
Continuous
370
    -3
390
10
1001
AcAecLayerStandard
1000

1000

  0
ENDTAB
  0
TABLE
  2
STYLE
  5
1E
330
0
100
AcDbSymbolTable
 70
     6
  0
STYLE
  5
1F
330
1E
100
AcDbSymbolTableRecord
100
AcDbTextStyleTableRecord
  2
Standard
 70
     0
 40
0.0
 41
1.0
 50
0.0
 71
     0
 42
0.2
  3
txt
  4

  0
STYLE
  5
7C
330
1E
100
AcDbSymbolTableRecord
100
AcDbTextStyleTableRecord
  2
ROMANS
 70
     0
 40
0.0
 41
1.0
 50
0.0
 71
     0
 42
0.1
  3
C:\ACADWIN\FONTS\AU100S00.SHX
  4

  0
STYLE
  5
C4
330
1E
100
AcDbSymbolTableRecord
100
AcDbTextStyleTableRecord
  2
ARIAL
 70
     0
 40
0.0
 41
1.0
 50
0.0
 71
     0
 42
0.2452744685283672
  3
ARIAL.TTF
  4

1001
ACAD
1000
Arial
1071
       34
  0
STYLE
  5
2900
330
1E
100
AcDbSymbolTableRecord
100
AcDbTextStyleTableRecord
  2

 70
     1
 40
0.0
 41
1.0
 50
0.0
 71
     0
 42
0.2
  3
genltshp.shx
  4

  0
STYLE
  5
299D
330
1E
100
AcDbSymbolTableRecord
100
AcDbTextStyleTableRecord
  2
ACANSGDT
 70
     0
 40
0.0
 41
1.0
 50
0.0
 71
     0
 42
0.2
  3
amgdt.shx
  4

  0
STYLE
  5
3C93
330
1E
100
AcDbSymbolTableRecord
100
AcDbTextStyleTableRecord
  2
ACANSTS
 70
     0
 40
1.0
 41
1.0
 50
0.0
 71
     0
 42
0.2
  3
romans.shx
  4

  0
ENDTAB
  0
TABLE
  2
VIEW
  5
24
330
0
100
AcDbSymbolTable
 70
     0
  0
ENDTAB
  0
TABLE
  2
UCS
  5
25
330
0
100
AcDbSymbolTable
 70
     0
  0
ENDTAB
  0
TABLE
  2
APPID
  5
2B
330
0
100
AcDbSymbolTable
 70
    30
  0
APPID
  5
2C
330
2B
100
AcDbSymbolTableRecord
100
AcDbRegAppTableRecord
  2
ACAD
 70
     0
  0
APPID
  5
72
330
2B
100
AcDbSymbolTableRecord
100
AcDbRegAppTableRecord
  2
RAK
 70
     0
  0
APPID
  5
C2
330
2B
100
AcDbSymbolTableRecord
100
AcDbRegAppTableRecord
  2
AcAecLayerStandard
 70
     0
  0
APPID
  5
1E7
330
2B
100
AcDbSymbolTableRecord
100
AcDbRegAppTableRecord
  2
ACATTRIBSERVICES
 70
     0
  0
APPID
  5
227
330
2B
100
AcDbSymbolTableRecord
100
AcDbRegAppTableRecord
  2
ACAD_MLEADERVER
 70
     0
  0
APPID
  5
233
330
2B
100
AcDbSymbolTableRecord
100
AcDbRegAppTableRecord
  2
MCAD_NO_VIS
 70
     0
  0
APPID
  5
234
330
2B
100
AcDbSymbolTableRecord
100
AcDbRegAppTableRecord
  2
ACAD_TEMP_GRAPHIC
 70
     0
  0
APPID
  5
23D
330
2B
100
AcDbSymbolTableRecord
100
AcDbRegAppTableRecord
  2
AD_DRAW
 70
     0
  0
APPID
  5
258
330
2B
100
AcDbSymbolTableRecord
100
AcDbRegAppTableRecord
  2
DESIGNERASSEMBLIES
 70
     0
  0
APPID
  5
25F
330
2B
100
AcDbSymbolTableRecord
100
AcDbRegAppTableRecord
  2
ACADM_DIM_EDIT
 70
     0
  0
APPID
  5
260
330
2B
100
AcDbSymbolTableRecord
100
AcDbRegAppTableRecord
  2
AMDT_DM_ADJ
 70
     0
  0
APPID
  5
2A8
330
2B
100
AcDbSymbolTableRecord
100
AcDbRegAppTableRecord
  2
ACAD_PSEXT
 70
     0
  0
APPID
  5
2E7
330
2B
100
AcDbSymbolTableRecord
100
AcDbRegAppTableRecord
  2
ACAD_DSTYLE_DIMARC_LENGTH_SYMBOL
 70
     0
  0
APPID
  5
454
330
2B
100
AcDbSymbolTableRecord
100
AcDbRegAppTableRecord
  2
ACAD_DSTYLE_DIM_LINETYPE
 70
     0
  0
APPID
  5
455
330
2B
100
AcDbSymbolTableRecord
100
AcDbRegAppTableRecord
  2
ACAD_DSTYLE_DIM_EXT1_LINETYPE
 70
     0
  0
APPID
  5
456
330
2B
100
AcDbSymbolTableRecord
100
AcDbRegAppTableRecord
  2
ACAD_DSTYLE_DIM_EXT2_LINETYPE
 70
     0
  0
APPID
  5
4BD
330
2B
100
AcDbSymbolTableRecord
100
AcDbRegAppTableRecord
  2
ACAD_DSTYLE_DIMJOGGED_JOGANGLE_SYMBOL
 70
     0
  0
APPID
  5
7FE
330
2B
100
AcDbSymbolTableRecord
100
AcDbRegAppTableRecord
  2
ACAD_EXEMPT_FROM_CAD_STANDARDS
 70
     0
  0
APPID
  5
B8B
330
2B
100
AcDbSymbolTableRecord
100
AcDbRegAppTableRecord
  2
ACAD_DSTYLE_DIMINSPECT
 70
     0
  0
APPID
  5
12C7
330
2B
100
AcDbSymbolTableRecord
100
AcDbRegAppTableRecord
  2
ACLAYERTOOLS
 70
     0
  0
APPID
  5
139A
330
2B
100
AcDbSymbolTableRecord
100
AcDbRegAppTableRecord
  2
ACAD_DSTYLE_DIMRADIAL_EXTENSION
 70
     0
  0
APPID
  5
17AE
330
2B
100
AcDbSymbolTableRecord
100
AcDbRegAppTableRecord
  2
AcadAnnoPO
 70
     0
  0
APPID
  5
17AF
330
2B
100
AcDbSymbolTableRecord
100
AcDbRegAppTableRecord
  2
AcadAnnotative
 70
     0
  0
APPID
  5
17B0
330
2B
100
AcDbSymbolTableRecord
100
AcDbRegAppTableRecord
  2
ACAD_DSTYLE_DIMJAG
 70
     0
  0
APPID
  5
17B1
330
2B
100
AcDbSymbolTableRecord
100
AcDbRegAppTableRecord
  2
ACAD_DSTYLE_DIMTALN
 70
     0
  0
APPID
  5
17B2
330
2B
100
AcDbSymbolTableRecord
100
AcDbRegAppTableRecord
  2
GENIUS_GENSCREG_15
 70
     0
  0
APPID
  5
17B3
330
2B
100
AcDbSymbolTableRecord
100
AcDbRegAppTableRecord
  2
GENIUS_GENODEF_13
 70
     0
  0
APPID
  5
17B4
330
2B
100
AcDbSymbolTableRecord
100
AcDbRegAppTableRecord
  2
GENIUS_GENOBJ-N-SDF_13
 70
     0
  0
APPID
  5
224B
330
2B
100
AcDbSymbolTableRecord
100
AcDbRegAppTableRecord
  2
ACAD_DSTYLE_DIMBREAK
 70
     0
  0
APPID
  5
3E00
330
2B
100
AcDbSymbolTableRecord
100
AcDbRegAppTableRecord
  2
ACAD_NAV_VCDISPLAY
 70
     0
  0
ENDTAB
  0
TABLE
  2
DIMSTYLE
  5
2D
330
0
100
AcDbSymbolTable
 70
     9
100
AcDbDimStyleTable
 71
     1
340
17AD
  0
DIMSTYLE
105
17AD
330
2D
100
AcDbSymbolTableRecord
100
AcDbDimStyleTableRecord
  2
3 Decimal Places
 70
     0
 41
0.125
 44
0.08
 78
     4
140
0.09
176
   256
177
   256
178
   256
271
     3
272
     3
284
     4
285
     4
286
     4
340
7C
371
    -1
372
    -1
  0
DIMSTYLE
105
299E
102
{ACAD_REACTORS
330
4009
102
}
330
2D
100
AcDbSymbolTableRecord
100
AcDbDimStyleTableRecord
  2
AM_ANSI
 70
     0
  4
mm
 41
0.12
 42
0.05
 43
0.5
 44
0.1
 47
0.1
 48
0.1
 78
     7
 79
     2
140
0.12
141
0.0
146
0.71
147
0.06
176
   256
177
   256
178
     2
274
     4
284
     7
340
1F
371
    -1
372
    -1
1001
ACAD_DSTYLE_DIMARC_LENGTH_SYMBOL
1070
   379
1070
     1
1001
ACAD_DSTYLE_DIM_LINETYPE
1070
   380
1005
22
1001
ACAD_DSTYLE_DIM_EXT1_LINETYPE
1070
   381
1005
22
1001
ACAD_DSTYLE_DIM_EXT2_LINETYPE
1070
   382
1005
22
  0
DIMSTYLE
105
299F
330
2D
100
AcDbSymbolTableRecord
100
AcDbDimStyleTableRecord
  2
AM_ANSI$3
 70
     0
  4
mm
 41
0.12
 42
0.05
 43
0.5
 44
0.1
 47
0.1
 48
0.1
 78
     7
 79
     2
140
0.12
141
0.0
146
0.71
147
0.06
176
   256
177
   256
178
     2
274
     4
284
     7
288
     1
289
     0
340
1F
371
    -1
372
    -1
1001
ACAD_DSTYLE_DIMARC_LENGTH_SYMBOL
1070
   379
1070
     1
1001
ACAD_DSTYLE_DIM_LINETYPE
1070
   380
1005
22
1001
ACAD_DSTYLE_DIM_EXT1_LINETYPE
1070
   381
1005
22
1001
ACAD_DSTYLE_DIM_EXT2_LINETYPE
1070
   382
1005
22
  0
DIMSTYLE
105
29A0
330
2D
100
AcDbSymbolTableRecord
100
AcDbDimStyleTableRecord
  2
AM_ANSI$4
 70
     0
  4
mm
 41
0.12
 42
0.05
 43
0.5
 44
0.1
 47
0.1
 48
0.1
 78
     7
 79
     2
140
0.12
141
0.0
146
0.71
147
0.06
176
   256
177
   256
178
     2
274
     4
284
     7
340
1F
371
    -1
372
    -1
1001
ACAD_DSTYLE_DIMARC_LENGTH_SYMBOL
1070
   379
1070
     1
1001
ACAD_DSTYLE_DIM_LINETYPE
1070
   380
1005
22
1001
ACAD_DSTYLE_DIM_EXT1_LINETYPE
1070
   381
1005
22
1001
ACAD_DSTYLE_DIM_EXT2_LINETYPE
1070
   382
1005
22
  0
DIMSTYLE
105
29A1
330
2D
100
AcDbSymbolTableRecord
100
AcDbDimStyleTableRecord
  2
AM_ANSI$7
 70
     0
  4
mm
 41
0.12
 42
0.05
 43
0.5
 44
0.1
 47
0.1
 48
0.1
 78
     7
 79
     2
140
0.12
141
0.0
146
0.71
147
0.06
176
   256
177
   256
178
     2
274
     4
284
     7
340
1F
371
    -1
372
    -1
1001
ACAD_DSTYLE_DIMARC_LENGTH_SYMBOL
1070
   379
1070
     1
1001
ACAD_DSTYLE_DIM_LINETYPE
1070
   380
1005
22
1001
ACAD_DSTYLE_DIM_EXT1_LINETYPE
1070
   381
1005
22
1001
ACAD_DSTYLE_DIM_EXT2_LINETYPE
1070
   382
1005
22
  0
DIMSTYLE
105
29A2
330
2D
100
AcDbSymbolTableRecord
100
AcDbDimStyleTableRecord
  2
AM_ANSI$SF
 70
     0
  4
mm
 41
0.12
 42
0.05
 43
0.5
 44
0.1
 47
0.1
 48
0.1
 75
     1
 76
     1
 78
     7
 79
     2
140
0.12
141
0.0
146
0.71
147
0.06
176
   256
177
   256
178
     2
274
     4
284
     7
340
1F
371
    -1
372
    -1
1001
ACAD_DSTYLE_DIMARC_LENGTH_SYMBOL
1070
   379
1070
     1
1001
ACAD_DSTYLE_DIM_LINETYPE
1070
   380
1005
22
1001
ACAD_DSTYLE_DIM_EXT1_LINETYPE
1070
   381
1005
22
1001
ACAD_DSTYLE_DIM_EXT2_LINETYPE
1070
   382
1005
22
  0
DIMSTYLE
105
29A3
330
2D
100
AcDbSymbolTableRecord
100
AcDbDimStyleTableRecord
  2
AM_ANSI$SH
 70
     0
  4
mm
 41
0.12
 42
0.05
 43
0.5
 44
0.1
 47
0.1
 48
0.1
 75
     1
 76
     1
 78
     7
 79
     2
140
0.12
141
0.0
146
0.71
147
0.06
173
     1
176
   256
177
   256
178
     2
274
     4
284
     7
340
1F
343
2994
371
    -1
372
    -1
1001
ACAD_DSTYLE_DIMARC_LENGTH_SYMBOL
1070
   379
1070
     1
1001
ACAD_DSTYLE_DIM_LINETYPE
1070
   380
1005
22
1001
ACAD_DSTYLE_DIM_EXT1_LINETYPE
1070
   381
1005
22
1001
ACAD_DSTYLE_DIM_EXT2_LINETYPE
1070
   382
1005
22
  0
DIMSTYLE
105
3F29
330
2D
100
AcDbSymbolTableRecord
100
AcDbDimStyleTableRecord
  2
Standard
 70
     0
340
1F
  0
DIMSTYLE
105
3F7B
330
2D
100
AcDbSymbolTableRecord
100
AcDbDimStyleTableRecord
  2
2 Decimal Places
 70
     0
 40
0.35
 41
0.125
 44
0.08
 73
     0
 74
     0
 78
     4
140
0.075
170
     1
176
   256
177
   256
178
   256
271
     2
272
     2
284
     4
285
     4
286
     4
340
7C
371
    -1
372
    -1
1001
ACAD_DSTYLE_DIMJAG
1070
   388
1040
1.5
1001
ACAD_DSTYLE_DIMTALN
1070
   392
1070
     0
  0
ENDTAB
  0
TABLE
  2
BLOCK_RECORD
  5
1
330
0
100
AcDbSymbolTable
 70
     5
  0
BLOCK_RECORD
  5
2
102
{ACAD_XDICTIONARY
360
13AA
102
}
330
1
100
AcDbSymbolTableRecord
100
AcDbBlockTableRecord
  2
*Model_Space
340
5
  0
BLOCK_RECORD
  5
8
330
1
100
AcDbSymbolTableRecord
100
AcDbBlockTableRecord
  2
*Paper_Space
340
B
  0
BLOCK_RECORD
  5
2994
330
1
100
AcDbSymbolTableRecord
100
AcDbBlockTableRecord
  2
GENAXEH
340
0
  0
BLOCK_RECORD
  5
3AE8
330
1
100
AcDbSymbolTableRecord
100
AcDbBlockTableRecord
  2
*D1
340
0
  0
BLOCK_RECORD
  5
3B02
330
1
100
AcDbSymbolTableRecord
100
AcDbBlockTableRecord
  2
*D2
340
0
  0
BLOCK_RECORD
  5
3F7C
102
{ACAD_XDICTIONARY
360
3F8B
102
}
330
1
100
AcDbSymbolTableRecord
100
AcDbBlockTableRecord
  2
A$C21E72138
340
0
102
{BLKREFS
331
3F90
102
}
1001
ACAD
1000
DesignCenter Data
1002
{
1070
     1
1070
     1
1002
}
  0
ENDTAB
  0
ENDSEC
  0
SECTION
  2
BLOCKS
  0
BLOCK
  5
3
330
2
100
AcDbEntity
  8
0
100
AcDbBlockBegin
  2
*Model_Space
 70
     0
 10
0.0
 20
0.0
 30
0.0
  3
*Model_Space
  1

  0
ENDBLK
  5
4
330
2
100
AcDbEntity
  8
0
100
AcDbBlockEnd
  0
BLOCK
  5
9
330
8
100
AcDbEntity
 67
     1
  8
0
100
AcDbBlockBegin
  2
*Paper_Space
 70
     0
 10
0.0
 20
0.0
 30
0.0
  3
*Paper_Space
  1

  0
ENDBLK
  5
A
330
8
100
AcDbEntity
 67
     1
  8
0
100
AcDbBlockEnd
  0
BLOCK
  5
2995
330
2994
100
AcDbEntity
  8
0
100
AcDbBlockBegin
  2
GENAXEH
 70
     0
 10
0.0
 20
0.0
 30
0.0
  3
GENAXEH
  1

  0
LINE
  5
2996
330
2994
100
AcDbEntity
  8
0
100
AcDbLine
 10
-1.0
 20
0.0
 30
0.0
 11
1.0
 21
0.0
 31
0.0
  0
ENDBLK
  5
2997
330
2994
100
AcDbEntity
  8
0
100
AcDbBlockEnd
  0
BLOCK
  5
3AE9
330
3AE8
100
AcDbEntity
  8
0
100
AcDbBlockBegin
  2
*D1
 70
     1
 10
0.0
 20
0.0
 30
0.0
  3
*D1
  1

  0
LINE
  5
3B81
330
3AE8
100
AcDbEntity
  8
DIMS
  6
ByBlock
100
AcDbLine
 10
23.7679898169432
 20
-3.130464314147651
 30
0.0
 11
23.7679898169432
 21
-2.835958795508426
 31
0.0
  0
LINE
  5
3B82
330
3AE8
100
AcDbEntity
  8
DIMS
  6
ByBlock
100
AcDbLine
 10
25.58798978502722
 20
-3.130464223866042
 30
0.0
 11
25.58798978502722
 21
-2.835958795508426
 31
0.0
  0
LINE
  5
3B83
330
3AE8
100
AcDbEntity
  8
DIMS
  6
ByBlock
100
AcDbLine
 10
23.8929898169432
 20
-2.915958795508426
 30
0.0
 11
24.41656122955664
 21
-2.915958795508426
 31
0.0
  0
LINE
  5
3B84
330
3AE8
100
AcDbEntity
  8
DIMS
  6
ByBlock
100
AcDbLine
 10
25.46298978502722
 20
-2.915958795508426
 30
0.0
 11
24.93941837241378
 21
-2.915958795508426
 31
0.0
  0
SOLID
  5
3B85
330
3AE8
100
AcDbEntity
  8
DIMS
100
AcDbTrace
 10
23.8929898169432
 20
-2.895125462175093
 30
0.0
 11
23.8929898169432
 21
-2.936792128841759
 31
0.0
 12
23.7679898169432
 22
-2.915958795508426
 32
0.0
 13
23.7679898169432
 23
-2.915958795508426
 33
0.0
  0
SOLID
  5
3B86
330
3AE8
100
AcDbEntity
  8
DIMS
100
AcDbTrace
 10
25.46298978502722
 20
-2.895125462175093
 30
0.0
 11
25.46298978502722
 21
-2.936792128841759
 31
0.0
 12
25.58798978502722
 22
-2.915958795508426
 32
0.0
 13
25.58798978502722
 23
-2.915958795508426
 33
0.0
  0
MTEXT
  5
3B87
330
3AE8
100
AcDbEntity
  8
DIMS
100
AcDbMText
 10
24.67798980098522
 20
-2.915958795508426
 30
0.0
 40
0.09
 41
0.0
 71
     5
 72
     1
  1
\A1;1.820
  7
ROMANS
 73
     1
 44
1.0
1001
ACAD
1000
MTEXTBEGIN
1070
    73
1070
     1
1070
    44
1040
1.0
1070
    74
1070
     0
1000
MTEXTEND
  0
POINT
  5
3B88
330
3AE8
100
AcDbEntity
  8
DEFPOINTS
 62
     0
100
AcDbPoint
 10
23.7679898169432
 20
-3.192964314147651
 30
0.0
  0
POINT
  5
3B89
330
3AE8
100
AcDbEntity
  8
DEFPOINTS
 62
     0
100
AcDbPoint
 10
25.58798978502722
 20
-3.192964223866042
 30
0.0
  0
POINT
  5
3B8A
330
3AE8
100
AcDbEntity
  8
DEFPOINTS
 62
     0
100
AcDbPoint
 10
25.58798978502722
 20
-2.915958795508426
 30
0.0
  0
ENDBLK
  5
3AEA
330
3AE8
100
AcDbEntity
  8
0
100
AcDbBlockEnd
  0
BLOCK
  5
3B03
330
3B02
100
AcDbEntity
  8
0
100
AcDbBlockBegin
  2
*D2
 70
     1
 10
0.0
 20
0.0
 30
0.0
  3
*D2
  1

  0
LINE
  5
3B8B
330
3B02
100
AcDbEntity
  8
DIMS
  6
ByBlock
100
AcDbLine
 10
23.70548981694319
 20
-4.942978866974851
 30
0.0
 11
23.36599957564516
 21
-4.942978866974851
 31
0.0
  0
LINE
  5
3B8C
330
3B02
100
AcDbEntity
  8
DIMS
  6
ByBlock
100
AcDbLine
 10
23.70548973013324
 20
-3.192964314147653
 30
0.0
 11
23.36599957564516
 21
-3.192964314147653
 31
0.0
  0
LINE
  5
3B8D
330
3B02
100
AcDbEntity
  8
DIMS
  6
ByBlock
100
AcDbLine
 10
23.44599957564515
 20
-4.817978866974851
 30
0.0
 11
23.44599957564515
 21
-4.202971590561253
 31
0.0
  0
LINE
  5
3B8E
330
3B02
100
AcDbEntity
  8
DIMS
  6
ByBlock
100
AcDbLine
 10
23.44599957564515
 20
-3.317964314147653
 30
0.0
 11
23.44599957564515
 21
-3.932971590561256
 31
0.0
  0
SOLID
  5
3B8F
330
3B02
100
AcDbEntity
  8
DIMS
100
AcDbTrace
 10
23.42516624231182
 20
-4.817978866974851
 30
0.0
 11
23.46683290897848
 21
-4.817978866974851
 31
0.0
 12
23.44599957564515
 22
-4.942978866974851
 32
0.0
 13
23.44599957564515
 23
-4.942978866974851
 33
0.0
  0
SOLID
  5
3B90
330
3B02
100
AcDbEntity
  8
DIMS
100
AcDbTrace
 10
23.42516624231182
 20
-3.317964314147653
 30
0.0
 11
23.46683290897848
 21
-3.317964314147653
 31
0.0
 12
23.44599957564515
 22
-3.192964314147653
 32
0.0
 13
23.44599957564515
 23
-3.192964314147653
 33
0.0
  0
MTEXT
  5
3B91
330
3B02
100
AcDbEntity
  8
DIMS
100
AcDbMText
 10
23.44599957564515
 20
-4.067971590561252
 30
0.0
 40
0.09
 41
0.0
 71
     5
 72
     1
  1
\A1;1.750
  7
ROMANS
 73
     1
 44
1.0
1001
ACAD
1000
MTEXTBEGIN
1070
    73
1070
     1
1070
    44
1040
1.0
1070
    74
1070
     0
1000
MTEXTEND
  0
POINT
  5
3B92
330
3B02
100
AcDbEntity
  8
DEFPOINTS
 62
     0
100
AcDbPoint
 10
23.7679898169432
 20
-4.942978866974851
 30
0.0
  0
POINT
  5
3B93
330
3B02
100
AcDbEntity
  8
DEFPOINTS
 62
     0
100
AcDbPoint
 10
23.76798973013324
 20
-3.192964314147653
 30
0.0
  0
POINT
  5
3B94
330
3B02
100
AcDbEntity
  8
DEFPOINTS
 62
     0
100
AcDbPoint
 10
23.44599957564515
 20
-3.192964314147653
 30
0.0
  0
ENDBLK
  5
3B04
330
3B02
100
AcDbEntity
  8
0
100
AcDbBlockEnd
  0
BLOCK
  5
3F8D
330
3F7C
100
AcDbEntity
  8
0
100
AcDbBlockBegin
  2
A$C21E72138
 70
     0
 10
0.0
 20
0.0
 30
0.0
  3
A$C21E72138
  1

  0
CIRCLE
  5
3F7D
330
3F7C
100
AcDbEntity
  8
Part
100
AcDbCircle
 10
0.885219997662215
 20
0.8851785725969918
 30
0.0
 40
0.0099999999999999
  0
CIRCLE
  5
3F7E
330
3F7C
100
AcDbEntity
  8
Part
100
AcDbCircle
 10
-0.0152199976622178
 20
0.8851785725969989
 30
0.0
 40
0.0099999999999999
  0
CIRCLE
  5
3F7F
330
3F7C
100
AcDbEntity
  8
Part
100
AcDbCircle
 10
0.885219997662215
 20
-0.0151785725970264
 30
0.0
 40
0.0099999999999999
  0
CIRCLE
  5
3F80
330
3F7C
100
AcDbEntity
  8
Part
100
AcDbCircle
 10
-0.0152199976622178
 20
-0.0151785725970228
 30
0.0
 40
0.0099999999999999
  0
MTEXT
  5
3F81
330
3F7C
100
AcDbEntity
  8
Part
100
AcDbMText
 10
0.4349999999999988
 20
0.4349999999999882
 30
0.0
 40
0.09
 41
1.116642788958245
 71
     5
 72
     5
  1
{\fArial|b1|i1|c0|p34;Innovative\PIPP-7030\P130 - 180 MHZ}
  7
ARIAL
 73
     1
 44
1.0
1001
ACAD
1000
MTEXTBEGIN
1070
    73
1070
     1
1070
    44
1040
1.0
1070
    74
1070
     0
1000
MTEXTEND
1000
ACAD_MTEXT_DEFINED_HEIGHT_BEGIN
1070
    46
1040
0.2693599363347153
1000
ACAD_MTEXT_DEFINED_HEIGHT_END
  0
LWPOLYLINE
  5
3F82
330
3F7C
100
AcDbEntity
  8
Part
100
AcDbPolyline
 90
       24
 70
     1
 43
0.0
 10
0.0565606797750018
 20
-0.0550000000000139
 42
0.213421765283386
 10
0.0342000000000038
 20
-0.0650000000000137
 10
-0.0257864035883628
 20
-0.0650000000000084
 42
0.2339686250751825
 10
-0.0649999999999942
 20
-0.0257864035883788
 10
-0.0650000000000013
 20
0.0341999999999789
 42
0.2134217652833401
 10
-0.0550000000000051
 20
0.0565606797749734
 10
-0.0550000000000015
 20
0.8134393202249848
 42
0.2134217652833549
 10
-0.0649999999999977
 20
0.8357999999999812
 10
-0.0649999999999977
 20
0.895786403588344
 42
0.2339686250751862
 10
-0.0257864035883611
 20
0.9349999999999807
 10
0.0342000000000002
 20
0.9349999999999807
 42
0.213421765283386
 10
0.0565606797749982
 20
0.9249999999999811
 10
0.8134393202250025
 20
0.9249999999999776
 42
0.213421765283386
 10
0.8358000000000005
 20
0.9349999999999774
 10
0.895786403588362
 20
0.9349999999999774
 42
0.2339686250751691
 10
0.9349999999999951
 20
0.8957864035883423
 10
0.9349999999999951
 20
0.8357999999999794
 42
0.2134217652833563
 10
0.9249999999999987
 20
0.8134393202249832
 10
0.9249999999999987
 20
0.0565606797749769
 42
0.2134217652833401
 10
0.9349999999999967
 20
0.0341999999999825
 10
0.9349999999999951
 20
-0.0257864035883753
 42
0.233968625075167
 10
0.8957864035883638
 20
-0.0650000000000084
 10
0.8358000000000005
 20
-0.0650000000000066
 42
0.2134217652833861
 10
0.8134393202250025
 20
-0.0550000000000086
  0
LWPOLYLINE
  5
3F83
330
3F7C
100
AcDbEntity
  8
Part
100
AcDbPolyline
 90
        5
 70
     0
 43
0.0
 10
0.8977178038130498
 20
0.9299999999999748
 10
0.8699999999999974
 20
0.9299999999999748
 10
0.8699999999999974
 20
0.8699999999999761
 10
0.9299999999999981
 20
0.8699999999999761
 10
0.9299999999999981
 20
0.8977178038130285
  0
LWPOLYLINE
  5
3F84
330
3F7C
100
AcDbEntity
  8
Part
100
AcDbPolyline
 90
        3
 70
     0
 43
0.0
 10
0.9299851267164827
 20
0.0399999999999921
 10
0.8299999999999981
 20
0.0399999999999921
 10
0.8299999999999981
 20
-0.0599851267164979
  0
LWPOLYLINE
  5
3F85
330
3F7C
100
AcDbEntity
  8
Part
100
AcDbPolyline
 90
        3
 70
     0
 43
0.0
 10
0.0399999999999992
 20
-0.0599851267165086
 10
0.0399999999999992
 20
0.0399999999999921
 10
-0.0599851267164855
 20
0.0399999999999921
  0
LWPOLYLINE
  5
3F86
330
3F7C
100
AcDbEntity
  8
Part
100
AcDbPolyline
 90
        4
 70
     0
 43
0.0
 10
-0.0599851267164926
 20
0.829999999999984
 10
-0.0599851267164926
 20
0.829999999999984
 10
0.0399999999999992
 20
0.8299999999999805
 10
0.0399999999999992
 20
0.929985126716472
  0
LWPOLYLINE
  5
3F87
330
3F7C
100
AcDbEntity
  8
Part
100
AcDbPolyline
 90
        4
 70
     0
 43
0.0
 10
0.8299999999999981
 20
0.9299851267164667
 10
0.8299999999999981
 20
0.9299851267164667
 10
0.8299999999999981
 20
0.8299999999999768
 10
0.9299851267164862
 20
0.8299999999999768
  0
LWPOLYLINE
  5
3F88
330
3F7C
100
AcDbEntity
  8
Part
100
AcDbPolyline
 90
        5
 70
     0
 43
0.0
 10
-0.0277178038130508
 20
0.9299999999999748
 10
0.0
 20
0.9299999999999748
 10
0.0
 20
0.8699999999999761
 10
-0.0600000000000005
 20
0.8699999999999761
 10
-0.0600000000000005
 20
0.8977178038130301
  0
LWPOLYLINE
  5
3F89
330
3F7C
100
AcDbEntity
  8
Part
100
AcDbPolyline
 90
        5
 70
     0
 43
0.0
 10
0.8977178038130553
 20
-0.0600000000000005
 10
0.8699999999999974
 20
-0.0600000000000005
 10
0.8699999999999974
 20
0.0
 10
0.9299999999999981
 20
0.0
 10
0.9299999999999981
 20
-0.0277178038130614
  0
LWPOLYLINE
  5
3F8A
330
3F7C
100
AcDbEntity
  8
Part
100
AcDbPolyline
 90
        5
 70
     0
 43
0.0
 10
-0.0277178038130535
 20
-0.0600000000000005
 10
0.0
 20
-0.0600000000000005
 10
0.0
 20
0.0
 10
-0.0600000000000005
 20
0.0
 10
-0.0600000000000005
 20
-0.0277178038130632
  0
ENDBLK
  5
3F8E
330
3F7C
100
AcDbEntity
  8
0
100
AcDbBlockEnd
  0
ENDSEC
  0
SECTION
  2
ENTITIES
  0
TEXT
  5
105
330
2
100
AcDbEntity
  8
Text
100
AcDbText
 10
23.82413055480209
 20
-0.2120766523272026
 30
-0.062
 40
0.06
  1
%%UTOP & BOTTOM ARTWORK SCALE 1:1
  7
ROMANS
 72
     1
 11
24.67513055480209
 21
-0.2120766523272026
 31
-0.062
100
AcDbText
  0
TEXT
  5
106
330
2
100
AcDbEntity
  8
Text
100
AcDbText
 10
23.64798769765923
 20
-0.3920284564776546
 30
-0.062
 40
0.06
  1
VIEW: LOOKING THRU FROM TOP TO BOTTOM
  7
ROMANS
 72
     1
 11
24.67513055480209
 21
-0.3920284564776546
 31
-0.062
100
AcDbText
  0
TEXT
  5
107
330
2
100
AcDbEntity
  8
PCB_OUTLINE
100
AcDbText
 10
26.08955741156978
 20
-1.800888652623553
 30
0.0
 40
0.0299327383810564
  1
PCB_OUTLINE
  7
ROMANS
100
AcDbText
  0
HATCH
  5
11E
330
2
100
AcDbEntity
  8
PCB_BOT
100
AcDbHatch
 10
0.0
 20
0.0
 30
0.0
210
0.0
220
0.0
230
1.0
  2
SOLID
 70
     1
 71
     0
 91
        3
 92
        7
 72
     1
 73
     1
 93
        3
 10
26.19035227635772
 20
-1.52873196543167
 42
0.0
 10
26.19035227635772
 20
-1.601002391003899
 42
0.1989123673796551
 10
26.24145518435906
 20
-1.579834873433027
 42
0.0
 97
        0
 92
        7
 72
     1
 73
     1
 93
        3
 10
26.26262270192994
 20
-1.52873196543167
 42
0.0
 10
26.19035227635772
 20
-1.528731965431675
 42
0.0
 10
26.24145518435906
 20
-1.579834873433028
 42
0.1989123673796482
 97
        0
 92
        7
 72
     1
 73
     1
 93
        3
 10
26.24145518435906
 20
-1.477629057430315
 42
0.0
 10
26.19035227635772
 20
-1.52873196543167
 42
0.0
 10
26.26262270192994
 20
-1.52873196543167
 42
0.1989123673796509
 97
        0
 75
     0
 76
     1
 47
0.0001896584045076
 98
        3
 10
26.21380176532784
 20
-1.56952574889636
 10
26.23923630810493
 20
-1.553594414674188
 10
26.23733823685697
 20
-1.525145632743936
  0
LINE
  5
11F
330
2
100
AcDbEntity
  8
PCB_BOT
100
AcDbLine
 10
26.11797106459877
 20
-1.601113177190603
 30
0.0
 11
26.26273348811665
 21
-1.456350753672735
 31
0.0
  0
LINE
  5
120
330
2
100
AcDbEntity
  8
PCB_BOT
100
AcDbLine
 10
26.11797106459877
 20
-1.456350753672735
 30
0.0
 11
26.26273348811665
 21
-1.60111317719061
 31
0.0
  0
HATCH
  5
121
330
2
100
AcDbEntity
  8
PCB_OUTLINE
100
AcDbHatch
 10
0.0
 20
0.0
 30
0.0
210
0.0
220
0.0
230
1.0
  2
SOLID
 70
     1
 71
     0
 91
        2
 92
        7
 72
     1
 73
     1
 93
        3
 10
26.19035227635772
 20
-1.528731965431662
 42
0.0
 10
26.13924936835634
 20
-1.579834873433028
 42
0.1989123673796946
 10
26.19035227635772
 20
-1.601002391003899
 42
0.0
 97
        0
 92
        7
 72
     1
 73
     1
 93
        3
 10
26.1903522763577
 20
-1.52873196543167
 42
0.0
 10
26.11808185078548
 20
-1.52873196543167
 42
0.1989123673796509
 10
26.13924936835634
 20
-1.579834873433028
 42
0.0
 97
        0
 75
     0
 76
     1
 47
0.0001896584045076
 98
        2
 10
26.17773792654855
 20
-1.580905234433084
 10
26.14243321925485
 20
-1.554353056121763
  0
LINE
  5
122
330
2
100
AcDbEntity
  8
PCB_OUTLINE
100
AcDbLine
 10
26.11797106459877
 20
-1.601113177190593
 30
0.0
 11
26.26273348811666
 21
-1.456350753672728
 31
0.0
  0
LINE
  5
123
330
2
100
AcDbEntity
  8
PCB_OUTLINE
100
AcDbLine
 10
26.11797106459878
 20
-1.456350753672728
 30
0.0
 11
26.26273348811666
 21
-1.601113177190603
 31
0.0
  0
LINE
  5
124
330
2
100
AcDbEntity
  8
PCB_TOP
100
AcDbLine
 10
26.11797106459878
 20
-1.456350753672728
 30
0.0
 11
26.26273348811666
 21
-1.601113177190603
 31
0.0
  0
LINE
  5
125
330
2
100
AcDbEntity
  8
PCB_TOP
100
AcDbLine
 10
26.11797106459877
 20
-1.601113177190593
 30
0.0
 11
26.26273348811666
 21
-1.456350753672728
 31
0.0
  0
CIRCLE
  5
126
330
2
100
AcDbEntity
  8
PCB_BOT
100
AcDbCircle
 10
26.19035227635772
 20
-1.528731965431678
 30
0.0
 40
0.0722704255722269
  0
CIRCLE
  5
127
330
2
100
AcDbEntity
  8
PCB_OUTLINE
100
AcDbCircle
 10
26.19035227635772
 20
-1.528731965431678
 30
0.0
 40
0.0722704255722269
  0
CIRCLE
  5
128
330
2
100
AcDbEntity
  8
PCB_TOP
100
AcDbCircle
 10
26.19035227635772
 20
-1.528731965431678
 30
0.0
 40
0.0722704255722269
  0
LINE
  5
129
330
2
100
AcDbEntity
  8
PCB_BOT
100
AcDbLine
 10
26.19035227635772
 20
-1.426369474101184
 30
0.0
 11
26.19035227635772
 21
-1.631094456762161
 31
0.0
  0
LINE
  5
12A
330
2
100
AcDbEntity
  8
PCB_OUTLINE
100
AcDbLine
 10
26.19035227635772
 20
-1.426369474101174
 30
0.0
 11
26.19035227635772
 21
-1.631094456762154
 31
0.0
  0
LINE
  5
12B
330
2
100
AcDbEntity
  8
PCB_TOP
100
AcDbLine
 10
26.19035227635772
 20
-1.426369474101174
 30
0.0
 11
26.19035227635772
 21
-1.631094456762154
 31
0.0
  0
TEXT
  5
12C
330
2
100
AcDbEntity
  8
PCB_TOP
100
AcDbText
 10
26.08955741156978
 20
-1.744075210407753
 30
0.0
 40
0.0299327383810564
  1
PCB_TOP
  7
ROMANS
100
AcDbText
  0
TEXT
  5
12D
330
2
100
AcDbEntity
  8
PCB_BOT
100
AcDbText
 10
26.08955741156978
 20
-1.860170674491845
 30
0.0
 40
0.0299327383810564
  1
PCB_BOT
  7
ROMANS
100
AcDbText
  0
LINE
  5
12E
330
2
100
AcDbEntity
  8
PCB_BOT
100
AcDbLine
 10
26.29271476768821
 20
-1.52873196543167
 30
0.0
 11
26.08798978502723
 21
-1.52873196543167
 31
0.0
  0
HATCH
  5
12F
330
2
100
AcDbEntity
  8
PCB_TOP
100
AcDbHatch
 10
0.0
 20
0.0
 30
0.0
210
0.0
220
0.0
230
1.0
  2
SOLID
 70
     1
 71
     0
 91
        3
 92
        7
 72
     1
 73
     1
 93
        3
 10
26.19035227635772
 20
-1.456461539859445
 42
0.1989123673796765
 10
26.13924936835636
 20
-1.477629057430311
 42
0.0
 10
26.19035227635772
 20
-1.52873196543167
 42
0.0
 97
        0
 92
        7
 72
     1
 73
     1
 93
        3
 10
26.13924936835636
 20
-1.477629057430311
 42
0.1989123673796716
 10
26.11808185078548
 20
-1.52873196543167
 42
0.0
 10
26.19035227635772
 20
-1.52873196543167
 42
0.0
 97
        0
 92
        7
 72
     1
 73
     1
 93
        3
 10
26.24145518435906
 20
-1.477629057430315
 42
0.1989123673796498
 10
26.19035227635772
 20
-1.456461539859445
 42
0.0
 10
26.19035227635772
 20
-1.528731965431665
 42
0.0
 97
        0
 75
     0
 76
     1
 47
0.0001896584045076
 98
        3
 10
26.17432134979541
 20
-1.480006943232375
 10
26.15116444400908
 20
-1.499352095880191
 10
26.20658904607878
 20
-1.494420994559399
  0
LINE
  5
130
330
2
100
AcDbEntity
  8
PCB_OUTLINE
100
AcDbLine
 10
26.29271476768821
 20
-1.528731965431665
 30
0.0
 11
26.08798978502724
 21
-1.528731965431665
 31
0.0
  0
LINE
  5
131
330
2
100
AcDbEntity
  8
PCB_TOP
100
AcDbLine
 10
26.29271476768821
 20
-1.528731965431665
 30
0.0
 11
26.08798978502724
 21
-1.528731965431665
 31
0.0
  0
LINE
  5
135
330
2
100
AcDbEntity
  8
PCB_BOT
100
AcDbLine
 10
23.26798981694321
 20
-1.528732010579668
 30
0.0
 11
23.06326483428223
 21
-1.528732010579668
 31
0.0
  0
LINE
  5
136
330
2
100
AcDbEntity
  8
PCB_OUTLINE
100
AcDbLine
 10
23.26798981694322
 20
-1.52873201057966
 30
0.0
 11
23.06326483428225
 21
-1.52873201057966
 31
0.0
  0
LINE
  5
137
330
2
100
AcDbEntity
  8
PCB_TOP
100
AcDbLine
 10
23.26798981694322
 20
-1.52873201057966
 30
0.0
 11
23.06326483428225
 21
-1.52873201057966
 31
0.0
  0
HATCH
  5
138
330
2
100
AcDbEntity
  8
PCB_TOP
100
AcDbHatch
 10
0.0
 20
0.0
 30
0.0
210
0.0
220
0.0
230
1.0
  2
SOLID
 70
     1
 71
     0
 91
        3
 92
        7
 72
     1
 73
     1
 93
        3
 10
23.16562732561273
 20
-1.456461585007438
 42
0.1989123673796765
 10
23.11452441761137
 20
-1.477629102578305
 42
0.0
 10
23.16562732561273
 20
-1.528732010579668
 42
0.0
 97
        0
 92
        7
 72
     1
 73
     1
 93
        3
 10
23.11452441761137
 20
-1.477629102578305
 42
0.1989123673796716
 10
23.09335690004049
 20
-1.528732010579668
 42
0.0
 10
23.16562732561272
 20
-1.528732010579668
 42
0.0
 97
        0
 92
        7
 72
     1
 73
     1
 93
        3
 10
23.21673023361408
 20
-1.477629102578311
 42
0.1989123673796498
 10
23.16562732561273
 20
-1.456461585007438
 42
0.0
 10
23.16562732561273
 20
-1.52873201057966
 42
0.0
 97
        0
 75
     0
 76
     1
 47
0.0001896584045076
 98
        3
 10
23.14959639905042
 20
-1.480006988380373
 10
23.12643949326409
 20
-1.499352141028189
 10
23.18186409533379
 20
-1.494421039707396
  0
LINE
  5
139
330
2
100
AcDbEntity
  8
PCB_BOT
100
AcDbLine
 10
23.09324611385378
 20
-1.601113222338599
 30
0.0
 11
23.23800853737166
 21
-1.456350798820731
 31
0.0
  0
LINE
  5
13A
330
2
100
AcDbEntity
  8
PCB_BOT
100
AcDbLine
 10
23.09324611385379
 20
-1.456350798820731
 30
0.0
 11
23.23800853737166
 21
-1.601113222338604
 31
0.0
  0
LINE
  5
13B
330
2
100
AcDbEntity
  8
PCB_BOT
100
AcDbLine
 10
23.16562732561273
 20
-1.426369519249178
 30
0.0
 11
23.16562732561273
 21
-1.631094501910155
 31
0.0
  0
HATCH
  5
13C
330
2
100
AcDbEntity
  8
PCB_OUTLINE
100
AcDbHatch
 10
0.0
 20
0.0
 30
0.0
210
0.0
220
0.0
230
1.0
  2
SOLID
 70
     1
 71
     0
 91
        2
 92
        7
 72
     1
 73
     1
 93
        3
 10
23.16562732561273
 20
-1.528732010579658
 42
0.0
 10
23.11452441761136
 20
-1.579834918581024
 42
0.1989123673796946
 10
23.16562732561273
 20
-1.601002436151897
 42
0.0
 97
        0
 92
        7
 72
     1
 73
     1
 93
        3
 10
23.16562732561272
 20
-1.528732010579668
 42
0.0
 10
23.09335690004049
 20
-1.528732010579668
 42
0.1989123673796509
 10
23.11452441761136
 20
-1.579834918581024
 42
0.0
 97
        0
 75
     0
 76
     1
 47
0.0001896584045076
 98
        2
 10
23.15301297580356
 20
-1.58090527958108
 10
23.11770826850986
 20
-1.55435310126976
  0
HATCH
  5
13D
330
2
100
AcDbEntity
  8
PCB_BOT
100
AcDbHatch
 10
0.0
 20
0.0
 30
0.0
210
0.0
220
0.0
230
1.0
  2
SOLID
 70
     1
 71
     0
 91
        3
 92
        7
 72
     1
 73
     1
 93
        3
 10
23.16562732561273
 20
-1.528732010579668
 42
0.0
 10
23.16562732561273
 20
-1.601002436151897
 42
0.1989123673796551
 10
23.21673023361408
 20
-1.579834918581023
 42
0.0
 97
        0
 92
        7
 72
     1
 73
     1
 93
        3
 10
23.23789775118495
 20
-1.528732010579668
 42
0.0
 10
23.16562732561273
 20
-1.528732010579669
 42
0.0
 10
23.21673023361408
 20
-1.579834918581024
 42
0.1989123673796482
 97
        0
 92
        7
 72
     1
 73
     1
 93
        3
 10
23.21673023361408
 20
-1.477629102578311
 42
0.0
 10
23.16562732561272
 20
-1.528732010579668
 42
0.0
 10
23.23789775118495
 20
-1.528732010579668
 42
0.1989123673796509
 97
        0
 75
     0
 76
     1
 47
0.0001896584045076
 98
        3
 10
23.18907681458286
 20
-1.569525794044358
 10
23.21451135735994
 20
-1.553594459822185
 10
23.21261328611198
 20
-1.525145677891933
  0
LINE
  5
13E
330
2
100
AcDbEntity
  8
PCB_OUTLINE
100
AcDbLine
 10
23.16562732561273
 20
-1.426369519249173
 30
0.0
 11
23.16562732561273
 21
-1.63109450191015
 31
0.0
  0
LINE
  5
13F
330
2
100
AcDbEntity
  8
PCB_OUTLINE
100
AcDbLine
 10
23.09324611385379
 20
-1.601113222338589
 30
0.0
 11
23.23800853737167
 21
-1.456350798820724
 31
0.0
  0
LINE
  5
140
330
2
100
AcDbEntity
  8
PCB_OUTLINE
100
AcDbLine
 10
23.09324611385379
 20
-1.456350798820724
 30
0.0
 11
23.23800853737167
 21
-1.601113222338599
 31
0.0
  0
LINE
  5
141
330
2
100
AcDbEntity
  8
PCB_TOP
100
AcDbLine
 10
23.09324611385379
 20
-1.456350798820724
 30
0.0
 11
23.23800853737167
 21
-1.601113222338599
 31
0.0
  0
LINE
  5
142
330
2
100
AcDbEntity
  8
PCB_TOP
100
AcDbLine
 10
23.09324611385379
 20
-1.601113222338589
 30
0.0
 11
23.23800853737167
 21
-1.456350798820724
 31
0.0
  0
LINE
  5
143
330
2
100
AcDbEntity
  8
PCB_TOP
100
AcDbLine
 10
23.16562732561273
 20
-1.426369519249173
 30
0.0
 11
23.16562732561273
 21
-1.63109450191015
 31
0.0
  0
CIRCLE
  5
144
330
2
100
AcDbEntity
  8
PCB_BOT
100
AcDbCircle
 10
23.16562732561273
 20
-1.528732010579676
 30
0.0
 40
0.0722704255722269
  0
CIRCLE
  5
145
330
2
100
AcDbEntity
  8
PCB_OUTLINE
100
AcDbCircle
 10
23.16562732561273
 20
-1.528732010579676
 30
0.0
 40
0.0722704255722269
  0
CIRCLE
  5
146
330
2
100
AcDbEntity
  8
PCB_TOP
100
AcDbCircle
 10
23.16562732561273
 20
-1.528732010579676
 30
0.0
 40
0.0722704255722269
  0
LWPOLYLINE
  5
3593
330
2
100
AcDbEntity
  8
PCB_OUTLINE
100
AcDbPolyline
 90
        4
 70
     1
 43
0.0
 10
23.7679898169432
 20
-2.403739264419272
 10
25.58798978502724
 20
-2.403739264419272
 10
25.58798978502724
 20
-0.65372462131046
 10
23.7679898169432
 20
-0.6537247115920697
  0
LWPOLYLINE
  5
3595
330
2
100
AcDbEntity
  8
PCB_BOT
100
AcDbPolyline
 90
        4
 70
     1
 43
0.0
 10
23.7679898169432
 20
-0.6537247115920697
 10
25.58798978502724
 20
-0.65372462131046
 10
25.58798978502724
 20
-2.403739264419272
 10
23.7679898169432
 20
-2.403739264419272
  0
CIRCLE
  5
3596
330
2
100
AcDbEntity
  8
PCB_OUTLINE
100
AcDbCircle
 10
23.8779903234992
 20
-2.128739289954311
 30
0.0
 40
0.015
  0
CIRCLE
  5
3597
330
2
100
AcDbEntity
  8
PCB_OUTLINE
100
AcDbCircle
 10
23.9579903234992
 20
-2.128739289954311
 30
0.0
 40
0.015
  0
CIRCLE
  5
3598
330
2
100
AcDbEntity
  8
PCB_OUTLINE
100
AcDbCircle
 10
24.0379903234992
 20
-2.128739289954311
 30
0.0
 40
0.015
  0
CIRCLE
  5
3599
330
2
100
AcDbEntity
  8
PCB_OUTLINE
100
AcDbCircle
 10
24.4379903234992
 20
-2.128739289954311
 30
0.0
 40
0.015
  0
CIRCLE
  5
359A
330
2
100
AcDbEntity
  8
PCB_OUTLINE
100
AcDbCircle
 10
24.35799032349919
 20
-2.128739289954311
 30
0.0
 40
0.015
  0
CIRCLE
  5
359B
330
2
100
AcDbEntity
  8
PCB_OUTLINE
100
AcDbCircle
 10
23.8779903234992
 20
-2.208739289954313
 30
0.0
 40
0.015
  0
CIRCLE
  5
359C
330
2
100
AcDbEntity
  8
PCB_OUTLINE
100
AcDbCircle
 10
23.8779903234992
 20
-2.288739289954313
 30
0.0
 40
0.015
  0
CIRCLE
  5
359D
330
2
100
AcDbEntity
  8
PCB_OUTLINE
100
AcDbCircle
 10
23.9579903234992
 20
-2.208739289954313
 30
0.0
 40
0.015
  0
CIRCLE
  5
359E
330
2
100
AcDbEntity
  8
PCB_OUTLINE
100
AcDbCircle
 10
23.9579903234992
 20
-2.288739289954313
 30
0.0
 40
0.015
  0
CIRCLE
  5
359F
330
2
100
AcDbEntity
  8
PCB_OUTLINE
100
AcDbCircle
 10
24.0379903234992
 20
-2.208739289954313
 30
0.0
 40
0.015
  0
CIRCLE
  5
35A0
330
2
100
AcDbEntity
  8
PCB_OUTLINE
100
AcDbCircle
 10
24.0379903234992
 20
-2.288739289954313
 30
0.0
 40
0.015
  0
CIRCLE
  5
35A1
330
2
100
AcDbEntity
  8
PCB_OUTLINE
100
AcDbCircle
 10
24.4379903234992
 20
-2.208739289954313
 30
0.0
 40
0.015
  0
CIRCLE
  5
35A2
330
2
100
AcDbEntity
  8
PCB_OUTLINE
100
AcDbCircle
 10
24.4379903234992
 20
-2.288739289954313
 30
0.0
 40
0.015
  0
CIRCLE
  5
35A3
330
2
100
AcDbEntity
  8
PCB_OUTLINE
100
AcDbCircle
 10
24.35799032349919
 20
-2.208739289954313
 30
0.0
 40
0.015
  0
CIRCLE
  5
35A4
330
2
100
AcDbEntity
  8
PCB_OUTLINE
100
AcDbCircle
 10
24.35799032349919
 20
-2.288739289954313
 30
0.0
 40
0.015
  0
CIRCLE
  5
35A5
330
2
100
AcDbEntity
  8
PCB_OUTLINE
100
AcDbCircle
 10
23.8779903234992
 20
-2.368739289954313
 30
0.0
 40
0.015
  0
CIRCLE
  5
35A6
330
2
100
AcDbEntity
  8
PCB_OUTLINE
100
AcDbCircle
 10
23.9579903234992
 20
-2.368739289954313
 30
0.0
 40
0.015
  0
CIRCLE
  5
35A7
330
2
100
AcDbEntity
  8
PCB_OUTLINE
100
AcDbCircle
 10
24.0379903234992
 20
-2.368739289954313
 30
0.0
 40
0.015
  0
CIRCLE
  5
35A8
330
2
100
AcDbEntity
  8
PCB_OUTLINE
100
AcDbCircle
 10
24.4379903234992
 20
-2.368739289954313
 30
0.0
 40
0.015
  0
CIRCLE
  5
35A9
330
2
100
AcDbEntity
  8
PCB_OUTLINE
100
AcDbCircle
 10
24.35799032349919
 20
-2.368739289954313
 30
0.0
 40
0.015
  0
CIRCLE
  5
35AA
330
2
100
AcDbEntity
  8
PCB_OUTLINE
100
AcDbCircle
 10
24.99799032349919
 20
-2.128739289954311
 30
0.0
 40
0.015
  0
CIRCLE
  5
35AB
330
2
100
AcDbEntity
  8
PCB_OUTLINE
100
AcDbCircle
 10
24.91799032349919
 20
-2.128739289954311
 30
0.0
 40
0.015
  0
CIRCLE
  5
35AC
330
2
100
AcDbEntity
  8
PCB_OUTLINE
100
AcDbCircle
 10
24.83799032349919
 20
-2.128739289954311
 30
0.0
 40
0.015
  0
CIRCLE
  5
35AD
330
2
100
AcDbEntity
  8
PCB_OUTLINE
100
AcDbCircle
 10
24.7579903234992
 20
-2.128739289954311
 30
0.0
 40
0.015
  0
CIRCLE
  5
35AE
330
2
100
AcDbEntity
  8
PCB_OUTLINE
100
AcDbCircle
 10
24.67799032349919
 20
-2.128739289954311
 30
0.0
 40
0.015
  0
CIRCLE
  5
35AF
330
2
100
AcDbEntity
  8
PCB_OUTLINE
100
AcDbCircle
 10
24.59799032349919
 20
-2.128739289954311
 30
0.0
 40
0.015
  0
CIRCLE
  5
35B0
330
2
100
AcDbEntity
  8
PCB_OUTLINE
100
AcDbCircle
 10
24.5179903234992
 20
-2.128739289954311
 30
0.0
 40
0.015
  0
CIRCLE
  5
35B1
330
2
100
AcDbEntity
  8
PCB_OUTLINE
100
AcDbCircle
 10
24.99799032349919
 20
-2.208739289954313
 30
0.0
 40
0.015
  0
CIRCLE
  5
35B2
330
2
100
AcDbEntity
  8
PCB_OUTLINE
100
AcDbCircle
 10
24.99799032349919
 20
-2.288739289954313
 30
0.0
 40
0.015
  0
CIRCLE
  5
35B3
330
2
100
AcDbEntity
  8
PCB_OUTLINE
100
AcDbCircle
 10
24.91799032349919
 20
-2.208739289954313
 30
0.0
 40
0.015
  0
CIRCLE
  5
35B4
330
2
100
AcDbEntity
  8
PCB_OUTLINE
100
AcDbCircle
 10
24.91799032349919
 20
-2.288739289954313
 30
0.0
 40
0.015
  0
CIRCLE
  5
35B5
330
2
100
AcDbEntity
  8
PCB_OUTLINE
100
AcDbCircle
 10
24.83799032349919
 20
-2.208739289954313
 30
0.0
 40
0.015
  0
CIRCLE
  5
35B6
330
2
100
AcDbEntity
  8
PCB_OUTLINE
100
AcDbCircle
 10
24.83799032349919
 20
-2.288739289954313
 30
0.0
 40
0.015
  0
CIRCLE
  5
35B7
330
2
100
AcDbEntity
  8
PCB_OUTLINE
100
AcDbCircle
 10
24.7579903234992
 20
-2.208739289954313
 30
0.0
 40
0.015
  0
CIRCLE
  5
35B8
330
2
100
AcDbEntity
  8
PCB_OUTLINE
100
AcDbCircle
 10
24.7579903234992
 20
-2.288739289954313
 30
0.0
 40
0.015
  0
CIRCLE
  5
35B9
330
2
100
AcDbEntity
  8
PCB_OUTLINE
100
AcDbCircle
 10
24.67799032349919
 20
-2.208739289954313
 30
0.0
 40
0.015
  0
CIRCLE
  5
35BA
330
2
100
AcDbEntity
  8
PCB_OUTLINE
100
AcDbCircle
 10
24.67799032349919
 20
-2.288739289954313
 30
0.0
 40
0.015
  0
CIRCLE
  5
35BB
330
2
100
AcDbEntity
  8
PCB_OUTLINE
100
AcDbCircle
 10
24.59799032349919
 20
-2.208739289954313
 30
0.0
 40
0.015
  0
CIRCLE
  5
35BC
330
2
100
AcDbEntity
  8
PCB_OUTLINE
100
AcDbCircle
 10
24.59799032349919
 20
-2.288739289954313
 30
0.0
 40
0.015
  0
CIRCLE
  5
35BD
330
2
100
AcDbEntity
  8
PCB_OUTLINE
100
AcDbCircle
 10
24.5179903234992
 20
-2.208739289954313
 30
0.0
 40
0.015
  0
CIRCLE
  5
35BE
330
2
100
AcDbEntity
  8
PCB_OUTLINE
100
AcDbCircle
 10
24.5179903234992
 20
-2.288739289954313
 30
0.0
 40
0.015
  0
CIRCLE
  5
35BF
330
2
100
AcDbEntity
  8
PCB_OUTLINE
100
AcDbCircle
 10
24.99799032349919
 20
-2.368739289954313
 30
0.0
 40
0.015
  0
CIRCLE
  5
35C0
330
2
100
AcDbEntity
  8
PCB_OUTLINE
100
AcDbCircle
 10
24.91799032349919
 20
-2.368739289954313
 30
0.0
 40
0.015
  0
CIRCLE
  5
35C1
330
2
100
AcDbEntity
  8
PCB_OUTLINE
100
AcDbCircle
 10
24.83799032349919
 20
-2.368739289954313
 30
0.0
 40
0.015
  0
CIRCLE
  5
35C2
330
2
100
AcDbEntity
  8
PCB_OUTLINE
100
AcDbCircle
 10
24.7579903234992
 20
-2.368739289954313
 30
0.0
 40
0.015
  0
CIRCLE
  5
35C3
330
2
100
AcDbEntity
  8
PCB_OUTLINE
100
AcDbCircle
 10
24.67799032349919
 20
-2.368739289954313
 30
0.0
 40
0.015
  0
CIRCLE
  5
35C4
330
2
100
AcDbEntity
  8
PCB_OUTLINE
100
AcDbCircle
 10
24.59799032349919
 20
-2.368739289954313
 30
0.0
 40
0.015
  0
CIRCLE
  5
35C5
330
2
100
AcDbEntity
  8
PCB_OUTLINE
100
AcDbCircle
 10
24.5179903234992
 20
-2.368739289954313
 30
0.0
 40
0.015
  0
CIRCLE
  5
35C6
330
2
100
AcDbEntity
  8
PCB_OUTLINE
100
AcDbCircle
 10
25.5579903234992
 20
-2.128739289954311
 30
0.0
 40
0.015
  0
CIRCLE
  5
35C7
330
2
100
AcDbEntity
  8
PCB_OUTLINE
100
AcDbCircle
 10
25.5579903234992
 20
-2.208739289954313
 30
0.0
 40
0.015
  0
CIRCLE
  5
35C8
330
2
100
AcDbEntity
  8
PCB_OUTLINE
100
AcDbCircle
 10
25.5579903234992
 20
-2.288739289954313
 30
0.0
 40
0.015
  0
CIRCLE
  5
35C9
330
2
100
AcDbEntity
  8
PCB_OUTLINE
100
AcDbCircle
 10
25.5579903234992
 20
-2.368739289954313
 30
0.0
 40
0.015
  0
CIRCLE
  5
35CA
330
2
100
AcDbEntity
  8
PCB_OUTLINE
100
AcDbCircle
 10
25.31799032349919
 20
-2.128739289954311
 30
0.0
 40
0.015
  0
CIRCLE
  5
35CB
330
2
100
AcDbEntity
  8
PCB_OUTLINE
100
AcDbCircle
 10
25.39799032349919
 20
-2.128739289954311
 30
0.0
 40
0.015
  0
CIRCLE
  5
35CC
330
2
100
AcDbEntity
  8
PCB_OUTLINE
100
AcDbCircle
 10
25.47799032349918
 20
-2.128739289954311
 30
0.0
 40
0.015
  0
CIRCLE
  5
35CD
330
2
100
AcDbEntity
  8
PCB_OUTLINE
100
AcDbCircle
 10
25.31799032349919
 20
-2.208739289954313
 30
0.0
 40
0.015
  0
CIRCLE
  5
35CE
330
2
100
AcDbEntity
  8
PCB_OUTLINE
100
AcDbCircle
 10
25.31799032349919
 20
-2.288739289954313
 30
0.0
 40
0.015
  0
CIRCLE
  5
35CF
330
2
100
AcDbEntity
  8
PCB_OUTLINE
100
AcDbCircle
 10
25.39799032349919
 20
-2.208739289954313
 30
0.0
 40
0.015
  0
CIRCLE
  5
35D0
330
2
100
AcDbEntity
  8
PCB_OUTLINE
100
AcDbCircle
 10
25.39799032349919
 20
-2.288739289954313
 30
0.0
 40
0.015
  0
CIRCLE
  5
35D1
330
2
100
AcDbEntity
  8
PCB_OUTLINE
100
AcDbCircle
 10
25.47799032349918
 20
-2.208739289954313
 30
0.0
 40
0.015
  0
CIRCLE
  5
35D2
330
2
100
AcDbEntity
  8
PCB_OUTLINE
100
AcDbCircle
 10
25.47799032349918
 20
-2.288739289954313
 30
0.0
 40
0.015
  0
CIRCLE
  5
35D3
330
2
100
AcDbEntity
  8
PCB_OUTLINE
100
AcDbCircle
 10
25.31799032349919
 20
-2.368739289954313
 30
0.0
 40
0.015
  0
CIRCLE
  5
35D4
330
2
100
AcDbEntity
  8
PCB_OUTLINE
100
AcDbCircle
 10
25.39799032349919
 20
-2.368739289954313
 30
0.0
 40
0.015
  0
CIRCLE
  5
35D5
330
2
100
AcDbEntity
  8
PCB_OUTLINE
100
AcDbCircle
 10
25.47799032349918
 20
-2.368739289954313
 30
0.0
 40
0.015
  0
CIRCLE
  5
35D6
330
2
100
AcDbEntity
  8
PCB_OUTLINE
100
AcDbCircle
 10
23.8779903234992
 20
-2.048739289954311
 30
0.0
 40
0.015
  0
CIRCLE
  5
35D7
330
2
100
AcDbEntity
  8
PCB_OUTLINE
100
AcDbCircle
 10
23.8779903234992
 20
-1.968739289954313
 30
0.0
 40
0.015
  0
CIRCLE
  5
35D8
330
2
100
AcDbEntity
  8
PCB_OUTLINE
100
AcDbCircle
 10
23.9579903234992
 20
-2.048739289954311
 30
0.0
 40
0.015
  0
CIRCLE
  5
35D9
330
2
100
AcDbEntity
  8
PCB_OUTLINE
100
AcDbCircle
 10
23.9579903234992
 20
-1.968739289954313
 30
0.0
 40
0.015
  0
CIRCLE
  5
35DA
330
2
100
AcDbEntity
  8
PCB_OUTLINE
100
AcDbCircle
 10
24.0379903234992
 20
-2.048739289954311
 30
0.0
 40
0.015
  0
CIRCLE
  5
35DB
330
2
100
AcDbEntity
  8
PCB_OUTLINE
100
AcDbCircle
 10
24.0379903234992
 20
-1.968739289954313
 30
0.0
 40
0.015
  0
CIRCLE
  5
35DC
330
2
100
AcDbEntity
  8
PCB_OUTLINE
100
AcDbCircle
 10
24.4379903234992
 20
-2.048739289954311
 30
0.0
 40
0.015
  0
CIRCLE
  5
35DD
330
2
100
AcDbEntity
  8
PCB_OUTLINE
100
AcDbCircle
 10
24.4379903234992
 20
-1.968739289954313
 30
0.0
 40
0.015
  0
CIRCLE
  5
35DE
330
2
100
AcDbEntity
  8
PCB_OUTLINE
100
AcDbCircle
 10
24.35799032349919
 20
-2.048739289954311
 30
0.0
 40
0.015
  0
CIRCLE
  5
35DF
330
2
100
AcDbEntity
  8
PCB_OUTLINE
100
AcDbCircle
 10
24.35799032349919
 20
-1.968739289954313
 30
0.0
 40
0.015
  0
CIRCLE
  5
35E0
330
2
100
AcDbEntity
  8
PCB_OUTLINE
100
AcDbCircle
 10
23.8779903234992
 20
-1.88873928995431
 30
0.0
 40
0.015
  0
CIRCLE
  5
35E1
330
2
100
AcDbEntity
  8
PCB_OUTLINE
100
AcDbCircle
 10
23.9579903234992
 20
-1.88873928995431
 30
0.0
 40
0.015
  0
CIRCLE
  5
35E2
330
2
100
AcDbEntity
  8
PCB_OUTLINE
100
AcDbCircle
 10
24.0379903234992
 20
-1.88873928995431
 30
0.0
 40
0.015
  0
CIRCLE
  5
35E3
330
2
100
AcDbEntity
  8
PCB_OUTLINE
100
AcDbCircle
 10
24.1179903234992
 20
-1.88873928995431
 30
0.0
 40
0.015
  0
CIRCLE
  5
35E4
330
2
100
AcDbEntity
  8
PCB_OUTLINE
100
AcDbCircle
 10
24.1979903234992
 20
-1.88873928995431
 30
0.0
 40
0.015
  0
CIRCLE
  5
35E5
330
2
100
AcDbEntity
  8
PCB_OUTLINE
100
AcDbCircle
 10
24.2779903234992
 20
-1.88873928995431
 30
0.0
 40
0.015
  0
CIRCLE
  5
35E6
330
2
100
AcDbEntity
  8
PCB_OUTLINE
100
AcDbCircle
 10
24.4379903234992
 20
-1.88873928995431
 30
0.0
 40
0.015
  0
CIRCLE
  5
35E7
330
2
100
AcDbEntity
  8
PCB_OUTLINE
100
AcDbCircle
 10
24.35799032349919
 20
-1.88873928995431
 30
0.0
 40
0.015
  0
CIRCLE
  5
35E8
330
2
100
AcDbEntity
  8
PCB_OUTLINE
100
AcDbCircle
 10
24.99799032349919
 20
-2.048739289954311
 30
0.0
 40
0.015
  0
CIRCLE
  5
35E9
330
2
100
AcDbEntity
  8
PCB_OUTLINE
100
AcDbCircle
 10
24.99799032349919
 20
-1.968739289954313
 30
0.0
 40
0.015
  0
CIRCLE
  5
35EA
330
2
100
AcDbEntity
  8
PCB_OUTLINE
100
AcDbCircle
 10
24.91799032349919
 20
-2.048739289954311
 30
0.0
 40
0.015
  0
CIRCLE
  5
35EB
330
2
100
AcDbEntity
  8
PCB_OUTLINE
100
AcDbCircle
 10
24.91799032349919
 20
-1.968739289954313
 30
0.0
 40
0.015
  0
CIRCLE
  5
35EC
330
2
100
AcDbEntity
  8
PCB_OUTLINE
100
AcDbCircle
 10
24.83799032349919
 20
-2.048739289954311
 30
0.0
 40
0.015
  0
CIRCLE
  5
35ED
330
2
100
AcDbEntity
  8
PCB_OUTLINE
100
AcDbCircle
 10
24.83799032349919
 20
-1.968739289954313
 30
0.0
 40
0.015
  0
CIRCLE
  5
35EE
330
2
100
AcDbEntity
  8
PCB_OUTLINE
100
AcDbCircle
 10
24.7579903234992
 20
-2.048739289954311
 30
0.0
 40
0.015
  0
CIRCLE
  5
35EF
330
2
100
AcDbEntity
  8
PCB_OUTLINE
100
AcDbCircle
 10
24.7579903234992
 20
-1.968739289954313
 30
0.0
 40
0.015
  0
CIRCLE
  5
35F0
330
2
100
AcDbEntity
  8
PCB_OUTLINE
100
AcDbCircle
 10
24.67799032349919
 20
-2.048739289954311
 30
0.0
 40
0.015
  0
CIRCLE
  5
35F1
330
2
100
AcDbEntity
  8
PCB_OUTLINE
100
AcDbCircle
 10
24.67799032349919
 20
-1.968739289954313
 30
0.0
 40
0.015
  0
CIRCLE
  5
35F2
330
2
100
AcDbEntity
  8
PCB_OUTLINE
100
AcDbCircle
 10
24.59799032349919
 20
-2.048739289954311
 30
0.0
 40
0.015
  0
CIRCLE
  5
35F3
330
2
100
AcDbEntity
  8
PCB_OUTLINE
100
AcDbCircle
 10
24.59799032349919
 20
-1.968739289954313
 30
0.0
 40
0.015
  0
CIRCLE
  5
35F4
330
2
100
AcDbEntity
  8
PCB_OUTLINE
100
AcDbCircle
 10
24.5179903234992
 20
-2.048739289954311
 30
0.0
 40
0.015
  0
CIRCLE
  5
35F5
330
2
100
AcDbEntity
  8
PCB_OUTLINE
100
AcDbCircle
 10
24.5179903234992
 20
-1.968739289954313
 30
0.0
 40
0.015
  0
CIRCLE
  5
35F6
330
2
100
AcDbEntity
  8
PCB_OUTLINE
100
AcDbCircle
 10
24.99799032349919
 20
-1.88873928995431
 30
0.0
 40
0.015
  0
CIRCLE
  5
35F7
330
2
100
AcDbEntity
  8
PCB_OUTLINE
100
AcDbCircle
 10
24.91799032349919
 20
-1.88873928995431
 30
0.0
 40
0.015
  0
CIRCLE
  5
35F8
330
2
100
AcDbEntity
  8
PCB_OUTLINE
100
AcDbCircle
 10
24.83799032349919
 20
-1.88873928995431
 30
0.0
 40
0.015
  0
CIRCLE
  5
35F9
330
2
100
AcDbEntity
  8
PCB_OUTLINE
100
AcDbCircle
 10
24.7579903234992
 20
-1.88873928995431
 30
0.0
 40
0.015
  0
CIRCLE
  5
35FA
330
2
100
AcDbEntity
  8
PCB_OUTLINE
100
AcDbCircle
 10
24.67799032349919
 20
-1.88873928995431
 30
0.0
 40
0.015
  0
CIRCLE
  5
35FB
330
2
100
AcDbEntity
  8
PCB_OUTLINE
100
AcDbCircle
 10
24.59799032349919
 20
-1.88873928995431
 30
0.0
 40
0.015
  0
CIRCLE
  5
35FC
330
2
100
AcDbEntity
  8
PCB_OUTLINE
100
AcDbCircle
 10
24.5179903234992
 20
-1.88873928995431
 30
0.0
 40
0.015
  0
CIRCLE
  5
35FD
330
2
100
AcDbEntity
  8
PCB_OUTLINE
100
AcDbCircle
 10
25.5579903234992
 20
-2.048739289954311
 30
0.0
 40
0.015
  0
CIRCLE
  5
35FE
330
2
100
AcDbEntity
  8
PCB_OUTLINE
100
AcDbCircle
 10
25.5579903234992
 20
-1.968739289954313
 30
0.0
 40
0.015
  0
CIRCLE
  5
35FF
330
2
100
AcDbEntity
  8
PCB_OUTLINE
100
AcDbCircle
 10
25.5579903234992
 20
-1.88873928995431
 30
0.0
 40
0.015
  0
CIRCLE
  5
3600
330
2
100
AcDbEntity
  8
PCB_OUTLINE
100
AcDbCircle
 10
25.31799032349919
 20
-2.048739289954311
 30
0.0
 40
0.015
  0
CIRCLE
  5
3601
330
2
100
AcDbEntity
  8
PCB_OUTLINE
100
AcDbCircle
 10
25.31799032349919
 20
-1.968739289954313
 30
0.0
 40
0.015
  0
CIRCLE
  5
3602
330
2
100
AcDbEntity
  8
PCB_OUTLINE
100
AcDbCircle
 10
25.39799032349919
 20
-2.048739289954311
 30
0.0
 40
0.015
  0
CIRCLE
  5
3603
330
2
100
AcDbEntity
  8
PCB_OUTLINE
100
AcDbCircle
 10
25.39799032349919
 20
-1.968739289954313
 30
0.0
 40
0.015
  0
CIRCLE
  5
3604
330
2
100
AcDbEntity
  8
PCB_OUTLINE
100
AcDbCircle
 10
25.47799032349918
 20
-2.048739289954311
 30
0.0
 40
0.015
  0
CIRCLE
  5
3605
330
2
100
AcDbEntity
  8
PCB_OUTLINE
100
AcDbCircle
 10
25.47799032349918
 20
-1.968739289954313
 30
0.0
 40
0.015
  0
CIRCLE
  5
3606
330
2
100
AcDbEntity
  8
PCB_OUTLINE
100
AcDbCircle
 10
25.07799032349919
 20
-1.88873928995431
 30
0.0
 40
0.015
  0
CIRCLE
  5
3607
330
2
100
AcDbEntity
  8
PCB_OUTLINE
100
AcDbCircle
 10
25.15799032349919
 20
-1.88873928995431
 30
0.0
 40
0.015
  0
CIRCLE
  5
3608
330
2
100
AcDbEntity
  8
PCB_OUTLINE
100
AcDbCircle
 10
25.23799032349919
 20
-1.88873928995431
 30
0.0
 40
0.015
  0
CIRCLE
  5
3609
330
2
100
AcDbEntity
  8
PCB_OUTLINE
100
AcDbCircle
 10
25.31799032349919
 20
-1.88873928995431
 30
0.0
 40
0.015
  0
CIRCLE
  5
360A
330
2
100
AcDbEntity
  8
PCB_OUTLINE
100
AcDbCircle
 10
25.39799032349919
 20
-1.88873928995431
 30
0.0
 40
0.015
  0
CIRCLE
  5
360B
330
2
100
AcDbEntity
  8
PCB_OUTLINE
100
AcDbCircle
 10
25.47799032349918
 20
-1.88873928995431
 30
0.0
 40
0.015
  0
CIRCLE
  5
360C
330
2
100
AcDbEntity
  8
PCB_OUTLINE
100
AcDbCircle
 10
23.7979903234992
 20
-1.88873928995431
 30
0.0
 40
0.015
  0
CIRCLE
  5
360D
330
2
100
AcDbEntity
  8
PCB_OUTLINE
100
AcDbCircle
 10
23.7979903234992
 20
-1.728739289954311
 30
0.0
 40
0.015
  0
CIRCLE
  5
360E
330
2
100
AcDbEntity
  8
PCB_OUTLINE
100
AcDbCircle
 10
23.7979903234992
 20
-1.80873928995431
 30
0.0
 40
0.015
  0
CIRCLE
  5
360F
330
2
100
AcDbEntity
  8
PCB_OUTLINE
100
AcDbCircle
 10
24.03799032349919
 20
-1.728739289954311
 30
0.0
 40
0.015
  0
CIRCLE
  5
3610
330
2
100
AcDbEntity
  8
PCB_OUTLINE
100
AcDbCircle
 10
24.03799032349919
 20
-1.80873928995431
 30
0.0
 40
0.015
  0
CIRCLE
  5
3611
330
2
100
AcDbEntity
  8
PCB_OUTLINE
100
AcDbCircle
 10
24.11799032349919
 20
-1.728739289954311
 30
0.0
 40
0.015
  0
CIRCLE
  5
3612
330
2
100
AcDbEntity
  8
PCB_OUTLINE
100
AcDbCircle
 10
24.11799032349919
 20
-1.80873928995431
 30
0.0
 40
0.015
  0
CIRCLE
  5
3613
330
2
100
AcDbEntity
  8
PCB_OUTLINE
100
AcDbCircle
 10
24.27799032349919
 20
-1.728739289954311
 30
0.0
 40
0.015
  0
CIRCLE
  5
3614
330
2
100
AcDbEntity
  8
PCB_OUTLINE
100
AcDbCircle
 10
24.27799032349919
 20
-1.80873928995431
 30
0.0
 40
0.015
  0
CIRCLE
  5
3615
330
2
100
AcDbEntity
  8
PCB_OUTLINE
100
AcDbCircle
 10
24.19799032349918
 20
-1.728739289954311
 30
0.0
 40
0.015
  0
CIRCLE
  5
3616
330
2
100
AcDbEntity
  8
PCB_OUTLINE
100
AcDbCircle
 10
24.19799032349918
 20
-1.80873928995431
 30
0.0
 40
0.015
  0
CIRCLE
  5
3617
330
2
100
AcDbEntity
  8
PCB_OUTLINE
100
AcDbCircle
 10
23.95799032349919
 20
-1.728739289954311
 30
0.0
 40
0.015
  0
CIRCLE
  5
3618
330
2
100
AcDbEntity
  8
PCB_OUTLINE
100
AcDbCircle
 10
23.95799032349919
 20
-1.80873928995431
 30
0.0
 40
0.015
  0
CIRCLE
  5
3619
330
2
100
AcDbEntity
  8
PCB_OUTLINE
100
AcDbCircle
 10
23.8779903234992
 20
-1.728739289954311
 30
0.0
 40
0.015
  0
CIRCLE
  5
361A
330
2
100
AcDbEntity
  8
PCB_OUTLINE
100
AcDbCircle
 10
23.8779903234992
 20
-1.80873928995431
 30
0.0
 40
0.015
  0
CIRCLE
  5
361B
330
2
100
AcDbEntity
  8
PCB_OUTLINE
100
AcDbCircle
 10
24.4379903234992
 20
-1.728739289954311
 30
0.0
 40
0.015
  0
CIRCLE
  5
361C
330
2
100
AcDbEntity
  8
PCB_OUTLINE
100
AcDbCircle
 10
24.4379903234992
 20
-1.80873928995431
 30
0.0
 40
0.015
  0
CIRCLE
  5
361D
330
2
100
AcDbEntity
  8
PCB_OUTLINE
100
AcDbCircle
 10
24.35799032349919
 20
-1.728739289954311
 30
0.0
 40
0.015
  0
CIRCLE
  5
361E
330
2
100
AcDbEntity
  8
PCB_OUTLINE
100
AcDbCircle
 10
24.35799032349919
 20
-1.80873928995431
 30
0.0
 40
0.015
  0
CIRCLE
  5
361F
330
2
100
AcDbEntity
  8
PCB_OUTLINE
100
AcDbCircle
 10
24.99799032349919
 20
-1.728739289954311
 30
0.0
 40
0.015
  0
CIRCLE
  5
3620
330
2
100
AcDbEntity
  8
PCB_OUTLINE
100
AcDbCircle
 10
24.99799032349919
 20
-1.80873928995431
 30
0.0
 40
0.015
  0
CIRCLE
  5
3621
330
2
100
AcDbEntity
  8
PCB_OUTLINE
100
AcDbCircle
 10
24.91799032349919
 20
-1.728739289954311
 30
0.0
 40
0.015
  0
CIRCLE
  5
3622
330
2
100
AcDbEntity
  8
PCB_OUTLINE
100
AcDbCircle
 10
24.91799032349919
 20
-1.80873928995431
 30
0.0
 40
0.015
  0
CIRCLE
  5
3623
330
2
100
AcDbEntity
  8
PCB_OUTLINE
100
AcDbCircle
 10
24.83799032349919
 20
-1.728739289954311
 30
0.0
 40
0.015
  0
CIRCLE
  5
3624
330
2
100
AcDbEntity
  8
PCB_OUTLINE
100
AcDbCircle
 10
24.83799032349919
 20
-1.80873928995431
 30
0.0
 40
0.015
  0
CIRCLE
  5
3625
330
2
100
AcDbEntity
  8
PCB_OUTLINE
100
AcDbCircle
 10
24.7579903234992
 20
-1.728739289954311
 30
0.0
 40
0.015
  0
CIRCLE
  5
3626
330
2
100
AcDbEntity
  8
PCB_OUTLINE
100
AcDbCircle
 10
24.7579903234992
 20
-1.80873928995431
 30
0.0
 40
0.015
  0
CIRCLE
  5
3627
330
2
100
AcDbEntity
  8
PCB_OUTLINE
100
AcDbCircle
 10
24.67799032349919
 20
-1.728739289954311
 30
0.0
 40
0.015
  0
CIRCLE
  5
3628
330
2
100
AcDbEntity
  8
PCB_OUTLINE
100
AcDbCircle
 10
24.67799032349919
 20
-1.80873928995431
 30
0.0
 40
0.015
  0
CIRCLE
  5
3629
330
2
100
AcDbEntity
  8
PCB_OUTLINE
100
AcDbCircle
 10
24.59799032349919
 20
-1.728739289954311
 30
0.0
 40
0.015
  0
CIRCLE
  5
362A
330
2
100
AcDbEntity
  8
PCB_OUTLINE
100
AcDbCircle
 10
24.59799032349919
 20
-1.80873928995431
 30
0.0
 40
0.015
  0
CIRCLE
  5
362B
330
2
100
AcDbEntity
  8
PCB_OUTLINE
100
AcDbCircle
 10
24.5179903234992
 20
-1.728739289954311
 30
0.0
 40
0.015
  0
CIRCLE
  5
362C
330
2
100
AcDbEntity
  8
PCB_OUTLINE
100
AcDbCircle
 10
24.5179903234992
 20
-1.80873928995431
 30
0.0
 40
0.015
  0
CIRCLE
  5
362D
330
2
100
AcDbEntity
  8
PCB_OUTLINE
100
AcDbCircle
 10
25.5579903234992
 20
-1.728739289954311
 30
0.0
 40
0.015
  0
CIRCLE
  5
362E
330
2
100
AcDbEntity
  8
PCB_OUTLINE
100
AcDbCircle
 10
25.5579903234992
 20
-1.80873928995431
 30
0.0
 40
0.015
  0
CIRCLE
  5
362F
330
2
100
AcDbEntity
  8
PCB_OUTLINE
100
AcDbCircle
 10
25.07799032349919
 20
-1.728739289954311
 30
0.0
 40
0.015
  0
CIRCLE
  5
3630
330
2
100
AcDbEntity
  8
PCB_OUTLINE
100
AcDbCircle
 10
25.07799032349919
 20
-1.80873928995431
 30
0.0
 40
0.015
  0
CIRCLE
  5
3631
330
2
100
AcDbEntity
  8
PCB_OUTLINE
100
AcDbCircle
 10
25.15799032349919
 20
-1.728739289954311
 30
0.0
 40
0.015
  0
CIRCLE
  5
3632
330
2
100
AcDbEntity
  8
PCB_OUTLINE
100
AcDbCircle
 10
25.15799032349919
 20
-1.80873928995431
 30
0.0
 40
0.015
  0
CIRCLE
  5
3633
330
2
100
AcDbEntity
  8
PCB_OUTLINE
100
AcDbCircle
 10
25.23799032349919
 20
-1.728739289954311
 30
0.0
 40
0.015
  0
CIRCLE
  5
3634
330
2
100
AcDbEntity
  8
PCB_OUTLINE
100
AcDbCircle
 10
25.23799032349919
 20
-1.80873928995431
 30
0.0
 40
0.015
  0
CIRCLE
  5
3635
330
2
100
AcDbEntity
  8
PCB_OUTLINE
100
AcDbCircle
 10
25.31799032349919
 20
-1.728739289954311
 30
0.0
 40
0.015
  0
CIRCLE
  5
3636
330
2
100
AcDbEntity
  8
PCB_OUTLINE
100
AcDbCircle
 10
25.31799032349919
 20
-1.80873928995431
 30
0.0
 40
0.015
  0
CIRCLE
  5
3637
330
2
100
AcDbEntity
  8
PCB_OUTLINE
100
AcDbCircle
 10
25.39799032349919
 20
-1.728739289954311
 30
0.0
 40
0.015
  0
CIRCLE
  5
3638
330
2
100
AcDbEntity
  8
PCB_OUTLINE
100
AcDbCircle
 10
25.39799032349919
 20
-1.80873928995431
 30
0.0
 40
0.015
  0
CIRCLE
  5
3639
330
2
100
AcDbEntity
  8
PCB_OUTLINE
100
AcDbCircle
 10
25.47799032349918
 20
-1.728739289954311
 30
0.0
 40
0.015
  0
CIRCLE
  5
363A
330
2
100
AcDbEntity
  8
PCB_OUTLINE
100
AcDbCircle
 10
25.47799032349918
 20
-1.80873928995431
 30
0.0
 40
0.015
  0
CIRCLE
  5
363B
330
2
100
AcDbEntity
  8
PCB_OUTLINE
100
AcDbCircle
 10
23.8779903234992
 20
-1.56873928995431
 30
0.0
 40
0.015
  0
CIRCLE
  5
363C
330
2
100
AcDbEntity
  8
PCB_OUTLINE
100
AcDbCircle
 10
23.9579903234992
 20
-1.56873928995431
 30
0.0
 40
0.015
  0
CIRCLE
  5
363D
330
2
100
AcDbEntity
  8
PCB_OUTLINE
100
AcDbCircle
 10
24.0379903234992
 20
-1.56873928995431
 30
0.0
 40
0.015
  0
CIRCLE
  5
363E
330
2
100
AcDbEntity
  8
PCB_OUTLINE
100
AcDbCircle
 10
24.1179903234992
 20
-1.56873928995431
 30
0.0
 40
0.015
  0
CIRCLE
  5
363F
330
2
100
AcDbEntity
  8
PCB_OUTLINE
100
AcDbCircle
 10
24.1979903234992
 20
-1.56873928995431
 30
0.0
 40
0.015
  0
CIRCLE
  5
3640
330
2
100
AcDbEntity
  8
PCB_OUTLINE
100
AcDbCircle
 10
24.2779903234992
 20
-1.56873928995431
 30
0.0
 40
0.015
  0
CIRCLE
  5
3641
330
2
100
AcDbEntity
  8
PCB_OUTLINE
100
AcDbCircle
 10
24.4379903234992
 20
-1.56873928995431
 30
0.0
 40
0.015
  0
CIRCLE
  5
3642
330
2
100
AcDbEntity
  8
PCB_OUTLINE
100
AcDbCircle
 10
24.35799032349919
 20
-1.56873928995431
 30
0.0
 40
0.015
  0
CIRCLE
  5
3643
330
2
100
AcDbEntity
  8
PCB_OUTLINE
100
AcDbCircle
 10
24.99799032349919
 20
-1.56873928995431
 30
0.0
 40
0.015
  0
CIRCLE
  5
3644
330
2
100
AcDbEntity
  8
PCB_OUTLINE
100
AcDbCircle
 10
24.91799032349919
 20
-1.56873928995431
 30
0.0
 40
0.015
  0
CIRCLE
  5
3645
330
2
100
AcDbEntity
  8
PCB_OUTLINE
100
AcDbCircle
 10
24.83799032349919
 20
-1.56873928995431
 30
0.0
 40
0.015
  0
CIRCLE
  5
3646
330
2
100
AcDbEntity
  8
PCB_OUTLINE
100
AcDbCircle
 10
24.7579903234992
 20
-1.56873928995431
 30
0.0
 40
0.015
  0
CIRCLE
  5
3647
330
2
100
AcDbEntity
  8
PCB_OUTLINE
100
AcDbCircle
 10
24.67799032349919
 20
-1.56873928995431
 30
0.0
 40
0.015
  0
CIRCLE
  5
3648
330
2
100
AcDbEntity
  8
PCB_OUTLINE
100
AcDbCircle
 10
24.59799032349919
 20
-1.56873928995431
 30
0.0
 40
0.015
  0
CIRCLE
  5
3649
330
2
100
AcDbEntity
  8
PCB_OUTLINE
100
AcDbCircle
 10
24.5179903234992
 20
-1.56873928995431
 30
0.0
 40
0.015
  0
CIRCLE
  5
364A
330
2
100
AcDbEntity
  8
PCB_OUTLINE
100
AcDbCircle
 10
23.7979903234992
 20
-1.648739289954313
 30
0.0
 40
0.015
  0
CIRCLE
  5
364B
330
2
100
AcDbEntity
  8
PCB_OUTLINE
100
AcDbCircle
 10
24.03799032349919
 20
-1.648739289954313
 30
0.0
 40
0.015
  0
CIRCLE
  5
364C
330
2
100
AcDbEntity
  8
PCB_OUTLINE
100
AcDbCircle
 10
24.11799032349919
 20
-1.648739289954313
 30
0.0
 40
0.015
  0
CIRCLE
  5
364D
330
2
100
AcDbEntity
  8
PCB_OUTLINE
100
AcDbCircle
 10
24.27799032349919
 20
-1.648739289954313
 30
0.0
 40
0.015
  0
CIRCLE
  5
364E
330
2
100
AcDbEntity
  8
PCB_OUTLINE
100
AcDbCircle
 10
24.19799032349918
 20
-1.648739289954313
 30
0.0
 40
0.015
  0
CIRCLE
  5
364F
330
2
100
AcDbEntity
  8
PCB_OUTLINE
100
AcDbCircle
 10
23.95799032349919
 20
-1.648739289954313
 30
0.0
 40
0.015
  0
CIRCLE
  5
3650
330
2
100
AcDbEntity
  8
PCB_OUTLINE
100
AcDbCircle
 10
23.8779903234992
 20
-1.648739289954313
 30
0.0
 40
0.015
  0
CIRCLE
  5
3651
330
2
100
AcDbEntity
  8
PCB_OUTLINE
100
AcDbCircle
 10
24.4379903234992
 20
-1.648739289954313
 30
0.0
 40
0.015
  0
CIRCLE
  5
3652
330
2
100
AcDbEntity
  8
PCB_OUTLINE
100
AcDbCircle
 10
24.35799032349919
 20
-1.648739289954313
 30
0.0
 40
0.015
  0
CIRCLE
  5
3653
330
2
100
AcDbEntity
  8
PCB_OUTLINE
100
AcDbCircle
 10
24.99799032349919
 20
-1.648739289954313
 30
0.0
 40
0.015
  0
CIRCLE
  5
3654
330
2
100
AcDbEntity
  8
PCB_OUTLINE
100
AcDbCircle
 10
24.91799032349919
 20
-1.648739289954313
 30
0.0
 40
0.015
  0
CIRCLE
  5
3655
330
2
100
AcDbEntity
  8
PCB_OUTLINE
100
AcDbCircle
 10
24.83799032349919
 20
-1.648739289954313
 30
0.0
 40
0.015
  0
CIRCLE
  5
3656
330
2
100
AcDbEntity
  8
PCB_OUTLINE
100
AcDbCircle
 10
24.7579903234992
 20
-1.648739289954313
 30
0.0
 40
0.015
  0
CIRCLE
  5
3657
330
2
100
AcDbEntity
  8
PCB_OUTLINE
100
AcDbCircle
 10
24.67799032349919
 20
-1.648739289954313
 30
0.0
 40
0.015
  0
CIRCLE
  5
3658
330
2
100
AcDbEntity
  8
PCB_OUTLINE
100
AcDbCircle
 10
24.59799032349919
 20
-1.648739289954313
 30
0.0
 40
0.015
  0
CIRCLE
  5
3659
330
2
100
AcDbEntity
  8
PCB_OUTLINE
100
AcDbCircle
 10
24.5179903234992
 20
-1.648739289954313
 30
0.0
 40
0.015
  0
CIRCLE
  5
365A
330
2
100
AcDbEntity
  8
PCB_OUTLINE
100
AcDbCircle
 10
25.07799032349919
 20
-1.648739289954313
 30
0.0
 40
0.015
  0
CIRCLE
  5
365B
330
2
100
AcDbEntity
  8
PCB_OUTLINE
100
AcDbCircle
 10
25.15799032349919
 20
-1.648739289954313
 30
0.0
 40
0.015
  0
CIRCLE
  5
365C
330
2
100
AcDbEntity
  8
PCB_OUTLINE
100
AcDbCircle
 10
23.7979903234992
 20
-1.40873928995431
 30
0.0
 40
0.015
  0
CIRCLE
  5
365D
330
2
100
AcDbEntity
  8
PCB_OUTLINE
100
AcDbCircle
 10
23.7979903234992
 20
-1.328739289954314
 30
0.0
 40
0.015
  0
CIRCLE
  5
365E
330
2
100
AcDbEntity
  8
PCB_OUTLINE
100
AcDbCircle
 10
24.03799032349919
 20
-1.40873928995431
 30
0.0
 40
0.015
  0
CIRCLE
  5
365F
330
2
100
AcDbEntity
  8
PCB_OUTLINE
100
AcDbCircle
 10
24.03799032349919
 20
-1.328739289954314
 30
0.0
 40
0.015
  0
CIRCLE
  5
3660
330
2
100
AcDbEntity
  8
PCB_OUTLINE
100
AcDbCircle
 10
24.11799032349919
 20
-1.40873928995431
 30
0.0
 40
0.015
  0
CIRCLE
  5
3661
330
2
100
AcDbEntity
  8
PCB_OUTLINE
100
AcDbCircle
 10
24.11799032349919
 20
-1.328739289954314
 30
0.0
 40
0.015
  0
CIRCLE
  5
3662
330
2
100
AcDbEntity
  8
PCB_OUTLINE
100
AcDbCircle
 10
24.27799032349919
 20
-1.40873928995431
 30
0.0
 40
0.015
  0
CIRCLE
  5
3663
330
2
100
AcDbEntity
  8
PCB_OUTLINE
100
AcDbCircle
 10
24.27799032349919
 20
-1.328739289954314
 30
0.0
 40
0.015
  0
CIRCLE
  5
3664
330
2
100
AcDbEntity
  8
PCB_OUTLINE
100
AcDbCircle
 10
24.19799032349918
 20
-1.40873928995431
 30
0.0
 40
0.015
  0
CIRCLE
  5
3665
330
2
100
AcDbEntity
  8
PCB_OUTLINE
100
AcDbCircle
 10
24.19799032349918
 20
-1.328739289954314
 30
0.0
 40
0.015
  0
CIRCLE
  5
3666
330
2
100
AcDbEntity
  8
PCB_OUTLINE
100
AcDbCircle
 10
23.95799032349919
 20
-1.40873928995431
 30
0.0
 40
0.015
  0
CIRCLE
  5
3667
330
2
100
AcDbEntity
  8
PCB_OUTLINE
100
AcDbCircle
 10
23.95799032349919
 20
-1.328739289954314
 30
0.0
 40
0.015
  0
CIRCLE
  5
3668
330
2
100
AcDbEntity
  8
PCB_OUTLINE
100
AcDbCircle
 10
23.8779903234992
 20
-1.40873928995431
 30
0.0
 40
0.015
  0
CIRCLE
  5
3669
330
2
100
AcDbEntity
  8
PCB_OUTLINE
100
AcDbCircle
 10
23.8779903234992
 20
-1.328739289954314
 30
0.0
 40
0.015
  0
CIRCLE
  5
366A
330
2
100
AcDbEntity
  8
PCB_OUTLINE
100
AcDbCircle
 10
24.4379903234992
 20
-1.40873928995431
 30
0.0
 40
0.015
  0
CIRCLE
  5
366B
330
2
100
AcDbEntity
  8
PCB_OUTLINE
100
AcDbCircle
 10
24.4379903234992
 20
-1.328739289954314
 30
0.0
 40
0.015
  0
CIRCLE
  5
366C
330
2
100
AcDbEntity
  8
PCB_OUTLINE
100
AcDbCircle
 10
24.35799032349919
 20
-1.40873928995431
 30
0.0
 40
0.015
  0
CIRCLE
  5
366D
330
2
100
AcDbEntity
  8
PCB_OUTLINE
100
AcDbCircle
 10
24.35799032349919
 20
-1.328739289954314
 30
0.0
 40
0.015
  0
CIRCLE
  5
366E
330
2
100
AcDbEntity
  8
PCB_OUTLINE
100
AcDbCircle
 10
24.99799032349919
 20
-1.40873928995431
 30
0.0
 40
0.015
  0
CIRCLE
  5
366F
330
2
100
AcDbEntity
  8
PCB_OUTLINE
100
AcDbCircle
 10
24.99799032349919
 20
-1.328739289954314
 30
0.0
 40
0.015
  0
CIRCLE
  5
3670
330
2
100
AcDbEntity
  8
PCB_OUTLINE
100
AcDbCircle
 10
24.91799032349919
 20
-1.40873928995431
 30
0.0
 40
0.015
  0
CIRCLE
  5
3671
330
2
100
AcDbEntity
  8
PCB_OUTLINE
100
AcDbCircle
 10
24.91799032349919
 20
-1.328739289954314
 30
0.0
 40
0.015
  0
CIRCLE
  5
3672
330
2
100
AcDbEntity
  8
PCB_OUTLINE
100
AcDbCircle
 10
24.83799032349919
 20
-1.40873928995431
 30
0.0
 40
0.015
  0
CIRCLE
  5
3673
330
2
100
AcDbEntity
  8
PCB_OUTLINE
100
AcDbCircle
 10
24.83799032349919
 20
-1.328739289954314
 30
0.0
 40
0.015
  0
CIRCLE
  5
3674
330
2
100
AcDbEntity
  8
PCB_OUTLINE
100
AcDbCircle
 10
24.7579903234992
 20
-1.40873928995431
 30
0.0
 40
0.015
  0
CIRCLE
  5
3675
330
2
100
AcDbEntity
  8
PCB_OUTLINE
100
AcDbCircle
 10
24.7579903234992
 20
-1.328739289954314
 30
0.0
 40
0.015
  0
CIRCLE
  5
3676
330
2
100
AcDbEntity
  8
PCB_OUTLINE
100
AcDbCircle
 10
24.67799032349919
 20
-1.40873928995431
 30
0.0
 40
0.015
  0
CIRCLE
  5
3677
330
2
100
AcDbEntity
  8
PCB_OUTLINE
100
AcDbCircle
 10
24.67799032349919
 20
-1.328739289954314
 30
0.0
 40
0.015
  0
CIRCLE
  5
3678
330
2
100
AcDbEntity
  8
PCB_OUTLINE
100
AcDbCircle
 10
24.59799032349919
 20
-1.40873928995431
 30
0.0
 40
0.015
  0
CIRCLE
  5
3679
330
2
100
AcDbEntity
  8
PCB_OUTLINE
100
AcDbCircle
 10
24.59799032349919
 20
-1.328739289954314
 30
0.0
 40
0.015
  0
CIRCLE
  5
367A
330
2
100
AcDbEntity
  8
PCB_OUTLINE
100
AcDbCircle
 10
24.5179903234992
 20
-1.40873928995431
 30
0.0
 40
0.015
  0
CIRCLE
  5
367B
330
2
100
AcDbEntity
  8
PCB_OUTLINE
100
AcDbCircle
 10
24.5179903234992
 20
-1.328739289954314
 30
0.0
 40
0.015
  0
CIRCLE
  5
367C
330
2
100
AcDbEntity
  8
PCB_OUTLINE
100
AcDbCircle
 10
25.07799032349919
 20
-1.40873928995431
 30
0.0
 40
0.015
  0
CIRCLE
  5
367D
330
2
100
AcDbEntity
  8
PCB_OUTLINE
100
AcDbCircle
 10
25.07799032349919
 20
-1.328739289954314
 30
0.0
 40
0.015
  0
CIRCLE
  5
367E
330
2
100
AcDbEntity
  8
PCB_OUTLINE
100
AcDbCircle
 10
25.15799032349919
 20
-1.40873928995431
 30
0.0
 40
0.015
  0
CIRCLE
  5
367F
330
2
100
AcDbEntity
  8
PCB_OUTLINE
100
AcDbCircle
 10
25.15799032349919
 20
-1.328739289954314
 30
0.0
 40
0.015
  0
CIRCLE
  5
3680
330
2
100
AcDbEntity
  8
PCB_OUTLINE
100
AcDbCircle
 10
24.03799032349919
 20
-1.48873928995431
 30
0.0
 40
0.015
  0
CIRCLE
  5
3681
330
2
100
AcDbEntity
  8
PCB_OUTLINE
100
AcDbCircle
 10
24.11799032349919
 20
-1.48873928995431
 30
0.0
 40
0.015
  0
CIRCLE
  5
3682
330
2
100
AcDbEntity
  8
PCB_OUTLINE
100
AcDbCircle
 10
24.27799032349919
 20
-1.48873928995431
 30
0.0
 40
0.015
  0
CIRCLE
  5
3683
330
2
100
AcDbEntity
  8
PCB_OUTLINE
100
AcDbCircle
 10
24.19799032349918
 20
-1.48873928995431
 30
0.0
 40
0.015
  0
CIRCLE
  5
3684
330
2
100
AcDbEntity
  8
PCB_OUTLINE
100
AcDbCircle
 10
23.95799032349919
 20
-1.48873928995431
 30
0.0
 40
0.015
  0
CIRCLE
  5
3685
330
2
100
AcDbEntity
  8
PCB_OUTLINE
100
AcDbCircle
 10
23.8779903234992
 20
-1.48873928995431
 30
0.0
 40
0.015
  0
CIRCLE
  5
3686
330
2
100
AcDbEntity
  8
PCB_OUTLINE
100
AcDbCircle
 10
24.4379903234992
 20
-1.48873928995431
 30
0.0
 40
0.015
  0
CIRCLE
  5
3687
330
2
100
AcDbEntity
  8
PCB_OUTLINE
100
AcDbCircle
 10
24.35799032349919
 20
-1.48873928995431
 30
0.0
 40
0.015
  0
CIRCLE
  5
3688
330
2
100
AcDbEntity
  8
PCB_OUTLINE
100
AcDbCircle
 10
24.99799032349919
 20
-1.48873928995431
 30
0.0
 40
0.015
  0
CIRCLE
  5
3689
330
2
100
AcDbEntity
  8
PCB_OUTLINE
100
AcDbCircle
 10
24.91799032349919
 20
-1.48873928995431
 30
0.0
 40
0.015
  0
CIRCLE
  5
368A
330
2
100
AcDbEntity
  8
PCB_OUTLINE
100
AcDbCircle
 10
24.83799032349919
 20
-1.48873928995431
 30
0.0
 40
0.015
  0
CIRCLE
  5
368B
330
2
100
AcDbEntity
  8
PCB_OUTLINE
100
AcDbCircle
 10
24.7579903234992
 20
-1.48873928995431
 30
0.0
 40
0.015
  0
CIRCLE
  5
368C
330
2
100
AcDbEntity
  8
PCB_OUTLINE
100
AcDbCircle
 10
24.67799032349919
 20
-1.48873928995431
 30
0.0
 40
0.015
  0
CIRCLE
  5
368D
330
2
100
AcDbEntity
  8
PCB_OUTLINE
100
AcDbCircle
 10
24.59799032349919
 20
-1.48873928995431
 30
0.0
 40
0.015
  0
CIRCLE
  5
368E
330
2
100
AcDbEntity
  8
PCB_OUTLINE
100
AcDbCircle
 10
24.5179903234992
 20
-1.48873928995431
 30
0.0
 40
0.015
  0
CIRCLE
  5
368F
330
2
100
AcDbEntity
  8
PCB_OUTLINE
100
AcDbCircle
 10
23.7979903234992
 20
-1.248739289954311
 30
0.0
 40
0.015
  0
CIRCLE
  5
3690
330
2
100
AcDbEntity
  8
PCB_OUTLINE
100
AcDbCircle
 10
24.03799032349919
 20
-1.248739289954311
 30
0.0
 40
0.015
  0
CIRCLE
  5
3691
330
2
100
AcDbEntity
  8
PCB_OUTLINE
100
AcDbCircle
 10
24.11799032349919
 20
-1.248739289954311
 30
0.0
 40
0.015
  0
CIRCLE
  5
3692
330
2
100
AcDbEntity
  8
PCB_OUTLINE
100
AcDbCircle
 10
24.27799032349919
 20
-1.248739289954311
 30
0.0
 40
0.015
  0
CIRCLE
  5
3693
330
2
100
AcDbEntity
  8
PCB_OUTLINE
100
AcDbCircle
 10
24.19799032349918
 20
-1.248739289954311
 30
0.0
 40
0.015
  0
CIRCLE
  5
3694
330
2
100
AcDbEntity
  8
PCB_OUTLINE
100
AcDbCircle
 10
23.95799032349919
 20
-1.248739289954311
 30
0.0
 40
0.015
  0
CIRCLE
  5
3695
330
2
100
AcDbEntity
  8
PCB_OUTLINE
100
AcDbCircle
 10
23.8779903234992
 20
-1.248739289954311
 30
0.0
 40
0.015
  0
CIRCLE
  5
3696
330
2
100
AcDbEntity
  8
PCB_OUTLINE
100
AcDbCircle
 10
24.4379903234992
 20
-1.248739289954311
 30
0.0
 40
0.015
  0
CIRCLE
  5
3697
330
2
100
AcDbEntity
  8
PCB_OUTLINE
100
AcDbCircle
 10
24.35799032349919
 20
-1.248739289954311
 30
0.0
 40
0.015
  0
CIRCLE
  5
3698
330
2
100
AcDbEntity
  8
PCB_OUTLINE
100
AcDbCircle
 10
24.99799032349919
 20
-1.248739289954311
 30
0.0
 40
0.015
  0
CIRCLE
  5
3699
330
2
100
AcDbEntity
  8
PCB_OUTLINE
100
AcDbCircle
 10
24.91799032349919
 20
-1.248739289954311
 30
0.0
 40
0.015
  0
CIRCLE
  5
369A
330
2
100
AcDbEntity
  8
PCB_OUTLINE
100
AcDbCircle
 10
24.83799032349919
 20
-1.248739289954311
 30
0.0
 40
0.015
  0
CIRCLE
  5
369B
330
2
100
AcDbEntity
  8
PCB_OUTLINE
100
AcDbCircle
 10
24.7579903234992
 20
-1.248739289954311
 30
0.0
 40
0.015
  0
CIRCLE
  5
369C
330
2
100
AcDbEntity
  8
PCB_OUTLINE
100
AcDbCircle
 10
24.67799032349919
 20
-1.248739289954311
 30
0.0
 40
0.015
  0
CIRCLE
  5
369D
330
2
100
AcDbEntity
  8
PCB_OUTLINE
100
AcDbCircle
 10
24.59799032349919
 20
-1.248739289954311
 30
0.0
 40
0.015
  0
CIRCLE
  5
369E
330
2
100
AcDbEntity
  8
PCB_OUTLINE
100
AcDbCircle
 10
24.5179903234992
 20
-1.248739289954311
 30
0.0
 40
0.015
  0
CIRCLE
  5
369F
330
2
100
AcDbEntity
  8
PCB_OUTLINE
100
AcDbCircle
 10
25.07799032349919
 20
-1.248739289954311
 30
0.0
 40
0.015
  0
CIRCLE
  5
36A0
330
2
100
AcDbEntity
  8
PCB_OUTLINE
100
AcDbCircle
 10
25.15799032349919
 20
-1.248739289954311
 30
0.0
 40
0.015
  0
CIRCLE
  5
36A1
330
2
100
AcDbEntity
  8
PCB_OUTLINE
100
AcDbCircle
 10
23.7979903234992
 20
-1.16873928995431
 30
0.0
 40
0.015
  0
CIRCLE
  5
36A2
330
2
100
AcDbEntity
  8
PCB_OUTLINE
100
AcDbCircle
 10
24.03799032349919
 20
-1.088739289954312
 30
0.0
 40
0.015
  0
CIRCLE
  5
36A3
330
2
100
AcDbEntity
  8
PCB_OUTLINE
100
AcDbCircle
 10
24.03799032349919
 20
-1.16873928995431
 30
0.0
 40
0.015
  0
CIRCLE
  5
36A4
330
2
100
AcDbEntity
  8
PCB_OUTLINE
100
AcDbCircle
 10
24.11799032349919
 20
-1.16873928995431
 30
0.0
 40
0.015
  0
CIRCLE
  5
36A5
330
2
100
AcDbEntity
  8
PCB_OUTLINE
100
AcDbCircle
 10
24.27799032349919
 20
-1.16873928995431
 30
0.0
 40
0.015
  0
CIRCLE
  5
36A6
330
2
100
AcDbEntity
  8
PCB_OUTLINE
100
AcDbCircle
 10
24.19799032349918
 20
-1.16873928995431
 30
0.0
 40
0.015
  0
CIRCLE
  5
36A7
330
2
100
AcDbEntity
  8
PCB_OUTLINE
100
AcDbCircle
 10
23.95799032349919
 20
-1.088739289954312
 30
0.0
 40
0.015
  0
CIRCLE
  5
36A8
330
2
100
AcDbEntity
  8
PCB_OUTLINE
100
AcDbCircle
 10
23.95799032349919
 20
-1.16873928995431
 30
0.0
 40
0.015
  0
CIRCLE
  5
36A9
330
2
100
AcDbEntity
  8
PCB_OUTLINE
100
AcDbCircle
 10
23.8779903234992
 20
-1.088739289954312
 30
0.0
 40
0.015
  0
CIRCLE
  5
36AA
330
2
100
AcDbEntity
  8
PCB_OUTLINE
100
AcDbCircle
 10
23.8779903234992
 20
-1.16873928995431
 30
0.0
 40
0.015
  0
CIRCLE
  5
36AB
330
2
100
AcDbEntity
  8
PCB_OUTLINE
100
AcDbCircle
 10
24.4379903234992
 20
-1.088739289954312
 30
0.0
 40
0.015
  0
CIRCLE
  5
36AC
330
2
100
AcDbEntity
  8
PCB_OUTLINE
100
AcDbCircle
 10
24.4379903234992
 20
-1.16873928995431
 30
0.0
 40
0.015
  0
CIRCLE
  5
36AD
330
2
100
AcDbEntity
  8
PCB_OUTLINE
100
AcDbCircle
 10
24.35799032349919
 20
-1.088739289954312
 30
0.0
 40
0.015
  0
CIRCLE
  5
36AE
330
2
100
AcDbEntity
  8
PCB_OUTLINE
100
AcDbCircle
 10
24.35799032349919
 20
-1.16873928995431
 30
0.0
 40
0.015
  0
CIRCLE
  5
36AF
330
2
100
AcDbEntity
  8
PCB_OUTLINE
100
AcDbCircle
 10
24.99799032349919
 20
-1.088739289954312
 30
0.0
 40
0.015
  0
CIRCLE
  5
36B0
330
2
100
AcDbEntity
  8
PCB_OUTLINE
100
AcDbCircle
 10
24.99799032349919
 20
-1.16873928995431
 30
0.0
 40
0.015
  0
CIRCLE
  5
36B1
330
2
100
AcDbEntity
  8
PCB_OUTLINE
100
AcDbCircle
 10
24.91799032349919
 20
-1.088739289954312
 30
0.0
 40
0.015
  0
CIRCLE
  5
36B2
330
2
100
AcDbEntity
  8
PCB_OUTLINE
100
AcDbCircle
 10
24.91799032349919
 20
-1.16873928995431
 30
0.0
 40
0.015
  0
CIRCLE
  5
36B3
330
2
100
AcDbEntity
  8
PCB_OUTLINE
100
AcDbCircle
 10
24.83799032349919
 20
-1.088739289954312
 30
0.0
 40
0.015
  0
CIRCLE
  5
36B4
330
2
100
AcDbEntity
  8
PCB_OUTLINE
100
AcDbCircle
 10
24.83799032349919
 20
-1.16873928995431
 30
0.0
 40
0.015
  0
CIRCLE
  5
36B5
330
2
100
AcDbEntity
  8
PCB_OUTLINE
100
AcDbCircle
 10
24.7579903234992
 20
-1.088739289954312
 30
0.0
 40
0.015
  0
CIRCLE
  5
36B6
330
2
100
AcDbEntity
  8
PCB_OUTLINE
100
AcDbCircle
 10
24.7579903234992
 20
-1.16873928995431
 30
0.0
 40
0.015
  0
CIRCLE
  5
36B7
330
2
100
AcDbEntity
  8
PCB_OUTLINE
100
AcDbCircle
 10
24.67799032349919
 20
-1.088739289954312
 30
0.0
 40
0.015
  0
CIRCLE
  5
36B8
330
2
100
AcDbEntity
  8
PCB_OUTLINE
100
AcDbCircle
 10
24.67799032349919
 20
-1.16873928995431
 30
0.0
 40
0.015
  0
CIRCLE
  5
36B9
330
2
100
AcDbEntity
  8
PCB_OUTLINE
100
AcDbCircle
 10
24.59799032349919
 20
-1.088739289954312
 30
0.0
 40
0.015
  0
CIRCLE
  5
36BA
330
2
100
AcDbEntity
  8
PCB_OUTLINE
100
AcDbCircle
 10
24.59799032349919
 20
-1.16873928995431
 30
0.0
 40
0.015
  0
CIRCLE
  5
36BB
330
2
100
AcDbEntity
  8
PCB_OUTLINE
100
AcDbCircle
 10
24.5179903234992
 20
-1.088739289954312
 30
0.0
 40
0.015
  0
CIRCLE
  5
36BC
330
2
100
AcDbEntity
  8
PCB_OUTLINE
100
AcDbCircle
 10
24.5179903234992
 20
-1.16873928995431
 30
0.0
 40
0.015
  0
CIRCLE
  5
36BD
330
2
100
AcDbEntity
  8
PCB_OUTLINE
100
AcDbCircle
 10
25.07799032349919
 20
-1.16873928995431
 30
0.0
 40
0.015
  0
CIRCLE
  5
36BE
330
2
100
AcDbEntity
  8
PCB_OUTLINE
100
AcDbCircle
 10
25.15799032349919
 20
-1.16873928995431
 30
0.0
 40
0.015
  0
CIRCLE
  5
36BF
330
2
100
AcDbEntity
  8
PCB_OUTLINE
100
AcDbCircle
 10
25.31799032349919
 20
-1.328739289954314
 30
0.0
 40
0.015
  0
CIRCLE
  5
36C0
330
2
100
AcDbEntity
  8
PCB_OUTLINE
100
AcDbCircle
 10
25.39799032349919
 20
-1.328739289954314
 30
0.0
 40
0.015
  0
CIRCLE
  5
36C1
330
2
100
AcDbEntity
  8
PCB_OUTLINE
100
AcDbCircle
 10
25.47799032349918
 20
-1.328739289954314
 30
0.0
 40
0.015
  0
CIRCLE
  5
36C2
330
2
100
AcDbEntity
  8
PCB_OUTLINE
100
AcDbCircle
 10
25.23799032349919
 20
-1.328739289954314
 30
0.0
 40
0.015
  0
CIRCLE
  5
36C3
330
2
100
AcDbEntity
  8
PCB_OUTLINE
100
AcDbCircle
 10
25.31799032349919
 20
-1.248739289954311
 30
0.0
 40
0.015
  0
CIRCLE
  5
36C4
330
2
100
AcDbEntity
  8
PCB_OUTLINE
100
AcDbCircle
 10
25.39799032349919
 20
-1.248739289954311
 30
0.0
 40
0.015
  0
CIRCLE
  5
36C5
330
2
100
AcDbEntity
  8
PCB_OUTLINE
100
AcDbCircle
 10
25.47799032349918
 20
-1.248739289954311
 30
0.0
 40
0.015
  0
CIRCLE
  5
36C6
330
2
100
AcDbEntity
  8
PCB_OUTLINE
100
AcDbCircle
 10
25.23799032349919
 20
-1.248739289954311
 30
0.0
 40
0.015
  0
CIRCLE
  5
36C7
330
2
100
AcDbEntity
  8
PCB_OUTLINE
100
AcDbCircle
 10
25.31799032349919
 20
-1.16873928995431
 30
0.0
 40
0.015
  0
CIRCLE
  5
36C8
330
2
100
AcDbEntity
  8
PCB_OUTLINE
100
AcDbCircle
 10
25.39799032349919
 20
-1.16873928995431
 30
0.0
 40
0.015
  0
CIRCLE
  5
36C9
330
2
100
AcDbEntity
  8
PCB_OUTLINE
100
AcDbCircle
 10
25.47799032349918
 20
-1.16873928995431
 30
0.0
 40
0.015
  0
CIRCLE
  5
36CA
330
2
100
AcDbEntity
  8
PCB_OUTLINE
100
AcDbCircle
 10
25.23799032349919
 20
-1.16873928995431
 30
0.0
 40
0.015
  0
CIRCLE
  5
36CB
330
2
100
AcDbEntity
  8
PCB_OUTLINE
100
AcDbCircle
 10
25.55799032349918
 20
-1.248739289954311
 30
0.0
 40
0.015
  0
CIRCLE
  5
36CC
330
2
100
AcDbEntity
  8
PCB_OUTLINE
100
AcDbCircle
 10
25.55799032349918
 20
-1.16873928995431
 30
0.0
 40
0.015
  0
CIRCLE
  5
36CD
330
2
100
AcDbEntity
  8
PCB_OUTLINE
100
AcDbCircle
 10
25.31799032349919
 20
-0.9287392899543116
 30
0.0
 40
0.015
  0
CIRCLE
  5
36CE
330
2
100
AcDbEntity
  8
PCB_OUTLINE
100
AcDbCircle
 10
25.31799032349919
 20
-1.008739289954313
 30
0.0
 40
0.015
  0
CIRCLE
  5
36CF
330
2
100
AcDbEntity
  8
PCB_OUTLINE
100
AcDbCircle
 10
25.39799032349919
 20
-0.9287392899543116
 30
0.0
 40
0.015
  0
CIRCLE
  5
36D0
330
2
100
AcDbEntity
  8
PCB_OUTLINE
100
AcDbCircle
 10
25.39799032349919
 20
-1.008739289954313
 30
0.0
 40
0.015
  0
CIRCLE
  5
36D1
330
2
100
AcDbEntity
  8
PCB_OUTLINE
100
AcDbCircle
 10
25.47799032349918
 20
-0.9287392899543116
 30
0.0
 40
0.015
  0
CIRCLE
  5
36D2
330
2
100
AcDbEntity
  8
PCB_OUTLINE
100
AcDbCircle
 10
25.47799032349918
 20
-1.008739289954313
 30
0.0
 40
0.015
  0
CIRCLE
  5
36D3
330
2
100
AcDbEntity
  8
PCB_OUTLINE
100
AcDbCircle
 10
25.31799032349919
 20
-1.088739289954312
 30
0.0
 40
0.015
  0
CIRCLE
  5
36D4
330
2
100
AcDbEntity
  8
PCB_OUTLINE
100
AcDbCircle
 10
25.39799032349919
 20
-1.088739289954312
 30
0.0
 40
0.015
  0
CIRCLE
  5
36D5
330
2
100
AcDbEntity
  8
PCB_OUTLINE
100
AcDbCircle
 10
25.47799032349918
 20
-1.088739289954312
 30
0.0
 40
0.015
  0
CIRCLE
  5
36D6
330
2
100
AcDbEntity
  8
PCB_OUTLINE
100
AcDbCircle
 10
25.55799032349918
 20
-0.9287392899543116
 30
0.0
 40
0.015
  0
CIRCLE
  5
36D7
330
2
100
AcDbEntity
  8
PCB_OUTLINE
100
AcDbCircle
 10
25.55799032349918
 20
-1.008739289954313
 30
0.0
 40
0.015
  0
CIRCLE
  5
36D8
330
2
100
AcDbEntity
  8
PCB_OUTLINE
100
AcDbCircle
 10
25.55799032349918
 20
-1.088739289954312
 30
0.0
 40
0.015
  0
CIRCLE
  5
36D9
330
2
100
AcDbEntity
  8
PCB_OUTLINE
100
AcDbCircle
 10
24.03799032349919
 20
-0.9287392899543116
 30
0.0
 40
0.015
  0
CIRCLE
  5
36DA
330
2
100
AcDbEntity
  8
PCB_OUTLINE
100
AcDbCircle
 10
23.95799032349919
 20
-0.9287392899543116
 30
0.0
 40
0.015
  0
CIRCLE
  5
36DB
330
2
100
AcDbEntity
  8
PCB_OUTLINE
100
AcDbCircle
 10
23.8779903234992
 20
-0.9287392899543116
 30
0.0
 40
0.015
  0
CIRCLE
  5
36DC
330
2
100
AcDbEntity
  8
PCB_OUTLINE
100
AcDbCircle
 10
24.4379903234992
 20
-0.9287392899543116
 30
0.0
 40
0.015
  0
CIRCLE
  5
36DD
330
2
100
AcDbEntity
  8
PCB_OUTLINE
100
AcDbCircle
 10
24.35799032349919
 20
-0.9287392899543116
 30
0.0
 40
0.015
  0
CIRCLE
  5
36DE
330
2
100
AcDbEntity
  8
PCB_OUTLINE
100
AcDbCircle
 10
24.99799032349919
 20
-0.9287392899543116
 30
0.0
 40
0.015
  0
CIRCLE
  5
36DF
330
2
100
AcDbEntity
  8
PCB_OUTLINE
100
AcDbCircle
 10
24.91799032349919
 20
-0.9287392899543116
 30
0.0
 40
0.015
  0
CIRCLE
  5
36E0
330
2
100
AcDbEntity
  8
PCB_OUTLINE
100
AcDbCircle
 10
24.83799032349919
 20
-0.9287392899543116
 30
0.0
 40
0.015
  0
CIRCLE
  5
36E1
330
2
100
AcDbEntity
  8
PCB_OUTLINE
100
AcDbCircle
 10
24.7579903234992
 20
-0.9287392899543116
 30
0.0
 40
0.015
  0
CIRCLE
  5
36E2
330
2
100
AcDbEntity
  8
PCB_OUTLINE
100
AcDbCircle
 10
24.67799032349919
 20
-0.9287392899543116
 30
0.0
 40
0.015
  0
CIRCLE
  5
36E3
330
2
100
AcDbEntity
  8
PCB_OUTLINE
100
AcDbCircle
 10
24.59799032349919
 20
-0.9287392899543116
 30
0.0
 40
0.015
  0
CIRCLE
  5
36E4
330
2
100
AcDbEntity
  8
PCB_OUTLINE
100
AcDbCircle
 10
24.5179903234992
 20
-0.9287392899543116
 30
0.0
 40
0.015
  0
CIRCLE
  5
36E5
330
2
100
AcDbEntity
  8
PCB_OUTLINE
100
AcDbCircle
 10
24.03799032349919
 20
-1.008739289954313
 30
0.0
 40
0.015
  0
CIRCLE
  5
36E6
330
2
100
AcDbEntity
  8
PCB_OUTLINE
100
AcDbCircle
 10
23.95799032349919
 20
-1.008739289954313
 30
0.0
 40
0.015
  0
CIRCLE
  5
36E7
330
2
100
AcDbEntity
  8
PCB_OUTLINE
100
AcDbCircle
 10
23.8779903234992
 20
-1.008739289954313
 30
0.0
 40
0.015
  0
CIRCLE
  5
36E8
330
2
100
AcDbEntity
  8
PCB_OUTLINE
100
AcDbCircle
 10
24.4379903234992
 20
-1.008739289954313
 30
0.0
 40
0.015
  0
CIRCLE
  5
36E9
330
2
100
AcDbEntity
  8
PCB_OUTLINE
100
AcDbCircle
 10
24.35799032349919
 20
-1.008739289954313
 30
0.0
 40
0.015
  0
CIRCLE
  5
36EA
330
2
100
AcDbEntity
  8
PCB_OUTLINE
100
AcDbCircle
 10
24.99799032349919
 20
-1.008739289954313
 30
0.0
 40
0.015
  0
CIRCLE
  5
36EB
330
2
100
AcDbEntity
  8
PCB_OUTLINE
100
AcDbCircle
 10
24.91799032349919
 20
-1.008739289954313
 30
0.0
 40
0.015
  0
CIRCLE
  5
36EC
330
2
100
AcDbEntity
  8
PCB_OUTLINE
100
AcDbCircle
 10
24.83799032349919
 20
-1.008739289954313
 30
0.0
 40
0.015
  0
CIRCLE
  5
36ED
330
2
100
AcDbEntity
  8
PCB_OUTLINE
100
AcDbCircle
 10
24.7579903234992
 20
-1.008739289954313
 30
0.0
 40
0.015
  0
CIRCLE
  5
36EE
330
2
100
AcDbEntity
  8
PCB_OUTLINE
100
AcDbCircle
 10
24.67799032349919
 20
-1.008739289954313
 30
0.0
 40
0.015
  0
CIRCLE
  5
36EF
330
2
100
AcDbEntity
  8
PCB_OUTLINE
100
AcDbCircle
 10
24.59799032349919
 20
-1.008739289954313
 30
0.0
 40
0.015
  0
CIRCLE
  5
36F0
330
2
100
AcDbEntity
  8
PCB_OUTLINE
100
AcDbCircle
 10
24.5179903234992
 20
-1.008739289954313
 30
0.0
 40
0.015
  0
CIRCLE
  5
36F1
330
2
100
AcDbEntity
  8
PCB_OUTLINE
100
AcDbCircle
 10
24.03799032349919
 20
-0.768739289954312
 30
0.0
 40
0.015
  0
CIRCLE
  5
36F2
330
2
100
AcDbEntity
  8
PCB_OUTLINE
100
AcDbCircle
 10
24.03799032349919
 20
-0.6887392899543136
 30
0.0
 40
0.015
  0
CIRCLE
  5
36F3
330
2
100
AcDbEntity
  8
PCB_OUTLINE
100
AcDbCircle
 10
23.95799032349919
 20
-0.768739289954312
 30
0.0
 40
0.015
  0
CIRCLE
  5
36F4
330
2
100
AcDbEntity
  8
PCB_OUTLINE
100
AcDbCircle
 10
23.8779903234992
 20
-0.768739289954312
 30
0.0
 40
0.015
  0
CIRCLE
  5
36F5
330
2
100
AcDbEntity
  8
PCB_OUTLINE
100
AcDbCircle
 10
24.4379903234992
 20
-0.768739289954312
 30
0.0
 40
0.015
  0
CIRCLE
  5
36F6
330
2
100
AcDbEntity
  8
PCB_OUTLINE
100
AcDbCircle
 10
24.4379903234992
 20
-0.6887392899543136
 30
0.0
 40
0.015
  0
CIRCLE
  5
36F7
330
2
100
AcDbEntity
  8
PCB_OUTLINE
100
AcDbCircle
 10
24.35799032349919
 20
-0.768739289954312
 30
0.0
 40
0.015
  0
CIRCLE
  5
36F8
330
2
100
AcDbEntity
  8
PCB_OUTLINE
100
AcDbCircle
 10
24.35799032349919
 20
-0.6887392899543136
 30
0.0
 40
0.015
  0
CIRCLE
  5
36F9
330
2
100
AcDbEntity
  8
PCB_OUTLINE
100
AcDbCircle
 10
24.99799032349919
 20
-0.768739289954312
 30
0.0
 40
0.015
  0
CIRCLE
  5
36FA
330
2
100
AcDbEntity
  8
PCB_OUTLINE
100
AcDbCircle
 10
24.99799032349919
 20
-0.6887392899543136
 30
0.0
 40
0.015
  0
CIRCLE
  5
36FB
330
2
100
AcDbEntity
  8
PCB_OUTLINE
100
AcDbCircle
 10
24.91799032349919
 20
-0.768739289954312
 30
0.0
 40
0.015
  0
CIRCLE
  5
36FC
330
2
100
AcDbEntity
  8
PCB_OUTLINE
100
AcDbCircle
 10
24.91799032349919
 20
-0.6887392899543136
 30
0.0
 40
0.015
  0
CIRCLE
  5
36FD
330
2
100
AcDbEntity
  8
PCB_OUTLINE
100
AcDbCircle
 10
24.83799032349919
 20
-0.768739289954312
 30
0.0
 40
0.015
  0
CIRCLE
  5
36FE
330
2
100
AcDbEntity
  8
PCB_OUTLINE
100
AcDbCircle
 10
24.83799032349919
 20
-0.6887392899543136
 30
0.0
 40
0.015
  0
CIRCLE
  5
36FF
330
2
100
AcDbEntity
  8
PCB_OUTLINE
100
AcDbCircle
 10
24.7579903234992
 20
-0.768739289954312
 30
0.0
 40
0.015
  0
CIRCLE
  5
3700
330
2
100
AcDbEntity
  8
PCB_OUTLINE
100
AcDbCircle
 10
24.7579903234992
 20
-0.6887392899543136
 30
0.0
 40
0.015
  0
CIRCLE
  5
3701
330
2
100
AcDbEntity
  8
PCB_OUTLINE
100
AcDbCircle
 10
24.67799032349919
 20
-0.768739289954312
 30
0.0
 40
0.015
  0
CIRCLE
  5
3702
330
2
100
AcDbEntity
  8
PCB_OUTLINE
100
AcDbCircle
 10
24.67799032349919
 20
-0.6887392899543136
 30
0.0
 40
0.015
  0
CIRCLE
  5
3703
330
2
100
AcDbEntity
  8
PCB_OUTLINE
100
AcDbCircle
 10
24.59799032349919
 20
-0.768739289954312
 30
0.0
 40
0.015
  0
CIRCLE
  5
3704
330
2
100
AcDbEntity
  8
PCB_OUTLINE
100
AcDbCircle
 10
24.59799032349919
 20
-0.6887392899543136
 30
0.0
 40
0.015
  0
CIRCLE
  5
3705
330
2
100
AcDbEntity
  8
PCB_OUTLINE
100
AcDbCircle
 10
24.5179903234992
 20
-0.768739289954312
 30
0.0
 40
0.015
  0
CIRCLE
  5
3706
330
2
100
AcDbEntity
  8
PCB_OUTLINE
100
AcDbCircle
 10
24.5179903234992
 20
-0.6887392899543136
 30
0.0
 40
0.015
  0
CIRCLE
  5
3707
330
2
100
AcDbEntity
  8
PCB_OUTLINE
100
AcDbCircle
 10
25.31799032349919
 20
-0.6887392899543136
 30
0.0
 40
0.015
  0
CIRCLE
  5
3708
330
2
100
AcDbEntity
  8
PCB_OUTLINE
100
AcDbCircle
 10
25.39799032349919
 20
-0.6887392899543136
 30
0.0
 40
0.015
  0
CIRCLE
  5
3709
330
2
100
AcDbEntity
  8
PCB_OUTLINE
100
AcDbCircle
 10
25.47799032349918
 20
-0.6887392899543136
 30
0.0
 40
0.015
  0
CIRCLE
  5
370A
330
2
100
AcDbEntity
  8
PCB_OUTLINE
100
AcDbCircle
 10
25.55799032349918
 20
-0.6887392899543136
 30
0.0
 40
0.015
  0
CIRCLE
  5
370B
330
2
100
AcDbEntity
  8
PCB_OUTLINE
100
AcDbCircle
 10
25.31799032349919
 20
-0.8487392899543099
 30
0.0
 40
0.015
  0
CIRCLE
  5
370C
330
2
100
AcDbEntity
  8
PCB_OUTLINE
100
AcDbCircle
 10
25.39799032349919
 20
-0.8487392899543099
 30
0.0
 40
0.015
  0
CIRCLE
  5
370D
330
2
100
AcDbEntity
  8
PCB_OUTLINE
100
AcDbCircle
 10
25.47799032349918
 20
-0.8487392899543099
 30
0.0
 40
0.015
  0
CIRCLE
  5
370E
330
2
100
AcDbEntity
  8
PCB_OUTLINE
100
AcDbCircle
 10
25.31799032349919
 20
-0.768739289954312
 30
0.0
 40
0.015
  0
CIRCLE
  5
370F
330
2
100
AcDbEntity
  8
PCB_OUTLINE
100
AcDbCircle
 10
25.39799032349919
 20
-0.768739289954312
 30
0.0
 40
0.015
  0
CIRCLE
  5
3710
330
2
100
AcDbEntity
  8
PCB_OUTLINE
100
AcDbCircle
 10
25.47799032349918
 20
-0.768739289954312
 30
0.0
 40
0.015
  0
CIRCLE
  5
3711
330
2
100
AcDbEntity
  8
PCB_OUTLINE
100
AcDbCircle
 10
25.55799032349918
 20
-0.8487392899543099
 30
0.0
 40
0.015
  0
CIRCLE
  5
3712
330
2
100
AcDbEntity
  8
PCB_OUTLINE
100
AcDbCircle
 10
25.55799032349918
 20
-0.768739289954312
 30
0.0
 40
0.015
  0
CIRCLE
  5
3713
330
2
100
AcDbEntity
  8
PCB_OUTLINE
100
AcDbCircle
 10
24.03799032349919
 20
-0.8487392899543099
 30
0.0
 40
0.015
  0
CIRCLE
  5
3714
330
2
100
AcDbEntity
  8
PCB_OUTLINE
100
AcDbCircle
 10
23.95799032349919
 20
-0.8487392899543099
 30
0.0
 40
0.015
  0
CIRCLE
  5
3715
330
2
100
AcDbEntity
  8
PCB_OUTLINE
100
AcDbCircle
 10
23.8779903234992
 20
-0.8487392899543099
 30
0.0
 40
0.015
  0
CIRCLE
  5
3716
330
2
100
AcDbEntity
  8
PCB_OUTLINE
100
AcDbCircle
 10
24.4379903234992
 20
-0.8487392899543099
 30
0.0
 40
0.015
  0
CIRCLE
  5
3717
330
2
100
AcDbEntity
  8
PCB_OUTLINE
100
AcDbCircle
 10
24.35799032349919
 20
-0.8487392899543099
 30
0.0
 40
0.015
  0
CIRCLE
  5
3718
330
2
100
AcDbEntity
  8
PCB_OUTLINE
100
AcDbCircle
 10
24.99799032349919
 20
-0.8487392899543099
 30
0.0
 40
0.015
  0
CIRCLE
  5
3719
330
2
100
AcDbEntity
  8
PCB_OUTLINE
100
AcDbCircle
 10
24.91799032349919
 20
-0.8487392899543099
 30
0.0
 40
0.015
  0
CIRCLE
  5
371A
330
2
100
AcDbEntity
  8
PCB_OUTLINE
100
AcDbCircle
 10
24.83799032349919
 20
-0.8487392899543099
 30
0.0
 40
0.015
  0
CIRCLE
  5
371B
330
2
100
AcDbEntity
  8
PCB_OUTLINE
100
AcDbCircle
 10
24.7579903234992
 20
-0.8487392899543099
 30
0.0
 40
0.015
  0
CIRCLE
  5
371C
330
2
100
AcDbEntity
  8
PCB_OUTLINE
100
AcDbCircle
 10
24.67799032349919
 20
-0.8487392899543099
 30
0.0
 40
0.015
  0
CIRCLE
  5
371D
330
2
100
AcDbEntity
  8
PCB_OUTLINE
100
AcDbCircle
 10
24.59799032349919
 20
-0.8487392899543099
 30
0.0
 40
0.015
  0
CIRCLE
  5
371E
330
2
100
AcDbEntity
  8
PCB_OUTLINE
100
AcDbCircle
 10
24.5179903234992
 20
-0.8487392899543099
 30
0.0
 40
0.015
  0
CIRCLE
  5
3720
330
2
100
AcDbEntity
  8
PCB_OUTLINE
100
AcDbCircle
 10
25.23799032349919
 20
-1.648739289954313
 30
0.0
 40
0.015
  0
CIRCLE
  5
3721
330
2
100
AcDbEntity
  8
PCB_OUTLINE
100
AcDbCircle
 10
25.31799032349919
 20
-1.648739289954313
 30
0.0
 40
0.015
  0
CIRCLE
  5
3722
330
2
100
AcDbEntity
  8
PCB_OUTLINE
100
AcDbCircle
 10
25.39799032349919
 20
-1.648739289954313
 30
0.0
 40
0.015
  0
CIRCLE
  5
3723
330
2
100
AcDbEntity
  8
PCB_OUTLINE
100
AcDbCircle
 10
25.47799032349918
 20
-1.648739289954313
 30
0.0
 40
0.015
  0
CIRCLE
  5
3724
330
2
100
AcDbEntity
  8
PCB_OUTLINE
100
AcDbCircle
 10
25.07799032349919
 20
-1.56873928995431
 30
0.0
 40
0.015
  0
CIRCLE
  5
3725
330
2
100
AcDbEntity
  8
PCB_OUTLINE
100
AcDbCircle
 10
25.15799032349919
 20
-1.56873928995431
 30
0.0
 40
0.015
  0
CIRCLE
  5
3726
330
2
100
AcDbEntity
  8
PCB_OUTLINE
100
AcDbCircle
 10
25.23799032349919
 20
-1.56873928995431
 30
0.0
 40
0.015
  0
CIRCLE
  5
3727
330
2
100
AcDbEntity
  8
PCB_OUTLINE
100
AcDbCircle
 10
25.31799032349919
 20
-1.56873928995431
 30
0.0
 40
0.015
  0
CIRCLE
  5
3728
330
2
100
AcDbEntity
  8
PCB_OUTLINE
100
AcDbCircle
 10
25.39799032349919
 20
-1.56873928995431
 30
0.0
 40
0.015
  0
CIRCLE
  5
3729
330
2
100
AcDbEntity
  8
PCB_OUTLINE
100
AcDbCircle
 10
25.47799032349918
 20
-1.56873928995431
 30
0.0
 40
0.015
  0
CIRCLE
  5
372A
330
2
100
AcDbEntity
  8
PCB_OUTLINE
100
AcDbCircle
 10
25.07799032349919
 20
-1.48873928995431
 30
0.0
 40
0.015
  0
CIRCLE
  5
372B
330
2
100
AcDbEntity
  8
PCB_OUTLINE
100
AcDbCircle
 10
25.15799032349919
 20
-1.48873928995431
 30
0.0
 40
0.015
  0
CIRCLE
  5
372C
330
2
100
AcDbEntity
  8
PCB_OUTLINE
100
AcDbCircle
 10
25.23799032349919
 20
-1.48873928995431
 30
0.0
 40
0.015
  0
CIRCLE
  5
372D
330
2
100
AcDbEntity
  8
PCB_OUTLINE
100
AcDbCircle
 10
25.31799032349919
 20
-1.48873928995431
 30
0.0
 40
0.015
  0
CIRCLE
  5
372E
330
2
100
AcDbEntity
  8
PCB_OUTLINE
100
AcDbCircle
 10
25.39799032349919
 20
-1.48873928995431
 30
0.0
 40
0.015
  0
CIRCLE
  5
372F
330
2
100
AcDbEntity
  8
PCB_OUTLINE
100
AcDbCircle
 10
25.47799032349918
 20
-1.48873928995431
 30
0.0
 40
0.015
  0
CIRCLE
  5
3730
330
2
100
AcDbEntity
  8
PCB_OUTLINE
100
AcDbCircle
 10
25.23799032349919
 20
-1.40873928995431
 30
0.0
 40
0.015
  0
CIRCLE
  5
3731
330
2
100
AcDbEntity
  8
PCB_OUTLINE
100
AcDbCircle
 10
25.31799032349919
 20
-1.40873928995431
 30
0.0
 40
0.015
  0
CIRCLE
  5
3732
330
2
100
AcDbEntity
  8
PCB_OUTLINE
100
AcDbCircle
 10
25.39799032349919
 20
-1.40873928995431
 30
0.0
 40
0.015
  0
CIRCLE
  5
3733
330
2
100
AcDbEntity
  8
PCB_OUTLINE
100
AcDbCircle
 10
25.47799032349918
 20
-1.40873928995431
 30
0.0
 40
0.015
  0
CIRCLE
  5
3734
330
2
100
AcDbEntity
  8
PCB_OUTLINE
100
AcDbCircle
 10
23.7979903234992
 20
-1.56873928995431
 30
0.0
 40
0.015
  0
CIRCLE
  5
3735
330
2
100
AcDbEntity
  8
PCB_OUTLINE
100
AcDbCircle
 10
23.7979903234992
 20
-1.48873928995431
 30
0.0
 40
0.015
  0
CIRCLE
  5
3736
330
2
100
AcDbEntity
  8
PCB_OUTLINE
100
AcDbCircle
 10
23.95799032349919
 20
-0.6887392899543136
 30
0.0
 40
0.015
  0
CIRCLE
  5
3737
330
2
100
AcDbEntity
  8
PCB_OUTLINE
100
AcDbCircle
 10
23.8779903234992
 20
-0.6887392899543136
 30
0.0
 40
0.015
  0
LINE
  5
3738
330
2
100
AcDbEntity
  8
PCB_TOP
100
AcDbLine
 10
24.31798965662372
 20
-2.403739331924267
 30
0.0
 11
25.03798989934586
 21
-2.403739264419272
 31
0.0
  0
LINE
  5
3739
330
2
100
AcDbEntity
  8
PCB_TOP
100
AcDbLine
 10
25.25898983154259
 20
-2.403739264419272
 30
0.0
 11
25.58798978502724
 21
-2.403739264419272
 31
0.0
  0
LINE
  5
373A
330
2
100
AcDbEntity
  8
PCB_TOP
100
AcDbLine
 10
25.58798978502724
 20
-2.403739264419272
 30
0.0
 11
25.58798978502724
 21
-0.65372462131046
 31
0.0
  0
LINE
  5
373B
330
2
100
AcDbEntity
  8
PCB_TOP
100
AcDbLine
 10
25.58798978502724
 20
-0.65372462131046
 30
0.0
 11
25.25898983154258
 21
-0.6537245689300275
 31
0.0
  0
LINE
  5
373C
330
2
100
AcDbEntity
  8
PCB_TOP
100
AcDbLine
 10
25.03798989934586
 20
-0.6537245959037823
 30
0.0
 11
24.31798965662373
 21
-0.6537246843091756
 31
0.0
  0
LINE
  5
373D
330
2
100
AcDbEntity
  8
PCB_TOP
100
AcDbLine
 10
24.096989724427
 20
-0.6537247116064691
 30
0.0
 11
24.09698982117558
 21
-1.13373201078155
 31
0.0
  0
LINE
  5
373E
330
2
100
AcDbEntity
  8
PCB_TOP
100
AcDbLine
 10
24.09698982117558
 20
-1.13373201078155
 30
0.0
 11
24.28298983281635
 21
-1.133731973292043
 31
0.0
  0
LINE
  5
373F
330
2
100
AcDbEntity
  8
PCB_TOP
100
AcDbLine
 10
24.28298981366852
 20
-1.038732071054095
 30
0.0
 11
24.317989734643
 21
-1.038732063999634
 31
0.0
  0
LINE
  5
3740
330
2
100
AcDbEntity
  8
PCB_TOP
100
AcDbLine
 10
24.317989734643
 20
-1.038732063999634
 30
0.0
 11
24.31798965662373
 21
-0.6537246843091756
 31
0.0
  0
LINE
  5
3741
330
2
100
AcDbEntity
  8
PCB_TOP
100
AcDbLine
 10
24.171989825258
 20
-1.09373200231618
 30
0.0
 11
24.24298982525801
 21
-1.093731988005667
 31
0.0
  0
LINE
  5
3742
330
2
100
AcDbEntity
  8
PCB_TOP
100
AcDbLine
 10
24.24298982525801
 20
-1.093731988005667
 30
0.0
 11
24.2429897369694
 21
-0.6632368789666008
 31
0.0
  0
ARC
  5
3743
330
2
100
AcDbEntity
  8
PCB_TOP
100
AcDbCircle
 10
24.20748974936267
 20
-0.7247246897905595
 30
0.0
 40
0.0710000000000061
100
AcDbArc
 50
60.00001154833858
 51
120.0000115483387
  0
LINE
  5
3744
330
2
100
AcDbEntity
  8
PCB_TOP
100
AcDbLine
 10
24.17198973848893
 20
-0.6632368923998162
 30
0.0
 11
24.171989825258
 21
-1.09373200231618
 31
0.0
  0
LINE
  5
3746
330
2
100
AcDbEntity
  8
PCB_TOP
100
AcDbLine
 10
23.7679898169432
 20
-2.403739264419272
 30
0.0
 11
23.7679898169432
 21
-0.6537247116064691
 31
0.0
  0
CIRCLE
  5
3747
330
2
100
AcDbEntity
  8
PCB_OUTLINE
100
AcDbCircle
 10
23.79799032349922
 20
-1.088739289954312
 30
0.0
 40
0.015
  0
CIRCLE
  5
3748
330
2
100
AcDbEntity
  8
PCB_OUTLINE
100
AcDbCircle
 10
23.79799032349922
 20
-0.9287392899543116
 30
0.0
 40
0.015
  0
CIRCLE
  5
3749
330
2
100
AcDbEntity
  8
PCB_OUTLINE
100
AcDbCircle
 10
23.79799032349922
 20
-1.008739289954313
 30
0.0
 40
0.015
  0
CIRCLE
  5
374A
330
2
100
AcDbEntity
  8
PCB_OUTLINE
100
AcDbCircle
 10
23.79799032349922
 20
-0.768739289954312
 30
0.0
 40
0.015
  0
CIRCLE
  5
374B
330
2
100
AcDbEntity
  8
PCB_OUTLINE
100
AcDbCircle
 10
23.79799032349922
 20
-0.8487392899543099
 30
0.0
 40
0.015
  0
CIRCLE
  5
374C
330
2
100
AcDbEntity
  8
PCB_OUTLINE
100
AcDbCircle
 10
23.79799032349922
 20
-0.6887392899543136
 30
0.0
 40
0.015
  0
CIRCLE
  5
374D
330
2
100
AcDbEntity
  8
PCB_OUTLINE
100
AcDbCircle
 10
23.7979903234992
 20
-2.128739289954311
 30
0.0
 40
0.015
  0
CIRCLE
  5
374E
330
2
100
AcDbEntity
  8
PCB_OUTLINE
100
AcDbCircle
 10
23.7979903234992
 20
-2.208739289954313
 30
0.0
 40
0.015
  0
CIRCLE
  5
374F
330
2
100
AcDbEntity
  8
PCB_OUTLINE
100
AcDbCircle
 10
23.7979903234992
 20
-2.288739289954313
 30
0.0
 40
0.015
  0
CIRCLE
  5
3750
330
2
100
AcDbEntity
  8
PCB_OUTLINE
100
AcDbCircle
 10
23.7979903234992
 20
-2.368739289954313
 30
0.0
 40
0.015
  0
CIRCLE
  5
3751
330
2
100
AcDbEntity
  8
PCB_OUTLINE
100
AcDbCircle
 10
23.7979903234992
 20
-2.048739289954311
 30
0.0
 40
0.015
  0
CIRCLE
  5
3752
330
2
100
AcDbEntity
  8
PCB_OUTLINE
100
AcDbCircle
 10
23.7979903234992
 20
-1.968739289954313
 30
0.0
 40
0.015
  0
LINE
  5
3753
330
2
100
AcDbEntity
  8
PCB_TOP
100
AcDbLine
 10
24.09698972442699
 20
-0.6537246952719369
 30
0.0
 11
23.7679898169432
 21
-0.6537247116064691
 31
0.0
  0
LINE
  5
3754
330
2
100
AcDbEntity
  8
PCB_TOP
100
AcDbLine
 10
23.7679898169432
 20
-2.403739264419272
 30
0.0
 11
24.09698972442698
 21
-2.403739376484568
 31
0.0
  0
LINE
  5
3755
330
2
100
AcDbEntity
  8
PCB_TOP
100
AcDbLine
 10
24.28298983281635
 20
-1.133731973292043
 30
0.0
 11
24.28298981366852
 21
-1.038732071054095
 31
0.0
  0
LINE
  5
3756
330
2
100
AcDbEntity
  8
PCB_TOP
100
AcDbLine
 10
25.25898983154258
 20
-0.6537245689300275
 30
0.0
 11
25.25898985266961
 21
-1.133731868105116
 31
0.0
  0
LINE
  5
3757
330
2
100
AcDbEntity
  8
PCB_TOP
100
AcDbLine
 10
25.25898985266961
 20
-1.133731868105116
 30
0.0
 11
25.07298984102883
 21
-1.133731876291719
 31
0.0
  0
LINE
  5
3758
330
2
100
AcDbEntity
  8
PCB_TOP
100
AcDbLine
 10
25.07298983684751
 20
-1.038731974053767
 30
0.0
 11
25.03798991587301
 21
-1.038731975594253
 31
0.0
  0
LINE
  5
3759
330
2
100
AcDbEntity
  8
PCB_TOP
100
AcDbLine
 10
25.03798991587301
 20
-1.038731975594253
 30
0.0
 11
25.03798989934586
 21
-0.6537245959037823
 31
0.0
  0
LINE
  5
375A
330
2
100
AcDbEntity
  8
PCB_TOP
100
AcDbLine
 10
25.18398983876438
 20
-1.093731878057532
 30
0.0
 11
25.11298983876436
 21
-1.093731881182524
 31
0.0
  0
LINE
  5
375B
330
2
100
AcDbEntity
  8
PCB_TOP
100
AcDbLine
 10
25.11298983876436
 20
-1.093731881182524
 30
0.0
 11
25.11298982133608
 21
-0.6632367721434496
 31
0.0
  0
ARC
  5
375C
330
2
100
AcDbEntity
  8
PCB_TOP
100
AcDbCircle
 10
25.1484898240424
 20
-0.7247245742496565
 30
0.0
 40
0.0710000000000061
100
AcDbArc
 50
60.00000252181124
 51
120.0000025218115
  0
LINE
  5
375D
330
2
100
AcDbEntity
  8
PCB_TOP
100
AcDbLine
 10
25.18398981981656
 20
-0.6632367681411613
 30
0.0
 11
25.18398983876438
 21
-1.093731878057532
 31
0.0
  0
LINE
  5
375E
330
2
100
AcDbEntity
  8
PCB_TOP
100
AcDbLine
 10
25.07298984102883
 20
-1.133731876291719
 30
0.0
 11
25.07298983684751
 21
-1.038731974053767
 31
0.0
  0
LINE
  5
375F
330
2
100
AcDbEntity
  8
PCB_TOP
100
AcDbLine
 10
24.096989724427
 20
-2.403739264404872
 30
0.0
 11
24.09698982117558
 21
-1.923731965229791
 31
0.0
  0
LINE
  5
3760
330
2
100
AcDbEntity
  8
PCB_TOP
100
AcDbLine
 10
24.09698982117558
 20
-1.923731965229791
 30
0.0
 11
24.28298983281635
 21
-1.923732002719295
 31
0.0
  0
LINE
  5
3761
330
2
100
AcDbEntity
  8
PCB_TOP
100
AcDbLine
 10
24.28298981366852
 20
-2.018731904957244
 30
0.0
 11
24.317989734643
 21
-2.018731912011705
 31
0.0
  0
LINE
  5
3762
330
2
100
AcDbEntity
  8
PCB_TOP
100
AcDbLine
 10
24.317989734643
 20
-2.018731912011705
 30
0.0
 11
24.31798965662373
 21
-2.403739291702168
 31
0.0
  0
LINE
  5
3763
330
2
100
AcDbEntity
  8
PCB_TOP
100
AcDbLine
 10
24.171989825258
 20
-1.963731973695159
 30
0.0
 11
24.24298982525801
 21
-1.96373198800567
 31
0.0
  0
LINE
  5
3764
330
2
100
AcDbEntity
  8
PCB_TOP
100
AcDbLine
 10
24.24298982525801
 20
-1.96373198800567
 30
0.0
 11
24.2429897369694
 21
-2.394227097044739
 31
0.0
  0
ARC
  5
3765
330
2
100
AcDbEntity
  8
PCB_TOP
100
AcDbCircle
 10
24.20748974936267
 20
-2.332739286220779
 30
0.0
 40
0.0710000000000061
100
AcDbArc
 50
239.999988451661
 51
299.9999884516613
  0
LINE
  5
3766
330
2
100
AcDbEntity
  8
PCB_TOP
100
AcDbLine
 10
24.17198973848893
 20
-2.394227083611522
 30
0.0
 11
24.171989825258
 21
-1.963731973695159
 31
0.0
  0
LINE
  5
3768
330
2
100
AcDbEntity
  8
PCB_TOP
100
AcDbLine
 10
24.28298983281635
 20
-1.923732002719295
 30
0.0
 11
24.28298981366852
 21
-2.018731904957244
 31
0.0
  0
LINE
  5
3769
330
2
100
AcDbEntity
  8
PCB_TOP
100
AcDbLine
 10
25.25898983154258
 20
-2.403739407081312
 30
0.0
 11
25.25898985266961
 21
-1.923732107906225
 31
0.0
  0
LINE
  5
376A
330
2
100
AcDbEntity
  8
PCB_TOP
100
AcDbLine
 10
25.25898985266961
 20
-1.923732107906225
 30
0.0
 11
25.07298984102883
 21
-1.923732099719621
 31
0.0
  0
LINE
  5
376B
330
2
100
AcDbEntity
  8
PCB_TOP
100
AcDbLine
 10
25.07298983684751
 20
-2.018732001957574
 30
0.0
 11
25.03798991587301
 21
-2.018732000417089
 31
0.0
  0
LINE
  5
376C
330
2
100
AcDbEntity
  8
PCB_TOP
100
AcDbLine
 10
25.03798991587301
 20
-2.018732000417089
 30
0.0
 11
25.03798989934586
 21
-2.403739380107558
 31
0.0
  0
LINE
  5
376D
330
2
100
AcDbEntity
  8
PCB_TOP
100
AcDbLine
 10
25.18398983876438
 20
-1.963732097953809
 30
0.0
 11
25.11298983876436
 21
-1.963732094828817
 31
0.0
  0
LINE
  5
376E
330
2
100
AcDbEntity
  8
PCB_TOP
100
AcDbLine
 10
25.11298983876436
 20
-1.963732094828817
 30
0.0
 11
25.11298982133608
 21
-2.394227203867892
 31
0.0
  0
ARC
  5
376F
330
2
100
AcDbEntity
  8
PCB_TOP
100
AcDbCircle
 10
25.1484898240424
 20
-2.332739401761687
 30
0.0
 40
0.0710000000000061
100
AcDbArc
 50
239.9999974781884
 51
299.9999974781887
  0
LINE
  5
3770
330
2
100
AcDbEntity
  8
PCB_TOP
100
AcDbLine
 10
25.18398981981656
 20
-2.39422720787018
 30
0.0
 11
25.18398983876438
 21
-1.963732097953809
 31
0.0
  0
LINE
  5
3771
330
2
100
AcDbEntity
  8
PCB_TOP
100
AcDbLine
 10
25.07298984102883
 20
-1.923732099719621
 30
0.0
 11
25.07298983684751
 21
-2.018732001957574
 31
0.0
  0
MTEXT
  5
3F31
330
2
100
AcDbEntity
  8
Text
100
AcDbMText
 10
24.67836956807047
 20
-2.502381328840904
 30
0.0
 40
0.05
 41
1.317781835861389
 71
     2
 72
     5
  1
Er=3.55, 2oz. cu, Both Sides (.032" THK.)
  7
ARIAL
 73
     1
 44
1.0
1001
ACAD
1000
MTEXTBEGIN
1070
    73
1070
     1
1070
    44
1040
1.0
1070
    74
1070
     0
1000
MTEXTEND
  0
INSERT
  5
3F90
330
2
100
AcDbEntity
  8
Housing
100
AcDbBlockReference
  2
A$C21E72138
 10
24.24298982525801
 20
-1.96373198800567
 30
0.0
  0
CIRCLE
  5
4023
330
2
100
AcDbEntity
  8
PCB_OUTLINE
100
AcDbCircle
 10
25.55799032349918
 20
-1.328739289954314
 30
0.0
 40
0.015
  0
CIRCLE
  5
4024
330
2
100
AcDbEntity
  8
PCB_OUTLINE
100
AcDbCircle
 10
25.55799032349918
 20
-1.648739289954313
 30
0.0
 40
0.015
  0
CIRCLE
  5
4025
330
2
100
AcDbEntity
  8
PCB_OUTLINE
100
AcDbCircle
 10
25.55799032349918
 20
-1.56873928995431
 30
0.0
 40
0.015
  0
CIRCLE
  5
4026
330
2
100
AcDbEntity
  8
PCB_OUTLINE
100
AcDbCircle
 10
25.55799032349918
 20
-1.48873928995431
 30
0.0
 40
0.015
  0
CIRCLE
  5
4027
330
2
100
AcDbEntity
  8
PCB_OUTLINE
100
AcDbCircle
 10
25.55799032349918
 20
-1.40873928995431
 30
0.0
 40
0.015
  0
ENDSEC
  0
SECTION
  2
OBJECTS
  0
DICTIONARY
  5
7
330
0
100
AcDbDictionary
281
     1
  3
ACAD_2007HEADERVARS_RT
350
402C
  3
ACAD_CIP_PREVIOUS_PRODUCT_INFO
350
3DBA
  3
ACAD_COLOR
350
43
  3
ACAD_DETAILVIEWSTYLE
350
3DB0
  3
ACAD_GROUP
350
30
  3
ACAD_LAYOUT
350
6
  3
ACAD_MATERIAL
350
13
  3
ACAD_MLEADERSTYLE
350
225
  3
ACAD_MLINESTYLE
350
31
  3
ACAD_PLOTSETTINGS
350
32
  3
ACAD_PLOTSTYLENAME
350
11
  3
ACAD_SCALELIST
350
44
  3
ACAD_SECTIONVIEWSTYLE
350
3DAE
  3
ACAD_TABLESTYLE
350
45
  3
ACAD_VISUALSTYLE
350
29
  3
ACDB_RECOMPOSE_DATA
350
402A
  3
AcDbVariableDictionary
350
212
  3
AcmDictionary
350
1B9
  3
AMG
350
1AA
  3
AMGSNAPSETTINGS
350
265
  3
DWGPROPS
350
402B
  0
DICTIONARY
  5
2A
330
26
100
AcDbDictionary
280
     1
281
     1
  0
DICTIONARY
  5
1C
330
C
100
AcDbDictionary
280
     1
281
     1
  3
ACAD_LAYERFILTERS
360
1D4F
  3
ACAD_LAYERSTATES
360
1D
  3
ACLYDICTIONARY
360
1D4E
  0
DICTIONARY
  5
E
330
D
100
AcDbDictionary
280
     1
281
     1
  3
ADSK_XREC_LAYER_RECONCILED
360
F
  0
DICTIONARY
  5
95
330
94
100
AcDbDictionary
280
     1
281
     1
  3
ADSK_XREC_LAYER_RECONCILED
360
96
  0
DICTIONARY
  5
99
330
98
100
AcDbDictionary
280
     1
281
     1
  3
ADSK_XREC_LAYER_RECONCILED
360
9A
  0
DICTIONARY
  5
10D
330
10C
100
AcDbDictionary
280
     1
281
     1
  3
ADSK_XREC_LAYER_RECONCILED
360
10E
  0
DICTIONARY
  5
118
330
117
100
AcDbDictionary
280
     1
281
     1
  3
ADSK_XREC_LAYER_RECONCILED
360
119
  0
DICTIONARY
  5
109
330
108
100
AcDbDictionary
280
     1
281
     1
  3
ADSK_XREC_LAYER_RECONCILED
360
10A
  0
DICTIONARY
  5
C0
330
BF
100
AcDbDictionary
280
     1
281
     1
  3
ADSK_XREC_LAYER_RECONCILED
360
C1
  0
DICTIONARY
  5
70
330
6F
100
AcDbDictionary
280
     1
281
     1
  3
ADSK_XREC_LAYER_RECONCILED
360
71
  0
DICTIONARY
  5
3F79
330
3F78
100
AcDbDictionary
280
     1
281
     1
  0
DICTIONARY
  5
13AA
330
2
100
AcDbDictionary
280
     1
281
     1
  3
ACAD_SORTENTS
360
13AB
  0
DICTIONARY
  5
3F8B
330
3F7C
100
AcDbDictionary
280
     1
281
     1
  3
ACAD_SORTENTS
360
3F8C
  0
DICTIONARY
  5
402C
102
{ACAD_REACTORS
330
7
102
}
330
7
100
AcDbDictionary
281
     1
  3
DIMARCSYM
350
402D
  3
DIMLTEX1
350
402F
  3
DIMLTEX2
350
4030
  3
DIMLTYPE
350
402E
  0
XRECORD
  5
3DBA
102
{ACAD_REACTORS
330
7
102
}
330
7
100
AcDbXrecord
280
     1
300
AMECH_PP
300
2013
300
PDSP_F_S
  0
DICTIONARY
  5
43
102
{ACAD_REACTORS
330
7
102
}
330
7
100
AcDbDictionary
281
     1
  0
DICTIONARY
  5
3DB0
102
{ACAD_REACTORS
330
7
102
}
330
7
100
AcDbDictionary
281
     1
  3
Imperial24
350
3DB1
  0
DICTIONARY
  5
30
102
{ACAD_REACTORS
330
7
102
}
330
7
100
AcDbDictionary
281
     1
  0
DICTIONARY
  5
6
102
{ACAD_REACTORS
330
7
102
}
330
7
100
AcDbDictionary
281
     1
  3
Layout1
350
B
  3
Model
350
5
  0
DICTIONARY
  5
13
102
{ACAD_REACTORS
330
7
102
}
330
7
100
AcDbDictionary
281
     1
  3
ByBlock
350
3B
  3
ByLayer
350
33
  3
Global
350
12
  0
DICTIONARY
  5
225
102
{ACAD_REACTORS
330
7
102
}
330
7
100
AcDbDictionary
281
     1
  3
Standard
350
226
  0
DICTIONARY
  5
31
102
{ACAD_REACTORS
330
7
102
}
330
7
100
AcDbDictionary
281
     1
  3
Standard
350
46
  0
DICTIONARY
  5
32
102
{ACAD_REACTORS
330
7
102
}
330
7
100
AcDbDictionary
281
     1
  3
Setup1
350
17B5
  0
ACDBDICTIONARYWDFLT
  5
11
102
{ACAD_REACTORS
330
7
102
}
330
7
100
AcDbDictionary
281
     1
  3
Normal
350
10
100
AcDbDictionaryWithDefault
340
10
  0
DICTIONARY
  5
44
102
{ACAD_REACTORS
330
7
102
}
330
7
100
AcDbDictionary
281
     1
  3
A0
350
4B
  3
A1
350
4C
  3
A2
350
4D
  3
A3
350
4E
  3
A4
350
4F
  3
A5
350
50
  3
A6
350
51
  3
A7
350
52
  3
A8
350
53
  3
A9
350
54
  3
B0
350
55
  3
B1
350
56
  3
B2
350
57
  3
B3
350
58
  3
B4
350
59
  3
B5
350
5A
  3
B6
350
5B
  3
B7
350
5C
  3
B8
350
5D
  3
B9
350
5E
  3
C0
350
5F
  3
C1
350
60
  3
C2
350
61
  3
C3
350
62
  3
C4
350
63
  3
C5
350
64
  3
C6
350
65
  3
C7
350
66
  3
C8
350
67
  3
C9
350
68
  3
D0
350
69
  3
D1
350
6A
  3
D2
350
6B
  0
DICTIONARY
  5
3DAE
102
{ACAD_REACTORS
330
7
102
}
330
7
100
AcDbDictionary
281
     1
  3
Imperial24
350
3DAF
  0
DICTIONARY
  5
45
102
{ACAD_REACTORS
330
7
102
}
330
7
100
AcDbDictionary
281
     1
  3
Standard
350
47
  0
DICTIONARY
  5
29
102
{ACAD_REACTORS
330
7
102
}
330
7
100
AcDbDictionary
281
     1
  3
2dWireframe
350
28
  3
3D Hidden
350
21D
  3
3dWireframe
350
4A
  3
Basic
350
21C
  3
Brighten
350
220
  3
ColorChange
350
224
  3
Conceptual
350
21E
  3
Dim
350
21F
  3
EdgeColorOff
350
21B0
  3
Facepattern
350
223
  3
Flat
350
218
  3
FlatWithEdges
350
219
  3
Gouraud
350
21A
  3
GouraudWithEdges
350
21B
  3
Hidden
350
28EC
  3
JitterOff
350
21AE
  3
Linepattern
350
222
  3
OverhangOff
350
21AF
  3
Realistic
350
49
  3
Shaded
350
28F1
  3
Shaded with edges
350
28F0
  3
Shades of Gray
350
28ED
  3
Sketchy
350
28EE
  3
Thicken
350
221
  3
Wireframe
350
28EB
  3
X-Ray
350
28EF
  0
XRECORD
  5
402A
102
{ACAD_REACTORS
330
7
102
}
330
7
100
AcDbXrecord
280
     1
 90
        1
330
47
  0
DICTIONARY
  5
212
102
{ACAD_REACTORS
330
7
102
}
330
7
100
AcDbDictionary
281
     1
  3
CANNOSCALE
350
215
  3
CMLEADERSTYLE
350
214
  3
CTABLESTYLE
350
213
  3
CVIEWDETAILSTYLE
350
3E01
  3
CVIEWSECTIONSTYLE
350
3E02
  3
DIMASSOC
350
2EC
  3
HIDETEXT
350
2EB
  3
INDEXCTL
350
2EA
  3
LIGHTINGUNITS
350
216
  3
MSLTSCALE
350
2E8
  3
SORTENTS
350
2E9
  3
XCLIPFRAME
350
4028
  0
DICTIONARY
  5
1B9
102
{ACAD_REACTORS
330
7
102
}
330
7
100
AcDbDictionary
281
     1
  3
AcmStdDictionary
350
1BA
  3
AMDTSECTSYM_ARROWCOLOR
350
25B
  0
DICTIONARY
  5
1AA
102
{ACAD_REACTORS
330
7
102
}
330
7
100
AcDbDictionary
281
     1
  0
DICTIONARY
  5
265
102
{ACAD_REACTORS
330
7
102
}
330
7
100
AcDbDictionary
281
     1
  0
XRECORD
  5
402B
102
{ACAD_REACTORS
330
7
102
}
330
7
100
AcDbXrecord
280
     1
  1
DWGPROPS COOKIE
  2

  3

  4

  6

  7

  8
scornell
  9

300
=
301
=
302
=
303
=
304
=
305
=
306
=
307
=
308
=
309
=
 40
0.1662663773148148
 41
2454494.837450614
 42
2456905.545898125
  1

 90
        0
  0
DICTIONARY
  5
1D4F
102
{ACAD_REACTORS
330
1C
102
}
330
1C
100
AcDbDictionary
281
     1
  0
DICTIONARY
  5
1D
102
{ACAD_REACTORS
330
1C
102
}
330
1C
100
AcDbDictionary
281
     1
  3
LMAN_ACET-LAYISO
350
2889
  0
DICTIONARY
  5
1D4E
102
{ACAD_REACTORS
330
1C
102
}
330
1C
100
AcDbDictionary
281
     1
1001
ACAD
1000
<All
  0
XRECORD
  5
F
102
{ACAD_REACTORS
330
E
102
}
330
E
100
AcDbXrecord
280
     1
290
     1
  0
XRECORD
  5
96
102
{ACAD_REACTORS
330
95
102
}
330
95
100
AcDbXrecord
280
     1
290
     1
  0
XRECORD
  5
9A
102
{ACAD_REACTORS
330
99
102
}
330
99
100
AcDbXrecord
280
     1
290
     1
  0
XRECORD
  5
10E
102
{ACAD_REACTORS
330
10D
102
}
330
10D
100
AcDbXrecord
280
     1
290
     1
  0
XRECORD
  5
119
102
{ACAD_REACTORS
330
118
102
}
330
118
100
AcDbXrecord
280
     1
290
     1
  0
XRECORD
  5
10A
102
{ACAD_REACTORS
330
109
102
}
330
109
100
AcDbXrecord
280
     1
290
     1
  0
XRECORD
  5
C1
102
{ACAD_REACTORS
330
C0
102
}
330
C0
100
AcDbXrecord
280
     1
290
     1
  0
XRECORD
  5
71
102
{ACAD_REACTORS
330
70
102
}
330
70
100
AcDbXrecord
280
     1
290
     1
  0
SORTENTSTABLE
  5
13AB
102
{ACAD_REACTORS
330
13AA
102
}
330
13AA
100
AcDbSortentsTable
330
2
331
12E
  5
12E
331
142
  5
142
331
146
  5
146
331
138
  5
138
331
13C
  5
13C
331
136
  5
136
331
107
  5
107
331
123
  5
123
331
129
  5
129
331
12D
  5
12D
331
141
  5
141
331
127
  5
127
331
131
  5
131
331
145
  5
145
331
13B
  5
13B
331
135
  5
135
331
13F
  5
13F
331
106
  5
106
331
122
  5
122
331
128
  5
128
331
12C
  5
12C
331
140
  5
140
331
126
  5
126
331
130
  5
130
331
144
  5
144
331
13A
  5
13A
331
13E
  5
13E
331
105
  5
105
331
11F
  5
11F
331
121
  5
121
331
12B
  5
12B
331
125
  5
125
331
12F
  5
12F
331
143
  5
143
331
139
  5
139
331
13D
  5
13D
331
137
  5
137
331
11E
  5
11E
331
120
  5
120
331
12A
  5
12A
331
124
  5
124
  0
SORTENTSTABLE
  5
3F8C
102
{ACAD_REACTORS
330
3F8B
102
}
330
3F8B
100
AcDbSortentsTable
330
3F7C
  0
XRECORD
  5
402D
102
{ACAD_REACTORS
330
402C
102
}
330
402C
100
AcDbXrecord
280
     1
 70
     1
  0
XRECORD
  5
402F
102
{ACAD_REACTORS
330
402C
102
}
330
402C
100
AcDbXrecord
280
     1
340
22
  0
XRECORD
  5
4030
102
{ACAD_REACTORS
330
402C
102
}
330
402C
100
AcDbXrecord
280
     1
340
22
  0
XRECORD
  5
402E
102
{ACAD_REACTORS
330
402C
102
}
330
402C
100
AcDbXrecord
280
     1
340
22
  0
ACDBDETAILVIEWSTYLE
  5
3DB1
102
{ACAD_REACTORS
330
3DB0
102
}
330
3DB0
100
AcDbModelDocViewStyle
 70
     0
  3
Imperial24
290
     0
100
AcDbDetailViewStyle
 70
     0
 71
     0
 90
        3
 71
     1
340
1F
 40
0.24
340
0
 40
0.24
300

 40
0.36
280
     3
 71
     2
340
1B
 90
       25
 71
     3
340
1F
 40
0.24
 90
        1
 40
0.75
 90
        1
300
%<\AcVar ViewType \f "%tc1">% %<\AcVar ViewDetailId>%\PSCALE %<\AcVar ViewScale \f "%sn">%
 71
     4
340
1B
 90
       25
340
1B
 90
       25
280
     0
  0
LAYOUT
  5
B
102
{ACAD_XDICTIONARY
360
4033
102
}
102
{ACAD_REACTORS
330
6
102
}
330
6
100
AcDbPlotSettings
  1

  2
C:\Program Files\AutoCAD 2002\plotters\DWF ePlot (optimized for plotting).pc3
  4

  6

 40
0.0
 41
0.0
 42
0.0
 43
0.0
 44
0.0
 45
0.0
 46
0.0
 47
0.0
 48
0.0
 49
0.0
140
0.0
141
0.0
142
1.0
143
1.0
 70
   688
 72
     0
 73
     0
 74
     5
  7

 75
    16
147
1.0
148
0.0
149
0.0
100
AcDbLayout
  1
Layout1
 70
     1
 71
     1
 10
0.0
 20
0.0
 11
12.0
 21
9.0
 12
0.0
 22
0.0
 32
0.0
 14
1.000000000000000E+20
 24
1.000000000000000E+20
 34
1.000000000000000E+20
 15
-1.000000000000000E+20
 25
-1.000000000000000E+20
 35
-1.000000000000000E+20
146
0.0
 13
0.0
 23
0.0
 33
0.0
 16
1.0
 26
0.0
 36
0.0
 17
0.0
 27
1.0
 37
0.0
 76
     0
330
8
  0
LAYOUT
  5
5
102
{ACAD_XDICTIONARY
360
4031
102
}
102
{ACAD_REACTORS
330
6
102
}
330
6
100
AcDbPlotSettings
  1

  2
\\CTBDC\HP LJ P3005
  4
Letter
  6

 40
6.011333465576169
 41
4.233341693878172
 42
6.011322021484375
 43
4.23333740234375
 44
215.8999938964844
 45
279.3999938964844
 46
0.0
 47
0.0
 48
0.0
 49
0.0
140
0.0
141
0.0
142
1.0
143
0.7989588961438369
 70
 11952
 72
     0
 73
     1
 74
     1
  7

 75
     0
147
1.251628844520644
148
-565.1693495161531
149
130.1034077393789
100
AcDbLayout
  1
Model
 70
     1
 71
     0
 10
0.0
 20
0.0
 11
12.0
 21
9.0
 12
0.0
 22
0.0
 32
0.0
 14
0.0
 24
0.0
 34
0.0
 15
0.0
 25
0.0
 35
0.0
146
0.0
 13
0.0
 23
0.0
 33
0.0
 16
1.0
 26
0.0
 36
0.0
 17
0.0
 27
1.0
 37
0.0
 76
     0
330
2
331
27
1001
ACAD_PSEXT
1000
\\CTBDC\HP LJ P3005
1000
HP LaserJet P3005 PCL 6
1000
\\CTBDC
1000

1070
     0
  0
MATERIAL
  5
3B
102
{ACAD_XDICTIONARY
360
3C
102
}
102
{ACAD_REACTORS
330
13
102
}
330
13
100
AcDbMaterial
  1
ByBlock
 72
     0
 43
0.0208333333333333
 43
0.0
 43
0.0
 43
0.0
 43
0.0
 43
0.0208333333333333
 43
0.0
 43
0.0
 43
0.0
 43
0.0
 43
1.0
 43
0.0
 43
0.0
 43
0.0
 43
0.0
 43
1.0
 77
     0
 47
0.0208333333333333
 47
0.0
 47
0.0
 47
0.0
 47
0.0
 47
0.0208333333333333
 47
0.0
 47
0.0
 47
0.0
 47
0.0
 47
1.0
 47
0.0
 47
0.0
 47
0.0
 47
0.0
 47
1.0
171
     0
 49
0.0208333333333333
 49
0.0
 49
0.0
 49
0.0
 49
0.0
 49
0.0208333333333333
 49
0.0
 49
0.0
 49
0.0
 49
0.0
 49
1.0
 49
0.0
 49
0.0
 49
0.0
 49
0.0
 49
1.0
175
     0
142
0.0208333333333333
142
0.0
142
0.0
142
0.0
142
0.0
142
0.0208333333333333
142
0.0
142
0.0
142
0.0
142
0.0
142
1.0
142
0.0
142
0.0
142
0.0
142
0.0
142
1.0
179
     0
144
0.0208333333333333
144
0.0
144
0.0
144
0.0
144
0.0
144
0.0208333333333333
144
0.0
144
0.0
144
0.0
144
0.0
144
1.0
144
0.0
144
0.0
144
0.0
144
0.0
144
1.0
147
0.0208333333333333
147
0.0
147
0.0
147
0.0
147
0.0
147
0.0208333333333333
147
0.0
147
0.0
147
0.0
147
0.0
147
1.0
147
0.0
147
0.0
147
0.0
147
0.0
147
1.0
  0
MATERIAL
  5
33
102
{ACAD_XDICTIONARY
360
34
102
}
102
{ACAD_REACTORS
330
13
102
}
330
13
100
AcDbMaterial
  1
ByLayer
 72
     0
 43
0.0208333333333333
 43
0.0
 43
0.0
 43
0.0
 43
0.0
 43
0.0208333333333333
 43
0.0
 43
0.0
 43
0.0
 43
0.0
 43
1.0
 43
0.0
 43
0.0
 43
0.0
 43
0.0
 43
1.0
 77
     0
 47
0.0208333333333333
 47
0.0
 47
0.0
 47
0.0
 47
0.0
 47
0.0208333333333333
 47
0.0
 47
0.0
 47
0.0
 47
0.0
 47
1.0
 47
0.0
 47
0.0
 47
0.0
 47
0.0
 47
1.0
171
     0
 49
0.0208333333333333
 49
0.0
 49
0.0
 49
0.0
 49
0.0
 49
0.0208333333333333
 49
0.0
 49
0.0
 49
0.0
 49
0.0
 49
1.0
 49
0.0
 49
0.0
 49
0.0
 49
0.0
 49
1.0
175
     0
142
0.0208333333333333
142
0.0
142
0.0
142
0.0
142
0.0
142
0.0208333333333333
142
0.0
142
0.0
142
0.0
142
0.0
142
1.0
142
0.0
142
0.0
142
0.0
142
0.0
142
1.0
179
     0
144
0.0208333333333333
144
0.0
144
0.0
144
0.0
144
0.0
144
0.0208333333333333
144
0.0
144
0.0
144
0.0
144
0.0
144
1.0
144
0.0
144
0.0
144
0.0
144
0.0
144
1.0
147
0.0208333333333333
147
0.0
147
0.0
147
0.0
147
0.0
147
0.0208333333333333
147
0.0
147
0.0
147
0.0
147
0.0
147
1.0
147
0.0
147
0.0
147
0.0
147
0.0
147
1.0
  0
MATERIAL
  5
12
102
{ACAD_XDICTIONARY
360
14
102
}
102
{ACAD_REACTORS
330
13
102
}
330
13
100
AcDbMaterial
  1
Global
 72
     0
 43
0.0208333333333333
 43
0.0
 43
0.0
 43
0.0
 43
0.0
 43
0.0208333333333333
 43
0.0
 43
0.0
 43
0.0
 43
0.0
 43
1.0
 43
0.0
 43
0.0
 43
0.0
 43
0.0
 43
1.0
 77
     0
 47
0.0208333333333333
 47
0.0
 47
0.0
 47
0.0
 47
0.0
 47
0.0208333333333333
 47
0.0
 47
0.0
 47
0.0
 47
0.0
 47
1.0
 47
0.0
 47
0.0
 47
0.0
 47
0.0
 47
1.0
171
     0
 49
0.0208333333333333
 49
0.0
 49
0.0
 49
0.0
 49
0.0
 49
0.0208333333333333
 49
0.0
 49
0.0
 49
0.0
 49
0.0
 49
1.0
 49
0.0
 49
0.0
 49
0.0
 49
0.0
 49
1.0
175
     0
142
0.0208333333333333
142
0.0
142
0.0
142
0.0
142
0.0
142
0.0208333333333333
142
0.0
142
0.0
142
0.0
142
0.0
142
1.0
142
0.0
142
0.0
142
0.0
142
0.0
142
1.0
179
     0
144
0.0208333333333333
144
0.0
144
0.0
144
0.0
144
0.0
144
0.0208333333333333
144
0.0
144
0.0
144
0.0
144
0.0
144
1.0
144
0.0
144
0.0
144
0.0
144
0.0
144
1.0
147
0.0208333333333333
147
0.0
147
0.0
147
0.0
147
0.0
147
0.0208333333333333
147
0.0
147
0.0
147
0.0
147
0.0
147
1.0
147
0.0
147
0.0
147
0.0
147
0.0
147
1.0
  0
MLEADERSTYLE
  5
226
102
{ACAD_REACTORS
330
225
102
}
330
225
100
AcDbMLeaderStyle
170
     2
171
     1
172
     0
 90
        2
 40
0.0
 41
0.0
173
     1
 91
-1056964608
340
22
 92
       -2
290
     1
 42
0.09
291
     1
 43
0.36
  3
Standard
 44
0.18
300

342
1F
174
     1
178
     6
175
     1
176
     0
 93
-1056964608
 45
0.18
292
     0
297
     0
 46
0.18
 94
-1056964608
 47
1.0
 49
1.0
140
1.0
293
     1
141
0.0
294
     1
177
     0
142
1.0
295
     0
296
     0
143
0.125
1001
ACAD_MLEADERVER
1070
     2
  0
MLINESTYLE
  5
46
102
{ACAD_REACTORS
330
31
102
}
330
31
100
AcDbMlineStyle
  2
STANDARD
 70
     0
  3

 62
   256
 51
90.0
 52
90.0
 71
     2
 49
0.5
 62
   256
  6
BYLAYER
 49
-0.5
 62
   256
  6
BYLAYER
  0
PLOTSETTINGS
  5
17B5
102
{ACAD_XDICTIONARY
360
4056
102
}
102
{ACAD_REACTORS
330
32
102
}
330
32
100
AcDbPlotSettings
  1
Setup1
  2
hp officejet 6100 series
  4
Letter
  6

 40
7.143749713897705
 41
12.47774982452392
 42
7.14373779296875
 43
3.17498779296875
 44
215.8999938964844
 45
279.3999938964844
 46
14.74941625800695
 47
0.0
 48
0.0
 49
0.0
140
0.0
141
0.0
142
1.0
143
0.4181492849174182
 70
 11956
 72
     0
 73
     1
 74
     0
  7
acad.ctb
 75
     0
147
2.391490398453016
148
-12.99659194517617
149
-103.7097474628493
1001
ACAD_PSEXT
1000
hp officejet 6100 series
1000
hp officejet 6100 series
1000
USB001
1000

1070
     0
  0
ACDBPLACEHOLDER
  5
10
102
{ACAD_REACTORS
330
11
102
}
330
11
  0
SCALE
  5
4B
102
{ACAD_REACTORS
330
44
102
}
330
44
100
AcDbScale
 70
     0
300
1:1
140
1.0
141
1.0
290
     1
  0
SCALE
  5
4C
102
{ACAD_REACTORS
330
44
102
}
330
44
100
AcDbScale
 70
     0
300
1:2
140
1.0
141
2.0
290
     0
  0
SCALE
  5
4D
102
{ACAD_REACTORS
330
44
102
}
330
44
100
AcDbScale
 70
     0
300
1:4
140
1.0
141
4.0
290
     0
  0
SCALE
  5
4E
102
{ACAD_REACTORS
330
44
102
}
330
44
100
AcDbScale
 70
     0
300
1:5
140
1.0
141
5.0
290
     0
  0
SCALE
  5
4F
102
{ACAD_REACTORS
330
44
102
}
330
44
100
AcDbScale
 70
     0
300
1:8
140
1.0
141
8.0
290
     0
  0
SCALE
  5
50
102
{ACAD_REACTORS
330
44
102
}
330
44
100
AcDbScale
 70
     0
300
1:10
140
1.0
141
10.0
290
     0
  0
SCALE
  5
51
102
{ACAD_REACTORS
330
44
102
}
330
44
100
AcDbScale
 70
     0
300
1:16
140
1.0
141
16.0
290
     0
  0
SCALE
  5
52
102
{ACAD_REACTORS
330
44
102
}
330
44
100
AcDbScale
 70
     0
300
1:20
140
1.0
141
20.0
290
     0
  0
SCALE
  5
53
102
{ACAD_REACTORS
330
44
102
}
330
44
100
AcDbScale
 70
     0
300
1:30
140
1.0
141
30.0
290
     0
  0
SCALE
  5
54
102
{ACAD_REACTORS
330
44
102
}
330
44
100
AcDbScale
 70
     0
300
1:40
140
1.0
141
40.0
290
     0
  0
SCALE
  5
55
102
{ACAD_REACTORS
330
44
102
}
330
44
100
AcDbScale
 70
     0
300
1:50
140
1.0
141
50.0
290
     0
  0
SCALE
  5
56
102
{ACAD_REACTORS
330
44
102
}
330
44
100
AcDbScale
 70
     0
300
1:100
140
1.0
141
100.0
290
     0
  0
SCALE
  5
57
102
{ACAD_REACTORS
330
44
102
}
330
44
100
AcDbScale
 70
     0
300
2:1
140
2.0
141
1.0
290
     0
  0
SCALE
  5
58
102
{ACAD_REACTORS
330
44
102
}
330
44
100
AcDbScale
 70
     0
300
4:1
140
4.0
141
1.0
290
     0
  0
SCALE
  5
59
102
{ACAD_REACTORS
330
44
102
}
330
44
100
AcDbScale
 70
     0
300
8:1
140
8.0
141
1.0
290
     0
  0
SCALE
  5
5A
102
{ACAD_REACTORS
330
44
102
}
330
44
100
AcDbScale
 70
     0
300
10:1
140
10.0
141
1.0
290
     0
  0
SCALE
  5
5B
102
{ACAD_REACTORS
330
44
102
}
330
44
100
AcDbScale
 70
     0
300
100:1
140
100.0
141
1.0
290
     0
  0
SCALE
  5
5C
102
{ACAD_REACTORS
330
44
102
}
330
44
100
AcDbScale
 70
     0
300
1/128" = 1'-0"
140
0.0078125
141
12.0
290
     0
  0
SCALE
  5
5D
102
{ACAD_REACTORS
330
44
102
}
330
44
100
AcDbScale
 70
     0
300
1/64" = 1'-0"
140
0.015625
141
12.0
290
     0
  0
SCALE
  5
5E
102
{ACAD_REACTORS
330
44
102
}
330
44
100
AcDbScale
 70
     0
300
1/32" = 1'-0"
140
0.03125
141
12.0
290
     0
  0
SCALE
  5
5F
102
{ACAD_REACTORS
330
44
102
}
330
44
100
AcDbScale
 70
     0
300
1/16" = 1'-0"
140
0.0625
141
12.0
290
     0
  0
SCALE
  5
60
102
{ACAD_REACTORS
330
44
102
}
330
44
100
AcDbScale
 70
     0
300
3/32" = 1'-0"
140
0.09375
141
12.0
290
     0
  0
SCALE
  5
61
102
{ACAD_REACTORS
330
44
102
}
330
44
100
AcDbScale
 70
     0
300
1/8" = 1'-0"
140
0.125
141
12.0
290
     0
  0
SCALE
  5
62
102
{ACAD_REACTORS
330
44
102
}
330
44
100
AcDbScale
 70
     0
300
3/16" = 1'-0"
140
0.1875
141
12.0
290
     0
  0
SCALE
  5
63
102
{ACAD_REACTORS
330
44
102
}
330
44
100
AcDbScale
 70
     0
300
1/4" = 1'-0"
140
0.25
141
12.0
290
     0
  0
SCALE
  5
64
102
{ACAD_REACTORS
330
44
102
}
330
44
100
AcDbScale
 70
     0
300
3/8" = 1'-0"
140
0.375
141
12.0
290
     0
  0
SCALE
  5
65
102
{ACAD_REACTORS
330
44
102
}
330
44
100
AcDbScale
 70
     0
300
1/2" = 1'-0"
140
0.5
141
12.0
290
     0
  0
SCALE
  5
66
102
{ACAD_REACTORS
330
44
102
}
330
44
100
AcDbScale
 70
     0
300
3/4" = 1'-0"
140
0.75
141
12.0
290
     0
  0
SCALE
  5
67
102
{ACAD_REACTORS
330
44
102
}
330
44
100
AcDbScale
 70
     0
300
1" = 1'-0"
140
1.0
141
12.0
290
     0
  0
SCALE
  5
68
102
{ACAD_REACTORS
330
44
102
}
330
44
100
AcDbScale
 70
     0
300
1-1/2" = 1'-0"
140
1.5
141
12.0
290
     0
  0
SCALE
  5
69
102
{ACAD_REACTORS
330
44
102
}
330
44
100
AcDbScale
 70
     0
300
3" = 1'-0"
140
3.0
141
12.0
290
     0
  0
SCALE
  5
6A
102
{ACAD_REACTORS
330
44
102
}
330
44
100
AcDbScale
 70
     0
300
6" = 1'-0"
140
6.0
141
12.0
290
     0
  0
SCALE
  5
6B
102
{ACAD_REACTORS
330
44
102
}
330
44
100
AcDbScale
 70
     0
300
1'-0" = 1'-0"
140
12.0
141
12.0
290
     0
  0
ACDBSECTIONVIEWSTYLE
  5
3DAF
102
{ACAD_REACTORS
330
3DAE
102
}
330
3DAE
100
AcDbModelDocViewStyle
 70
     0
  3
Imperial24
290
     0
100
AcDbSectionViewStyle
 70
     0
 71
     0
 90
       78
 71
     1
340
1F
 40
0.24
340
0
340
0
 40
0.24
300
I, O, Q, S, X, Z
 40
0.48
 90
        3
 40
0.18
 90
        1
 71
     2
340
292E
 90
       25
340
1B
 90
       50
 40
0.24
 40
0.0
 40
0.24
 71
     3
340
1F
 40
0.24
 90
        1
 40
0.75
 90
        1
300
%<\AcVar ViewType \f "%tc1">% %<\AcVar ViewSectionStartId>%-%<\AcVar ViewSectionEndId>%\PSCALE %<\AcVar ViewScale \f "%sn">%
 71
     4
300
ANSI31
 40
1.0
 90
        0
290
     0
290
     0
 90
        6
 40
0.0
 40
1.570796326794896
 40
0.2617993877991494
 40
1.308996938995747
 40
-0.2617993877991494
 40
1.832595714594044
  0
TABLESTYLE
  5
47
102
{ACAD_XDICTIONARY
360
48
102
}
102
{ACAD_REACTORS
330
45
102
}
330
45
100
AcDbTableStyle
  3
Standard
 70
     0
 71
     0
 40
0.06
 41
0.06
280
     0
281
     0
  7
Standard
140
0.18
170
     2
 62
     0
 63
     7
283
     0
274
    -2
284
     1
 64
     0
275
    -2
285
     1
 65
     0
276
    -2
286
     1
 66
     0
277
    -2
287
     1
 67
     0
278
    -2
288
     1
 68
     0
279
    -2
289
     1
 69
     0
  7
Standard
140
0.25
170
     5
 62
     0
 63
     7
283
     0
274
    -2
284
     1
 64
     0
275
    -2
285
     1
 65
     0
276
    -2
286
     1
 66
     0
277
    -2
287
     1
 67
     0
278
    -2
288
     1
 68
     0
279
    -2
289
     1
 69
     0
  7
Standard
140
0.18
170
     5
 62
     0
 63
     7
283
     0
274
    -2
284
     1
 64
     0
275
    -2
285
     1
 65
     0
276
    -2
286
     1
 66
     0
277
    -2
287
     1
 67
     0
278
    -2
288
     1
 68
     0
279
    -2
289
     1
 69
     0
  0
VISUALSTYLE
  5
28
102
{ACAD_XDICTIONARY
360
4035
102
}
102
{ACAD_REACTORS
330
29
102
}
330
29
100
AcDbVisualStyle
  2

 70
     4
 71
     0
 72
     2
 73
     0
 90
        0
 40
-0.6
 41
-30.0
 62
     5
 63
     7
 74
     1
 91
        4
 64
     7
 65
   257
 75
     1
175
     1
 42
1.0
 92
        0
 66
   257
 43
1.0
 76
     1
 77
     6
 78
     2
 67
     7
 79
     5
170
     0
171
     0
290
     0
174
     0
 93
        1
 44
0.0
173
     0
291
     0
 45
0.0
1001
ACAD
1000
AcDbSavedByObjectVersion
1070
     0
  0
VISUALSTYLE
  5
21D
102
{ACAD_XDICTIONARY
360
4046
102
}
102
{ACAD_REACTORS
330
29
102
}
330
29
100
AcDbVisualStyle
  2

 70
     6
 71
     1
 72
     2
 73
     2
 90
        0
 40
-0.6
 41
-30.0
 62
     5
 63
     7
 74
     2
 91
        2
 64
     7
 65
   257
 75
     2
175
     1
 42
40.0
 92
        0
 66
   257
 43
1.0
 76
     1
 77
     6
 78
     2
 67
     7
 79
     3
170
     0
171
     0
290
     0
174
     0
 93
        1
 44
0.0
173
     0
291
     0
 45
0.0
1001
ACAD
1000
AcDbSavedByObjectVersion
1070
     0
  0
VISUALSTYLE
  5
4A
102
{ACAD_XDICTIONARY
360
403A
102
}
102
{ACAD_REACTORS
330
29
102
}
330
29
100
AcDbVisualStyle
  2

 70
     5
 71
     0
 72
     2
 73
     0
 90
        0
 40
-0.6
 41
-30.0
 62
     5
 63
     7
 74
     1
 91
        4
 64
     7
 65
   257
 75
     1
175
     1
 42
1.0
 92
        0
 66
   257
 43
1.0
 76
     1
 77
     6
 78
     2
 67
     7
 79
     5
170
     0
171
     0
290
     0
174
     0
 93
        1
 44
0.0
173
     0
291
     0
 45
0.0
1001
ACAD
1000
AcDbSavedByObjectVersion
1070
     0
  0
VISUALSTYLE
  5
21C
102
{ACAD_XDICTIONARY
360
4044
102
}
102
{ACAD_REACTORS
330
29
102
}
330
29
100
AcDbVisualStyle
  2

 70
     7
 71
     1
 72
     0
 73
     1
 90
        0
 40
-0.6
 41
-30.0
 62
     5
 63
     7
 74
     0
 91
        4
 64
     7
 65
   257
 75
     1
175
     1
 42
1.0
 92
        8
 66
     7
 43
1.0
 76
     1
 77
     6
 78
     2
 67
     7
 79
     5
170
     0
171
     0
290
     0
174
     0
 93
        1
 44
0.0
173
     0
291
     1
 45
0.0
1001
ACAD
1000
AcDbSavedByObjectVersion
1070
     0
  0
VISUALSTYLE
  5
220
102
{ACAD_XDICTIONARY
360
404C
102
}
102
{ACAD_REACTORS
330
29
102
}
330
29
100
AcDbVisualStyle
  2

 70
    12
 71
     2
 72
     2
 73
     0
 90
        0
 40
-0.6
 41
-30.0
 62
     5
 63
     7
 74
     1
 91
        4
 64
     7
 65
   257
 75
     1
175
     1
 42
1.0
 92
        8
 66
     7
 43
1.0
 76
     1
 77
     6
 78
     2
 67
     7
 79
     5
170
     0
171
     0
290
     0
174
     0
 93
        1
 44
50.0
173
     0
291
     1
 45
0.0
1001
ACAD
1000
AcDbSavedByObjectVersion
1070
     0
  0
VISUALSTYLE
  5
224
102
{ACAD_XDICTIONARY
360
4054
102
}
102
{ACAD_REACTORS
330
29
102
}
330
29
100
AcDbVisualStyle
  2

 70
    16
 71
     2
 72
     2
 73
     3
 90
        0
 40
-0.6
 41
-30.0
 62
     5
 63
     8
 74
     1
 91
        4
 64
     7
 65
   257
 75
     1
175
     1
 42
1.0
 92
        8
 66
     8
 43
1.0
 76
     1
 77
     6
 78
     2
 67
     7
 79
     5
170
     0
171
     0
290
     0
174
     0
 93
        1
 44
0.0
173
     0
291
     1
 45
0.0
1001
ACAD
1000
AcDbSavedByObjectVersion
1070
     0
  0
VISUALSTYLE
  5
21E
102
{ACAD_XDICTIONARY
360
4048
102
}
102
{ACAD_REACTORS
330
29
102
}
330
29
100
AcDbVisualStyle
  2

 70
     9
 71
     3
 72
     2
 73
     0
 90
        0
 40
-0.6
 41
-30.0
 62
     5
 63
     7
 74
     2
 91
        2
 64
     7
 65
   257
 75
     1
175
     1
 42
40.0
 92
        8
 66
     7
 43
1.0
 76
     1
 77
     6
 78
     2
 67
     7
 79
     3
170
     0
171
     0
290
     0
174
     0
 93
        1
 44
0.0
173
     0
291
     0
 45
0.0
1001
ACAD
1000
AcDbSavedByObjectVersion
1070
     0
  0
VISUALSTYLE
  5
21F
102
{ACAD_XDICTIONARY
360
404A
102
}
102
{ACAD_REACTORS
330
29
102
}
330
29
100
AcDbVisualStyle
  2

 70
    11
 71
     2
 72
     2
 73
     0
 90
        0
 40
-0.6
 41
-30.0
 62
     5
 63
     7
 74
     1
 91
        4
 64
     7
 65
   257
 75
     1
175
     1
 42
1.0
 92
        8
 66
     7
 43
1.0
 76
     1
 77
     6
 78
     2
 67
     7
 79
     5
170
     0
171
     0
290
     0
174
     0
 93
        1
 44
-50.0
173
     0
291
     1
 45
0.0
1001
ACAD
1000
AcDbSavedByObjectVersion
1070
     0
  0
VISUALSTYLE
  5
21B0
102
{ACAD_XDICTIONARY
360
405C
102
}
102
{ACAD_REACTORS
330
29
102
}
330
29
100
AcDbVisualStyle
  2

 70
    22
 71
     2
 72
     2
 73
     0
 90
        0
 40
-0.6
 41
-30.0
 62
     5
 63
     7
 74
     1
 91
        4
 64
     7
 65
   257
 75
     1
175
     1
 42
1.0
 92
        8
 66
     7
 43
1.0
 76
     1
 77
     6
 78
     2
 67
     7
 79
     5
170
     0
171
     0
290
     0
174
     0
 93
        1
 44
0.0
173
     0
291
     1
 45
0.0
1001
ACAD
1000
AcDbSavedByObjectVersion
1070
     0
  0
VISUALSTYLE
  5
223
102
{ACAD_XDICTIONARY
360
4052
102
}
102
{ACAD_REACTORS
330
29
102
}
330
29
100
AcDbVisualStyle
  2

 70
    15
 71
     2
 72
     2
 73
     0
 90
        0
 40
-0.6
 41
-30.0
 62
     5
 63
     7
 74
     1
 91
        4
 64
     7
 65
   257
 75
     1
175
     1
 42
1.0
 92
        8
 66
     7
 43
1.0
 76
     1
 77
     6
 78
     2
 67
     7
 79
     5
170
     0
171
     0
290
     0
174
     0
 93
        1
 44
0.0
173
     0
291
     1
 45
0.0
1001
ACAD
1000
AcDbSavedByObjectVersion
1070
     0
  0
VISUALSTYLE
  5
218
102
{ACAD_XDICTIONARY
360
403C
102
}
102
{ACAD_REACTORS
330
29
102
}
330
29
100
AcDbVisualStyle
  2

 70
     0
 71
     2
 72
     1
 73
     1
 90
        2
 40
-0.6
 41
30.0
 62
     5
 63
     7
 74
     0
 91
        4
 64
     7
 65
   257
 75
     1
175
     1
 42
1.0
 92
        8
 66
     7
 43
1.0
 76
     1
 77
     6
 78
     2
 67
     7
 79
     5
170
     0
171
     0
290
     0
174
     0
 93
       13
 44
0.0
173
     0
291
     1
 45
0.0
1001
ACAD
1000
AcDbSavedByObjectVersion
1070
     0
  0
VISUALSTYLE
  5
219
102
{ACAD_XDICTIONARY
360
403E
102
}
102
{ACAD_REACTORS
330
29
102
}
330
29
100
AcDbVisualStyle
  2

 70
     1
 71
     2
 72
     1
 73
     1
 90
        2
 40
-0.6
 41
30.0
 62
     5
 63
     7
 74
     1
 91
        4
 64
     7
 65
   257
 75
     1
175
     1
 42
1.0
 92
        0
 66
   257
 43
1.0
 76
     1
 77
     6
 78
     2
 67
     7
 79
     5
170
     0
171
     0
290
     0
174
     0
 93
       13
 44
0.0
173
     0
291
     1
 45
0.0
1001
ACAD
1000
AcDbSavedByObjectVersion
1070
     0
  0
VISUALSTYLE
  5
21A
102
{ACAD_XDICTIONARY
360
4040
102
}
102
{ACAD_REACTORS
330
29
102
}
330
29
100
AcDbVisualStyle
  2

 70
     2
 71
     2
 72
     2
 73
     1
 90
        2
 40
-0.6
 41
30.0
 62
     5
 63
     7
 74
     0
 91
        4
 64
     7
 65
   257
 75
     1
175
     1
 42
1.0
 92
        0
 66
     7
 43
1.0
 76
     1
 77
     6
 78
     2
 67
     7
 79
     5
170
     0
171
     0
290
     0
174
     0
 93
       13
 44
0.0
173
     0
291
     1
 45
0.0
1001
ACAD
1000
AcDbSavedByObjectVersion
1070
     0
  0
VISUALSTYLE
  5
21B
102
{ACAD_XDICTIONARY
360
4042
102
}
102
{ACAD_REACTORS
330
29
102
}
330
29
100
AcDbVisualStyle
  2

 70
     3
 71
     2
 72
     2
 73
     1
 90
        2
 40
-0.6
 41
30.0
 62
     5
 63
     7
 74
     1
 91
        4
 64
     7
 65
   257
 75
     1
175
     1
 42
1.0
 92
        0
 66
   257
 43
1.0
 76
     1
 77
     6
 78
     2
 67
     7
 79
     5
170
     0
171
     0
290
     0
174
     0
 93
       13
 44
0.0
173
     0
291
     1
 45
0.0
1001
ACAD
1000
AcDbSavedByObjectVersion
1070
     0
  0
VISUALSTYLE
  5
28EC
102
{ACAD_XDICTIONARY
360
4060
102
}
102
{ACAD_REACTORS
330
29
102
}
330
29
100
AcDbVisualStyle
  2

 70
     6
 71
     1
 72
     2
 73
     2
 90
        0
 40
-0.6
 41
-30.0
 62
     5
 63
     7
 74
     2
 91
        2
 64
     7
 65
   257
 75
     2
175
     1
 42
40.0
 92
        0
 66
   257
 43
1.0
 76
     1
 77
     6
 78
     2
 67
     7
 79
     3
170
     0
171
     0
290
     0
174
     0
 93
        1
 44
0.0
173
     0
291
     0
 45
0.0
1001
ACAD
1000
AcDbSavedByObjectVersion
1070
     0
  0
VISUALSTYLE
  5
21AE
102
{ACAD_XDICTIONARY
360
4058
102
}
102
{ACAD_REACTORS
330
29
102
}
330
29
100
AcDbVisualStyle
  2

 70
    20
 71
     2
 72
     2
 73
     0
 90
        0
 40
-0.6
 41
-30.0
 62
     5
 63
     7
 74
     1
 91
        4
 64
     7
 65
   257
 75
     1
175
     1
 42
1.0
 92
       10
 66
     7
 43
1.0
 76
     1
 77
     6
 78
     2
 67
     7
 79
     5
170
     0
171
     0
290
     0
174
     0
 93
        1
 44
0.0
173
     0
291
     1
 45
0.0
1001
ACAD
1000
AcDbSavedByObjectVersion
1070
     0
  0
VISUALSTYLE
  5
222
102
{ACAD_XDICTIONARY
360
4050
102
}
102
{ACAD_REACTORS
330
29
102
}
330
29
100
AcDbVisualStyle
  2

 70
    14
 71
     2
 72
     2
 73
     0
 90
        0
 40
-0.6
 41
-30.0
 62
     5
 63
     7
 74
     1
 91
        4
 64
     7
 65
   257
 75
     7
175
     7
 42
1.0
 92
        8
 66
     7
 43
1.0
 76
     1
 77
     6
 78
     2
 67
     7
 79
     5
170
     0
171
     0
290
     0
174
     0
 93
        1
 44
0.0
173
     0
291
     1
 45
0.0
1001
ACAD
1000
AcDbSavedByObjectVersion
1070
     0
  0
VISUALSTYLE
  5
21AF
102
{ACAD_XDICTIONARY
360
405A
102
}
102
{ACAD_REACTORS
330
29
102
}
330
29
100
AcDbVisualStyle
  2

 70
    21
 71
     2
 72
     2
 73
     0
 90
        0
 40
-0.6
 41
-30.0
 62
     5
 63
     7
 74
     1
 91
        4
 64
     7
 65
   257
 75
     1
175
     1
 42
1.0
 92
        9
 66
     7
 43
1.0
 76
     1
 77
     6
 78
     2
 67
     7
 79
     5
170
     0
171
     0
290
     0
174
     0
 93
        1
 44
0.0
173
     0
291
     1
 45
0.0
1001
ACAD
1000
AcDbSavedByObjectVersion
1070
     0
  0
VISUALSTYLE
  5
49
102
{ACAD_XDICTIONARY
360
4038
102
}
102
{ACAD_REACTORS
330
29
102
}
330
29
100
AcDbVisualStyle
  2

 70
     8
 71
     2
 72
     2
 73
     0
 90
        0
 40
-0.6
 41
-30.0
 62
     5
 63
     7
 74
     1
 91
        0
 64
     7
 65
   257
 75
     1
175
     1
 42
1.0
 92
        8
 66
     8
 43
1.0
 76
     1
 77
     6
 78
     2
 67
     7
 79
     5
170
     0
171
     0
290
     0
174
     0
 93
       13
 44
0.0
173
     0
291
     0
 45
0.0
1001
ACAD
1000
AcDbSavedByObjectVersion
1070
     0
  0
VISUALSTYLE
  5
28F1
102
{ACAD_XDICTIONARY
360
406A
102
}
102
{ACAD_REACTORS
330
29
102
}
330
29
100
AcDbVisualStyle
  2

 70
    27
 71
     2
 72
     2
 73
     1
 90
        2
 40
-0.6
 41
30.0
 62
     5
 63
     7
 74
     0
 91
        4
 64
     7
 65
   257
 75
     1
175
     1
 42
1.0
 92
        8
 66
   257
 43
1.0
 76
     1
 77
     6
 78
     2
 67
     8
 79
     3
170
     0
171
     0
290
     0
174
     0
 93
        5
 44
0.0
173
     0
291
     0
 45
0.0
1001
ACAD
1000
AcDbSavedByObjectVersion
1070
     0
  0
VISUALSTYLE
  5
28F0
102
{ACAD_XDICTIONARY
360
4068
102
}
102
{ACAD_REACTORS
330
29
102
}
330
29
100
AcDbVisualStyle
  2

 70
    26
 71
     2
 72
     2
 73
     1
 90
        2
 40
-0.6
 41
30.0
 62
     5
 63
     7
 74
     1
 91
       10
 64
     7
 65
   257
 75
     2
175
     1
 42
1.0
 92
        8
 66
   257
 43
1.0
 76
     1
 77
     6
 78
     2
 67
     7
 79
     3
170
     0
171
     0
290
     0
174
     0
 93
        5
 44
0.0
173
     0
291
     0
 45
0.0
1001
ACAD
1000
AcDbSavedByObjectVersion
1070
     0
  0
VISUALSTYLE
  5
28ED
102
{ACAD_XDICTIONARY
360
4062
102
}
102
{ACAD_REACTORS
330
29
102
}
330
29
100
AcDbVisualStyle
  2

 70
    23
 71
     2
 72
     2
 73
     3
 90
        0
 40
-0.6
 41
-30.0
 62
     5
 63
     7
 74
     2
 91
        2
 64
     7
 65
     7
 75
     1
175
     1
 42
40.0
 92
        8
 66
     7
 43
1.0
 76
     1
 77
     6
 78
     2
 67
     7
 79
     3
170
     0
171
     0
290
     0
174
     0
 93
        1
 44
0.0
173
     0
291
     0
 45
0.0
1001
ACAD
1000
AcDbSavedByObjectVersion
1070
     0
  0
VISUALSTYLE
  5
28EE
102
{ACAD_XDICTIONARY
360
4064
102
}
102
{ACAD_REACTORS
330
29
102
}
330
29
100
AcDbVisualStyle
  2

 70
    24
 71
     1
 72
     2
 73
     2
 90
        0
 40
-0.6
 41
-30.0
 62
     5
 63
     7
 74
     2
 91
        2
 64
     7
 65
     7
 75
     1
175
     1
 42
40.0
 92
       11
 66
     7
 43
1.0
 76
     1
 77
     6
 78
     2
 67
     7
 79
     6
170
     0
171
     0
290
     0
174
     0
 93
        1
 44
0.0
173
     0
291
     0
 45
0.0
1001
ACAD
1000
AcDbSavedByObjectVersion
1070
     0
  0
VISUALSTYLE
  5
221
102
{ACAD_XDICTIONARY
360
404E
102
}
102
{ACAD_REACTORS
330
29
102
}
330
29
100
AcDbVisualStyle
  2

 70
    13
 71
     2
 72
     2
 73
     0
 90
        0
 40
-0.6
 41
-30.0
 62
     5
 63
     7
 74
     1
 91
        4
 64
     7
 65
   257
 75
     1
175
     1
 42
1.0
 92
       12
 66
     7
 43
1.0
 76
     1
 77
     6
 78
     2
 67
     7
 79
     5
170
     0
171
     0
290
     0
174
     0
 93
        1
 44
0.0
173
     0
291
     1
 45
0.0
1001
ACAD
1000
AcDbSavedByObjectVersion
1070
     0
  0
VISUALSTYLE
  5
28EB
102
{ACAD_XDICTIONARY
360
405E
102
}
102
{ACAD_REACTORS
330
29
102
}
330
29
100
AcDbVisualStyle
  2

 70
     5
 71
     0
 72
     2
 73
     0
 90
        0
 40
-0.6
 41
-30.0
 62
     5
 63
     7
 74
     1
 91
        4
 64
     7
 65
   257
 75
     1
175
     1
 42
1.0
 92
        0
 66
   257
 43
1.0
 76
     1
 77
     6
 78
     2
 67
     7
 79
     3
170
     0
171
     0
290
     0
174
     0
 93
        1
 44
0.0
173
     0
291
     0
 45
0.0
1001
ACAD
1000
AcDbSavedByObjectVersion
1070
     0
  0
VISUALSTYLE
  5
28EF
102
{ACAD_XDICTIONARY
360
4066
102
}
102
{ACAD_REACTORS
330
29
102
}
330
29
100
AcDbVisualStyle
  2

 70
    25
 71
     2
 72
     2
 73
     1
 90
        1
 40
0.5
 41
-30.0
 62
     5
 63
     7
 74
     1
 91
        0
 64
     7
 65
   257
 75
     1
175
     1
 42
1.0
 92
        8
 66
     7
 43
1.0
 76
     1
 77
     6
 78
     2
 67
     7
 79
     3
170
     0
171
     0
290
     0
174
     0
 93
       13
 44
0.0
173
     0
291
     0
 45
0.0
1001
ACAD
1000
AcDbSavedByObjectVersion
1070
     0
  0
DICTIONARYVAR
  5
215
102
{ACAD_REACTORS
330
212
102
}
330
212
100
DictionaryVariables
280
     0
  1
1:1
  0
DICTIONARYVAR
  5
214
102
{ACAD_REACTORS
330
212
102
}
330
212
100
DictionaryVariables
280
     0
  1
STANDARD
  0
DICTIONARYVAR
  5
213
102
{ACAD_REACTORS
330
212
102
}
330
212
100
DictionaryVariables
280
     0
  1
STANDARD
  0
DICTIONARYVAR
  5
3E01
102
{ACAD_REACTORS
330
212
102
}
330
212
100
DictionaryVariables
280
     0
  1
Imperial24
  0
DICTIONARYVAR
  5
3E02
102
{ACAD_REACTORS
330
212
102
}
330
212
100
DictionaryVariables
280
     0
  1
Imperial24
  0
DICTIONARYVAR
  5
2EC
102
{ACAD_REACTORS
330
212
102
}
330
212
100
DictionaryVariables
280
     0
  1
2
  0
DICTIONARYVAR
  5
2EB
102
{ACAD_REACTORS
330
212
102
}
330
212
100
DictionaryVariables
280
     0
  1
1
  0
DICTIONARYVAR
  5
2EA
102
{ACAD_REACTORS
330
212
102
}
330
212
100
DictionaryVariables
280
     0
  1
0
  0
DICTIONARYVAR
  5
216
102
{ACAD_REACTORS
330
212
102
}
330
212
100
DictionaryVariables
280
     0
  1
0
  0
DICTIONARYVAR
  5
2E8
102
{ACAD_REACTORS
330
212
102
}
330
212
100
DictionaryVariables
280
     0
  1
1
  0
DICTIONARYVAR
  5
2E9
102
{ACAD_REACTORS
330
212
102
}
330
212
100
DictionaryVariables
280
     0
  1
127
  0
DICTIONARYVAR
  5
4028
102
{ACAD_REACTORS
330
212
102
}
330
212
100
DictionaryVariables
280
     0
  1
2
  0
DICTIONARY
  5
1BA
102
{ACAD_REACTORS
330
1B9
102
}
330
1B9
100
AcDbDictionary
281
     1
  0
XRECORD
  5
25B
102
{ACAD_REACTORS
330
1B9
102
}
330
1B9
100
AcDbXrecord
280
     1
 90
-1023410169
  0
XRECORD
  5
2889
102
{ACAD_XDICTIONARY
360
288A
102
}
102
{ACAD_REACTORS
330
1D
102
}
330
1D
100
AcDbXrecord
280
     1
 91
     1023
301

290
     0
302
PCB_TOP
330
6F
 90
        8
 62
    82
370
    -3
331
1B
  1
Color_82
330
BF
 90
        8
 62
     1
370
    -3
331
1B
  1
Color_1
330
108
 90
        8
 62
   142
370
    -3
331
1B
  1
Color_142
330
117
 90
        8
 62
     1
370
    -3
331
1B
  1
Color_1
330
10C
 90
        8
 62
     5
370
    -3
331
1B
  1
Color_5
330
7E
 90
        0
 62
     7
370
    -3
331
1B
  1
Color_7
330
98
 90
        8
 62
     3
370
    -3
331
1B
  1
Color_3
330
94
 90
        8
 62
     5
370
    -3
331
1B
  1
Color_5
330
D
 90
        8
 62
     7
370
    -3
331
1B
  1
Color_7
  0
DICTIONARY
  5
4033
330
B
100
AcDbDictionary
280
     1
281
     1
  3
ACAD_XREC_ROUNDTRIP
360
4034
  0
DICTIONARY
  5
4031
330
5
100
AcDbDictionary
280
     1
281
     1
  3
ACAD_XREC_ROUNDTRIP
360
4032
  0
DICTIONARY
  5
3C
330
3B
100
AcDbDictionary
280
     1
281
     1
  3
ACAD_XREC_ROUNDTRIP
360
3E14
  3
BUMPTILE
360
3D
  3
DIFFUSETILE
360
3E
  3
OPACITYTILE
360
3F
  3
REFLECTIONTILE
360
40
  3
REFRACTIONTILE
360
41
  3
SPECULARTILE
360
42
  0
DICTIONARY
  5
34
330
33
100
AcDbDictionary
280
     1
281
     1
  3
ACAD_XREC_ROUNDTRIP
360
3E13
  3
BUMPTILE
360
35
  3
DIFFUSETILE
360
36
  3
OPACITYTILE
360
37
  3
REFLECTIONTILE
360
38
  3
REFRACTIONTILE
360
39
  3
SPECULARTILE
360
3A
  0
DICTIONARY
  5
14
330
12
100
AcDbDictionary
280
     1
281
     1
  3
ACAD_XREC_ROUNDTRIP
360
3E10
  3
BUMPTILE
360
15
  3
DIFFUSETILE
360
16
  3
OPACITYTILE
360
17
  3
REFLECTIONTILE
360
18
  3
REFRACTIONTILE
360
19
  3
SPECULARTILE
360
1A
  0
DICTIONARY
  5
4056
330
17B5
100
AcDbDictionary
280
     1
281
     1
  3
ACAD_XREC_ROUNDTRIP
360
4057
  0
DICTIONARY
  5
48
330
47
100
AcDbDictionary
280
     1
281
     1
  3
ACAD_ROUNDTRIP_2008_TABLESTYLE_CELLSTYLEMAP
360
4029
  3
ACAD_XREC_ROUNDTRIP
360
4037
  0
DICTIONARY
  5
4035
330
28
100
AcDbDictionary
280
     1
281
     1
  3
ACAD_XREC_ROUNDTRIP
360
4036
  0
DICTIONARY
  5
4046
330
21D
100
AcDbDictionary
280
     1
281
     1
  3
ACAD_XREC_ROUNDTRIP
360
4047
  0
DICTIONARY
  5
403A
330
4A
100
AcDbDictionary
280
     1
281
     1
  3
ACAD_XREC_ROUNDTRIP
360
403B
  0
DICTIONARY
  5
4044
330
21C
100
AcDbDictionary
280
     1
281
     1
  3
ACAD_XREC_ROUNDTRIP
360
4045
  0
DICTIONARY
  5
404C
330
220
100
AcDbDictionary
280
     1
281
     1
  3
ACAD_XREC_ROUNDTRIP
360
404D
  0
DICTIONARY
  5
4054
330
224
100
AcDbDictionary
280
     1
281
     1
  3
ACAD_XREC_ROUNDTRIP
360
4055
  0
DICTIONARY
  5
4048
330
21E
100
AcDbDictionary
280
     1
281
     1
  3
ACAD_XREC_ROUNDTRIP
360
4049
  0
DICTIONARY
  5
404A
330
21F
100
AcDbDictionary
280
     1
281
     1
  3
ACAD_XREC_ROUNDTRIP
360
404B
  0
DICTIONARY
  5
405C
330
21B0
100
AcDbDictionary
280
     1
281
     1
  3
ACAD_XREC_ROUNDTRIP
360
405D
  0
DICTIONARY
  5
4052
330
223
100
AcDbDictionary
280
     1
281
     1
  3
ACAD_XREC_ROUNDTRIP
360
4053
  0
DICTIONARY
  5
403C
330
218
100
AcDbDictionary
280
     1
281
     1
  3
ACAD_XREC_ROUNDTRIP
360
403D
  0
DICTIONARY
  5
403E
330
219
100
AcDbDictionary
280
     1
281
     1
  3
ACAD_XREC_ROUNDTRIP
360
403F
  0
DICTIONARY
  5
4040
330
21A
100
AcDbDictionary
280
     1
281
     1
  3
ACAD_XREC_ROUNDTRIP
360
4041
  0
DICTIONARY
  5
4042
330
21B
100
AcDbDictionary
280
     1
281
     1
  3
ACAD_XREC_ROUNDTRIP
360
4043
  0
DICTIONARY
  5
4060
330
28EC
100
AcDbDictionary
280
     1
281
     1
  3
ACAD_XREC_ROUNDTRIP
360
4061
  0
DICTIONARY
  5
4058
330
21AE
100
AcDbDictionary
280
     1
281
     1
  3
ACAD_XREC_ROUNDTRIP
360
4059
  0
DICTIONARY
  5
4050
330
222
100
AcDbDictionary
280
     1
281
     1
  3
ACAD_XREC_ROUNDTRIP
360
4051
  0
DICTIONARY
  5
405A
330
21AF
100
AcDbDictionary
280
     1
281
     1
  3
ACAD_XREC_ROUNDTRIP
360
405B
  0
DICTIONARY
  5
4038
330
49
100
AcDbDictionary
280
     1
281
     1
  3
ACAD_XREC_ROUNDTRIP
360
4039
  0
DICTIONARY
  5
406A
330
28F1
100
AcDbDictionary
280
     1
281
     1
  3
ACAD_XREC_ROUNDTRIP
360
406B
  0
DICTIONARY
  5
4068
330
28F0
100
AcDbDictionary
280
     1
281
     1
  3
ACAD_XREC_ROUNDTRIP
360
4069
  0
DICTIONARY
  5
4062
330
28ED
100
AcDbDictionary
280
     1
281
     1
  3
ACAD_XREC_ROUNDTRIP
360
4063
  0
DICTIONARY
  5
4064
330
28EE
100
AcDbDictionary
280
     1
281
     1
  3
ACAD_XREC_ROUNDTRIP
360
4065
  0
DICTIONARY
  5
404E
330
221
100
AcDbDictionary
280
     1
281
     1
  3
ACAD_XREC_ROUNDTRIP
360
404F
  0
DICTIONARY
  5
405E
330
28EB
100
AcDbDictionary
280
     1
281
     1
  3
ACAD_XREC_ROUNDTRIP
360
405F
  0
DICTIONARY
  5
4066
330
28EF
100
AcDbDictionary
280
     1
281
     1
  3
ACAD_XREC_ROUNDTRIP
360
4067
  0
DICTIONARY
  5
288A
330
2889
100
AcDbDictionary
280
     1
281
     1
  3
AcadLayerStateAnnoScale
360
288B
  0
XRECORD
  5
4034
102
{ACAD_REACTORS
330
4033
102
}
330
4033
100
AcDbXrecord
280
     1
102
SHADEPLOT
 70
     0
102
SHADEPLOTRESLEVEL
 70
     2
102
SHADEPLOTCUSTOMDPI
 70
   300
  0
XRECORD
  5
4032
102
{ACAD_REACTORS
330
4031
102
}
330
4031
100
AcDbXrecord
280
     1
102
SHADEPLOT
 70
     0
102
SHADEPLOTRESLEVEL
 70
     2
102
SHADEPLOTCUSTOMDPI
 70
   300
  0
XRECORD
  5
3E14
102
{ACAD_REACTORS
330
3C
102
}
330
3C
100
AcDbXrecord
280
     1
102
MATERIAL
148
0.0
149
0.0
149
0.0
 93
        0
 94
      127
282
     0
 72
     0
 77
     0
171
     0
175
     0
179
     0
273
     0
  0
XRECORD
  5
3D
102
{ACAD_REACTORS
330
3C
102
}
330
3C
100
AcDbXrecord
280
     1
270
     1
271
     1
  0
XRECORD
  5
3E
102
{ACAD_REACTORS
330
3C
102
}
330
3C
100
AcDbXrecord
280
     1
270
     1
271
     1
  0
XRECORD
  5
3F
102
{ACAD_REACTORS
330
3C
102
}
330
3C
100
AcDbXrecord
280
     1
270
     1
271
     1
  0
XRECORD
  5
40
102
{ACAD_REACTORS
330
3C
102
}
330
3C
100
AcDbXrecord
280
     1
270
     1
271
     1
  0
XRECORD
  5
41
102
{ACAD_REACTORS
330
3C
102
}
330
3C
100
AcDbXrecord
280
     1
270
     1
271
     1
  0
XRECORD
  5
42
102
{ACAD_REACTORS
330
3C
102
}
330
3C
100
AcDbXrecord
280
     1
270
     1
271
     1
  0
XRECORD
  5
3E13
102
{ACAD_REACTORS
330
34
102
}
330
34
100
AcDbXrecord
280
     1
102
MATERIAL
148
0.0
149
0.0
149
0.0
 93
        0
 94
      127
282
     0
 72
     0
 77
     0
171
     0
175
     0
179
     0
273
     0
  0
XRECORD
  5
35
102
{ACAD_REACTORS
330
34
102
}
330
34
100
AcDbXrecord
280
     1
270
     1
271
     1
  0
XRECORD
  5
36
102
{ACAD_REACTORS
330
34
102
}
330
34
100
AcDbXrecord
280
     1
270
     1
271
     1
  0
XRECORD
  5
37
102
{ACAD_REACTORS
330
34
102
}
330
34
100
AcDbXrecord
280
     1
270
     1
271
     1
  0
XRECORD
  5
38
102
{ACAD_REACTORS
330
34
102
}
330
34
100
AcDbXrecord
280
     1
270
     1
271
     1
  0
XRECORD
  5
39
102
{ACAD_REACTORS
330
34
102
}
330
34
100
AcDbXrecord
280
     1
270
     1
271
     1
  0
XRECORD
  5
3A
102
{ACAD_REACTORS
330
34
102
}
330
34
100
AcDbXrecord
280
     1
270
     1
271
     1
  0
XRECORD
  5
3E10
102
{ACAD_REACTORS
330
14
102
}
330
14
100
AcDbXrecord
280
     1
102
MATERIAL
148
0.0
149
0.0
149
0.0
 93
        0
 94
      127
282
     0
 72
     0
 77
     0
171
     0
175
     0
179
     0
273
     0
  0
XRECORD
  5
15
102
{ACAD_REACTORS
330
14
102
}
330
14
100
AcDbXrecord
280
     1
270
     1
271
     1
  0
XRECORD
  5
16
102
{ACAD_REACTORS
330
14
102
}
330
14
100
AcDbXrecord
280
     1
270
     1
271
     1
  0
XRECORD
  5
17
102
{ACAD_REACTORS
330
14
102
}
330
14
100
AcDbXrecord
280
     1
270
     1
271
     1
  0
XRECORD
  5
18
102
{ACAD_REACTORS
330
14
102
}
330
14
100
AcDbXrecord
280
     1
270
     1
271
     1
  0
XRECORD
  5
19
102
{ACAD_REACTORS
330
14
102
}
330
14
100
AcDbXrecord
280
     1
270
     1
271
     1
  0
XRECORD
  5
1A
102
{ACAD_REACTORS
330
14
102
}
330
14
100
AcDbXrecord
280
     1
270
     1
271
     1
  0
XRECORD
  5
4057
102
{ACAD_REACTORS
330
4056
102
}
330
4056
100
AcDbXrecord
280
     1
102
SHADEPLOT
 70
     0
102
SHADEPLOTRESLEVEL
 70
     2
102
SHADEPLOTCUSTOMDPI
 70
   300
  0
CELLSTYLEMAP
  5
4029
102
{ACAD_REACTORS
330
48
102
}
330
48
100
AcDbCellStyleMap
 90
        3
300
CELLSTYLE
  1
TABLEFORMAT_BEGIN
 90
        5
170
     1
 91
        0
 92
    32768
 62
   257
 93
        1
300
CONTENTFORMAT
  1
CONTENTFORMAT_BEGIN
 90
        0
 91
        0
 92
      512
 93
        0
300

 40
0.0
140
1.0
 94
        5
 62
     0
340
1F
144
0.25
309
CONTENTFORMAT_END
171
     1
301
MARGIN
  1
CELLMARGIN_BEGIN
 40
0.06
 40
0.06
 40
0.06
 40
0.06
 40
0.18
 40
0.18
309
CELLMARGIN_END
 94
        6
 95
        1
302
GRIDFORMAT
  1
GRIDFORMAT_BEGIN
 90
        0
 91
        1
 62
     0
 92
       -2
340
0
 93
        0
 40
0.045
309
GRIDFORMAT_END
 95
        2
302
GRIDFORMAT
  1
GRIDFORMAT_BEGIN
 90
        0
 91
        1
 62
     0
 92
       -2
340
0
 93
        0
 40
0.045
309
GRIDFORMAT_END
 95
        4
302
GRIDFORMAT
  1
GRIDFORMAT_BEGIN
 90
        0
 91
        1
 62
     0
 92
       -2
340
0
 93
        0
 40
0.045
309
GRIDFORMAT_END
 95
        8
302
GRIDFORMAT
  1
GRIDFORMAT_BEGIN
 90
        0
 91
        1
 62
     0
 92
       -2
340
0
 93
        0
 40
0.045
309
GRIDFORMAT_END
 95
       16
302
GRIDFORMAT
  1
GRIDFORMAT_BEGIN
 90
        0
 91
        1
 62
     0
 92
       -2
340
0
 93
        0
 40
0.045
309
GRIDFORMAT_END
 95
       32
302
GRIDFORMAT
  1
GRIDFORMAT_BEGIN
 90
        0
 91
        1
 62
     0
 92
       -2
340
0
 93
        0
 40
0.045
309
GRIDFORMAT_END
309
TABLEFORMAT_END
  1
CELLSTYLE_BEGIN
 90
        1
 91
        1
300
_TITLE
309
CELLSTYLE_END
300
CELLSTYLE
  1
TABLEFORMAT_BEGIN
 90
        5
170
     1
 91
        0
 92
        0
 62
   257
 93
        1
300
CONTENTFORMAT
  1
CONTENTFORMAT_BEGIN
 90
        0
 91
        0
 92
      512
 93
        0
300

 40
0.0
140
1.0
 94
        5
 62
     0
340
1F
144
0.18
309
CONTENTFORMAT_END
171
     1
301
MARGIN
  1
CELLMARGIN_BEGIN
 40
0.06
 40
0.06
 40
0.06
 40
0.06
 40
0.18
 40
0.18
309
CELLMARGIN_END
 94
        6
 95
        1
302
GRIDFORMAT
  1
GRIDFORMAT_BEGIN
 90
        0
 91
        1
 62
     0
 92
       -2
340
0
 93
        0
 40
0.045
309
GRIDFORMAT_END
 95
        2
302
GRIDFORMAT
  1
GRIDFORMAT_BEGIN
 90
        0
 91
        1
 62
     0
 92
       -2
340
0
 93
        0
 40
0.045
309
GRIDFORMAT_END
 95
        4
302
GRIDFORMAT
  1
GRIDFORMAT_BEGIN
 90
        0
 91
        1
 62
     0
 92
       -2
340
0
 93
        0
 40
0.045
309
GRIDFORMAT_END
 95
        8
302
GRIDFORMAT
  1
GRIDFORMAT_BEGIN
 90
        0
 91
        1
 62
     0
 92
       -2
340
0
 93
        0
 40
0.045
309
GRIDFORMAT_END
 95
       16
302
GRIDFORMAT
  1
GRIDFORMAT_BEGIN
 90
        0
 91
        1
 62
     0
 92
       -2
340
0
 93
        0
 40
0.045
309
GRIDFORMAT_END
 95
       32
302
GRIDFORMAT
  1
GRIDFORMAT_BEGIN
 90
        0
 91
        1
 62
     0
 92
       -2
340
0
 93
        0
 40
0.045
309
GRIDFORMAT_END
309
TABLEFORMAT_END
  1
CELLSTYLE_BEGIN
 90
        2
 91
        1
300
_HEADER
309
CELLSTYLE_END
300
CELLSTYLE
  1
TABLEFORMAT_BEGIN
 90
        5
170
     1
 91
        0
 92
        0
 62
   257
 93
        1
300
CONTENTFORMAT
  1
CONTENTFORMAT_BEGIN
 90
        0
 91
        0
 92
      512
 93
        0
300

 40
0.0
140
1.0
 94
        2
 62
     0
340
1F
144
0.18
309
CONTENTFORMAT_END
171
     1
301
MARGIN
  1
CELLMARGIN_BEGIN
 40
0.06
 40
0.06
 40
0.06
 40
0.06
 40
0.18
 40
0.18
309
CELLMARGIN_END
 94
        6
 95
        1
302
GRIDFORMAT
  1
GRIDFORMAT_BEGIN
 90
        0
 91
        1
 62
     0
 92
       -2
340
0
 93
        0
 40
0.045
309
GRIDFORMAT_END
 95
        2
302
GRIDFORMAT
  1
GRIDFORMAT_BEGIN
 90
        0
 91
        1
 62
     0
 92
       -2
340
0
 93
        0
 40
0.045
309
GRIDFORMAT_END
 95
        4
302
GRIDFORMAT
  1
GRIDFORMAT_BEGIN
 90
        0
 91
        1
 62
     0
 92
       -2
340
0
 93
        0
 40
0.045
309
GRIDFORMAT_END
 95
        8
302
GRIDFORMAT
  1
GRIDFORMAT_BEGIN
 90
        0
 91
        1
 62
     0
 92
       -2
340
0
 93
        0
 40
0.045
309
GRIDFORMAT_END
 95
       16
302
GRIDFORMAT
  1
GRIDFORMAT_BEGIN
 90
        0
 91
        1
 62
     0
 92
       -2
340
0
 93
        0
 40
0.045
309
GRIDFORMAT_END
 95
       32
302
GRIDFORMAT
  1
GRIDFORMAT_BEGIN
 90
        0
 91
        1
 62
     0
 92
       -2
340
0
 93
        0
 40
0.045
309
GRIDFORMAT_END
309
TABLEFORMAT_END
  1
CELLSTYLE_BEGIN
 90
        3
 91
        2
300
_DATA
309
CELLSTYLE_END
  0
XRECORD
  5
4037
102
{ACAD_REACTORS
330
48
102
}
330
48
100
AcDbXrecord
280
     1
102
ACAD_ROUNDTRIP_PRE2007_TABLESTYLE
 90
      512
 91
        0
  1

 92
      512
 93
        0
  2

 94
      512
 95
        0
  3

  0
XRECORD
  5
4036
102
{ACAD_REACTORS
330
4035
102
}
330
4035
100
AcDbXrecord
280
     1
102
RTVSPost2010Prop28
280
     1
102
RTVSPost2010PropOp28
 70
     1
102
RTVSPost2010Prop29
280
     1
102
RTVSPost2010PropOp29
 70
     1
102
RTVSPost2010Prop30
280
     0
102
RTVSPost2010PropOp30
 70
     1
102
RTVSPost2010Prop31
280
     0
102
RTVSPost2010PropOp31
 70
     1
102
RTVSPost2010Prop32
280
     0
102
RTVSPost2010PropOp32
 70
     1
102
RTVSPost2010Prop33
280
     0
102
RTVSPost2010PropOp33
 70
     1
102
RTVSPost2010Prop34
280
     0
102
RTVSPost2010PropOp34
 70
     1
102
RTVSPost2010Prop35
280
     0
102
RTVSPost2010PropOp35
 70
     1
102
RTVSPost2010Prop36
280
     0
102
RTVSPost2010PropOp36
 70
     1
102
RTVSPost2010Prop37
 90
       50
102
RTVSPost2010PropOp37
 70
     1
102
RTVSPost2010Prop38
140
0.0
102
RTVSPost2010PropOp38
 70
     1
102
RTVSPost2010Prop39
140
1.0
102
RTVSPost2010PropOp39
 70
     1
102
RTVSPost2010Prop40
 90
        0
102
RTVSPost2010PropOp40
 70
     1
102
RTVSPost2010Prop41ColorIndex
 90
       18
102
RTVSPost2010Prop41ColorRGB
 90
        0
102
RTVSPost2010PropOp41
 70
     1
102
RTVSPost2010Prop42
 90
       50
102
RTVSPost2010PropOp42
 70
     1
102
RTVSPost2010Prop43
 90
        3
102
RTVSPost2010PropOp43
 70
     1
102
RTVSPost2010Prop44ColorIndex
 90
        5
102
RTVSPost2010Prop44ColorRGB
 90
      255
102
RTVSPost2010PropOp44
 70
     1
102
RTVSPost2010Prop45
280
     0
102
RTVSPost2010PropOp45
 70
     1
102
RTVSPost2010Prop46
 90
       50
102
RTVSPost2010PropOp46
 70
     1
102
RTVSPost2010Prop47
 90
       50
102
RTVSPost2010PropOp47
 70
     1
102
RTVSPost2010Prop48
 90
       50
102
RTVSPost2010PropOp48
 70
     1
102
RTVSPost2010Prop49
280
     0
102
RTVSPost2010PropOp49
 70
     1
102
RTVSPost2010Prop50
 90
       50
102
RTVSPost2010PropOp50
 70
     1
102
RTVSPost2010Prop51ColorIndex
 90
      256
102
RTVSPost2010Prop51ColorRGB
 90
-16777216
102
RTVSPost2010PropOp51
 70
     0
102
RTVSPost2010Prop52
140
1.0
102
RTVSPost2010PropOp52
 70
     0
102
RTVSPost2010Prop53
 90
        2
102
RTVSPost2010PropOp53
 70
     1
102
RTVSPost2010Prop54
  1
strokes_ogs.tif
102
RTVSPost2010PropOp54
 70
     1
102
RTVSPost2010Prop55
280
     0
102
RTVSPost2010PropOp55
 70
     1
102
RTVSPost2010Prop56
140
1.0
102
RTVSPost2010PropOp56
 70
     1
102
RTVSPost2010Prop57
140
1.0
102
RTVSPost2010PropOp57
 70
     1
102
RTVSPropertyOp0
 70
     1
102
RTVSPropertyOp1
 70
     1
102
RTVSPropertyOp2
 70
     1
102
RTVSPropertyOp3
 70
     1
102
RTVSPropertyOp4
 70
     1
102
RTVSPropertyOp5
 70
     1
102
RTVSPropertyOp6
 70
     1
102
RTVSPropertyOp7
 70
     1
102
RTVSPropertyOp8
 70
     1
102
RTVSPropertyOp9
 70
     1
102
RTVSPropertyOp10
 70
     1
102
RTVSPropertyOp11
 70
     1
102
RTVSPropertyOp12
 70
     1
102
RTVSPropertyOp13
 70
     1
102
RTVSPropertyOp14
 70
     1
102
RTVSPropertyOp15
 70
     1
102
RTVSPropertyOp16
 70
     1
102
RTVSPropertyOp17
 70
     1
102
RTVSPropertyOp18
 70
     1
102
RTVSPropertyOp19
 70
     1
102
RTVSPropertyOp20
 70
     1
102
RTVSPropertyOp21
 70
     1
102
RTVSPropertyOp22
 70
     1
102
RTVSPropertyOp23
 70
     1
102
RTVSPropertyOp24
 70
     1
102
RTVSPropertyOp25
 70
     1
102
RTVSPropertyOp26
 70
     1
102
RTVSPropertyOp27
 70
     1
102
RTVSPropertyOp28
 70
     1
102
RTVSPropertyOp29
 70
     1
102
RTVSPropertyOp30
 70
     1
102
RTVSPropertyOp31
 70
     1
102
RTVSPropertyOp32
 70
     1
102
RTVSPropertyOp33
 70
     1
102
RTVSPropertyOp34
 70
     1
102
RTVSPropertyOp35
 70
     1
102
RTVSPropertyOp36
 70
     1
102
RTVSPropertyOp37
 70
     1
102
RTVSPropertyOp38
 70
     1
102
RTVSPropertyOp39
 70
     1
102
RTVSPropertyOp40
 70
     1
102
RTVSPropertyOp41
 70
     1
102
RTVSPropertyOp42
 70
     1
102
RTVSPropertyOp43
 70
     1
102
RTVSPropertyOp44
 70
     1
102
RTVSPropertyOp45
 70
     1
102
RTVSPropertyOp46
 70
     1
102
RTVSPropertyOp47
 70
     1
102
RTVSPropertyOp48
 70
     1
102
RTVSPropertyOp49
 70
     1
102
RTVSPropertyOp50
 70
     1
102
RTVSPropertyOp51
 70
     0
102
RTVSPropertyOp52
 70
     0
102
RTVSPropertyOp53
 70
     1
102
RTVSPropertyOp54
 70
     1
102
RTVSPropertyOp55
 70
     1
102
RTVSPropertyOp56
 70
     1
102
RTVSPropertyOp57
 70
     1
102
RTVSPropertyOp58
 70
     1
102
RTVSPropertyOp59
 70
     1
102
RTVSPropertyOp60
 70
     1
102
RTVSPropertyOp61
 70
     1
102
RTVSPropertyOp62
 70
     1
  0
XRECORD
  5
4047
102
{ACAD_REACTORS
330
4046
102
}
330
4046
100
AcDbXrecord
280
     1
102
RTVSPost2010Prop28
280
     0
102
RTVSPost2010PropOp28
 70
     1
102
RTVSPost2010Prop29
280
     1
102
RTVSPost2010PropOp29
 70
     1
102
RTVSPost2010Prop30
280
     1
102
RTVSPost2010PropOp30
 70
     1
102
RTVSPost2010Prop31
280
     0
102
RTVSPost2010PropOp31
 70
     1
102
RTVSPost2010Prop32
280
     0
102
RTVSPost2010PropOp32
 70
     1
102
RTVSPost2010Prop33
280
     0
102
RTVSPost2010PropOp33
 70
     1
102
RTVSPost2010Prop34
280
     0
102
RTVSPost2010PropOp34
 70
     1
102
RTVSPost2010Prop35
280
     0
102
RTVSPost2010PropOp35
 70
     1
102
RTVSPost2010Prop36
280
     0
102
RTVSPost2010PropOp36
 70
     1
102
RTVSPost2010Prop37
 90
       50
102
RTVSPost2010PropOp37
 70
     1
102
RTVSPost2010Prop38
140
0.0
102
RTVSPost2010PropOp38
 70
     1
102
RTVSPost2010Prop39
140
1.0
102
RTVSPost2010PropOp39
 70
     1
102
RTVSPost2010Prop40
 90
        0
102
RTVSPost2010PropOp40
 70
     1
102
RTVSPost2010Prop41ColorIndex
 90
       18
102
RTVSPost2010Prop41ColorRGB
 90
        0
102
RTVSPost2010PropOp41
 70
     1
102
RTVSPost2010Prop42
 90
       50
102
RTVSPost2010PropOp42
 70
     1
102
RTVSPost2010Prop43
 90
        3
102
RTVSPost2010PropOp43
 70
     1
102
RTVSPost2010Prop44ColorIndex
 90
        5
102
RTVSPost2010Prop44ColorRGB
 90
      255
102
RTVSPost2010PropOp44
 70
     1
102
RTVSPost2010Prop45
280
     0
102
RTVSPost2010PropOp45
 70
     1
102
RTVSPost2010Prop46
 90
       50
102
RTVSPost2010PropOp46
 70
     1
102
RTVSPost2010Prop47
 90
       50
102
RTVSPost2010PropOp47
 70
     1
102
RTVSPost2010Prop48
 90
       50
102
RTVSPost2010PropOp48
 70
     1
102
RTVSPost2010Prop49
280
     0
102
RTVSPost2010PropOp49
 70
     1
102
RTVSPost2010Prop50
 90
       50
102
RTVSPost2010PropOp50
 70
     1
102
RTVSPost2010Prop51ColorIndex
 90
      256
102
RTVSPost2010Prop51ColorRGB
 90
-16777216
102
RTVSPost2010PropOp51
 70
     0
102
RTVSPost2010Prop52
140
1.0
102
RTVSPost2010PropOp52
 70
     0
102
RTVSPost2010Prop53
 90
        2
102
RTVSPost2010PropOp53
 70
     1
102
RTVSPost2010Prop54
  1
strokes_ogs.tif
102
RTVSPost2010PropOp54
 70
     1
102
RTVSPost2010Prop55
280
     0
102
RTVSPost2010PropOp55
 70
     1
102
RTVSPost2010Prop56
140
1.0
102
RTVSPost2010PropOp56
 70
     1
102
RTVSPost2010Prop57
140
1.0
102
RTVSPost2010PropOp57
 70
     1
102
RTVSPropertyOp0
 70
     1
102
RTVSPropertyOp1
 70
     1
102
RTVSPropertyOp2
 70
     1
102
RTVSPropertyOp3
 70
     1
102
RTVSPropertyOp4
 70
     1
102
RTVSPropertyOp5
 70
     1
102
RTVSPropertyOp6
 70
     1
102
RTVSPropertyOp7
 70
     1
102
RTVSPropertyOp8
 70
     1
102
RTVSPropertyOp9
 70
     1
102
RTVSPropertyOp10
 70
     1
102
RTVSPropertyOp11
 70
     1
102
RTVSPropertyOp12
 70
     1
102
RTVSPropertyOp13
 70
     1
102
RTVSPropertyOp14
 70
     1
102
RTVSPropertyOp15
 70
     1
102
RTVSPropertyOp16
 70
     1
102
RTVSPropertyOp17
 70
     1
102
RTVSPropertyOp18
 70
     1
102
RTVSPropertyOp19
 70
     1
102
RTVSPropertyOp20
 70
     1
102
RTVSPropertyOp21
 70
     1
102
RTVSPropertyOp22
 70
     1
102
RTVSPropertyOp23
 70
     1
102
RTVSPropertyOp24
 70
     1
102
RTVSPropertyOp25
 70
     1
102
RTVSPropertyOp26
 70
     1
102
RTVSPropertyOp27
 70
     1
102
RTVSPropertyOp28
 70
     1
102
RTVSPropertyOp29
 70
     1
102
RTVSPropertyOp30
 70
     1
102
RTVSPropertyOp31
 70
     1
102
RTVSPropertyOp32
 70
     1
102
RTVSPropertyOp33
 70
     1
102
RTVSPropertyOp34
 70
     1
102
RTVSPropertyOp35
 70
     1
102
RTVSPropertyOp36
 70
     1
102
RTVSPropertyOp37
 70
     1
102
RTVSPropertyOp38
 70
     1
102
RTVSPropertyOp39
 70
     1
102
RTVSPropertyOp40
 70
     1
102
RTVSPropertyOp41
 70
     1
102
RTVSPropertyOp42
 70
     1
102
RTVSPropertyOp43
 70
     1
102
RTVSPropertyOp44
 70
     1
102
RTVSPropertyOp45
 70
     1
102
RTVSPropertyOp46
 70
     1
102
RTVSPropertyOp47
 70
     1
102
RTVSPropertyOp48
 70
     1
102
RTVSPropertyOp49
 70
     1
102
RTVSPropertyOp50
 70
     1
102
RTVSPropertyOp51
 70
     0
102
RTVSPropertyOp52
 70
     0
102
RTVSPropertyOp53
 70
     1
102
RTVSPropertyOp54
 70
     1
102
RTVSPropertyOp55
 70
     1
102
RTVSPropertyOp56
 70
     1
102
RTVSPropertyOp57
 70
     1
102
RTVSPropertyOp58
 70
     1
102
RTVSPropertyOp59
 70
     1
102
RTVSPropertyOp60
 70
     1
102
RTVSPropertyOp61
 70
     1
102
RTVSPropertyOp62
 70
     1
  0
XRECORD
  5
403B
102
{ACAD_REACTORS
330
403A
102
}
330
403A
100
AcDbXrecord
280
     1
102
RTVSPost2010Prop28
280
     0
102
RTVSPost2010PropOp28
 70
     1
102
RTVSPost2010Prop29
280
     1
102
RTVSPost2010PropOp29
 70
     1
102
RTVSPost2010Prop30
280
     1
102
RTVSPost2010PropOp30
 70
     1
102
RTVSPost2010Prop31
280
     0
102
RTVSPost2010PropOp31
 70
     1
102
RTVSPost2010Prop32
280
     0
102
RTVSPost2010PropOp32
 70
     1
102
RTVSPost2010Prop33
280
     0
102
RTVSPost2010PropOp33
 70
     1
102
RTVSPost2010Prop34
280
     0
102
RTVSPost2010PropOp34
 70
     1
102
RTVSPost2010Prop35
280
     0
102
RTVSPost2010PropOp35
 70
     1
102
RTVSPost2010Prop36
280
     0
102
RTVSPost2010PropOp36
 70
     1
102
RTVSPost2010Prop37
 90
       50
102
RTVSPost2010PropOp37
 70
     1
102
RTVSPost2010Prop38
140
0.0
102
RTVSPost2010PropOp38
 70
     1
102
RTVSPost2010Prop39
140
1.0
102
RTVSPost2010PropOp39
 70
     1
102
RTVSPost2010Prop40
 90
        0
102
RTVSPost2010PropOp40
 70
     1
102
RTVSPost2010Prop41ColorIndex
 90
       18
102
RTVSPost2010Prop41ColorRGB
 90
        0
102
RTVSPost2010PropOp41
 70
     1
102
RTVSPost2010Prop42
 90
       50
102
RTVSPost2010PropOp42
 70
     1
102
RTVSPost2010Prop43
 90
        3
102
RTVSPost2010PropOp43
 70
     1
102
RTVSPost2010Prop44ColorIndex
 90
        5
102
RTVSPost2010Prop44ColorRGB
 90
      255
102
RTVSPost2010PropOp44
 70
     1
102
RTVSPost2010Prop45
280
     0
102
RTVSPost2010PropOp45
 70
     1
102
RTVSPost2010Prop46
 90
       50
102
RTVSPost2010PropOp46
 70
     1
102
RTVSPost2010Prop47
 90
       50
102
RTVSPost2010PropOp47
 70
     1
102
RTVSPost2010Prop48
 90
       50
102
RTVSPost2010PropOp48
 70
     1
102
RTVSPost2010Prop49
280
     0
102
RTVSPost2010PropOp49
 70
     1
102
RTVSPost2010Prop50
 90
       50
102
RTVSPost2010PropOp50
 70
     1
102
RTVSPost2010Prop51ColorIndex
 90
      256
102
RTVSPost2010Prop51ColorRGB
 90
-16777216
102
RTVSPost2010PropOp51
 70
     0
102
RTVSPost2010Prop52
140
1.0
102
RTVSPost2010PropOp52
 70
     0
102
RTVSPost2010Prop53
 90
        2
102
RTVSPost2010PropOp53
 70
     1
102
RTVSPost2010Prop54
  1
strokes_ogs.tif
102
RTVSPost2010PropOp54
 70
     1
102
RTVSPost2010Prop55
280
     0
102
RTVSPost2010PropOp55
 70
     1
102
RTVSPost2010Prop56
140
1.0
102
RTVSPost2010PropOp56
 70
     1
102
RTVSPost2010Prop57
140
1.0
102
RTVSPost2010PropOp57
 70
     1
102
RTVSPropertyOp0
 70
     1
102
RTVSPropertyOp1
 70
     1
102
RTVSPropertyOp2
 70
     1
102
RTVSPropertyOp3
 70
     1
102
RTVSPropertyOp4
 70
     1
102
RTVSPropertyOp5
 70
     1
102
RTVSPropertyOp6
 70
     1
102
RTVSPropertyOp7
 70
     1
102
RTVSPropertyOp8
 70
     1
102
RTVSPropertyOp9
 70
     1
102
RTVSPropertyOp10
 70
     1
102
RTVSPropertyOp11
 70
     1
102
RTVSPropertyOp12
 70
     1
102
RTVSPropertyOp13
 70
     1
102
RTVSPropertyOp14
 70
     1
102
RTVSPropertyOp15
 70
     1
102
RTVSPropertyOp16
 70
     1
102
RTVSPropertyOp17
 70
     1
102
RTVSPropertyOp18
 70
     1
102
RTVSPropertyOp19
 70
     1
102
RTVSPropertyOp20
 70
     1
102
RTVSPropertyOp21
 70
     1
102
RTVSPropertyOp22
 70
     1
102
RTVSPropertyOp23
 70
     1
102
RTVSPropertyOp24
 70
     1
102
RTVSPropertyOp25
 70
     1
102
RTVSPropertyOp26
 70
     1
102
RTVSPropertyOp27
 70
     1
102
RTVSPropertyOp28
 70
     1
102
RTVSPropertyOp29
 70
     1
102
RTVSPropertyOp30
 70
     1
102
RTVSPropertyOp31
 70
     1
102
RTVSPropertyOp32
 70
     1
102
RTVSPropertyOp33
 70
     1
102
RTVSPropertyOp34
 70
     1
102
RTVSPropertyOp35
 70
     1
102
RTVSPropertyOp36
 70
     1
102
RTVSPropertyOp37
 70
     1
102
RTVSPropertyOp38
 70
     1
102
RTVSPropertyOp39
 70
     1
102
RTVSPropertyOp40
 70
     1
102
RTVSPropertyOp41
 70
     1
102
RTVSPropertyOp42
 70
     1
102
RTVSPropertyOp43
 70
     1
102
RTVSPropertyOp44
 70
     1
102
RTVSPropertyOp45
 70
     1
102
RTVSPropertyOp46
 70
     1
102
RTVSPropertyOp47
 70
     1
102
RTVSPropertyOp48
 70
     1
102
RTVSPropertyOp49
 70
     1
102
RTVSPropertyOp50
 70
     1
102
RTVSPropertyOp51
 70
     0
102
RTVSPropertyOp52
 70
     0
102
RTVSPropertyOp53
 70
     1
102
RTVSPropertyOp54
 70
     1
102
RTVSPropertyOp55
 70
     1
102
RTVSPropertyOp56
 70
     1
102
RTVSPropertyOp57
 70
     1
102
RTVSPropertyOp58
 70
     1
102
RTVSPropertyOp59
 70
     1
102
RTVSPropertyOp60
 70
     1
102
RTVSPropertyOp61
 70
     1
102
RTVSPropertyOp62
 70
     1
  0
XRECORD
  5
4045
102
{ACAD_REACTORS
330
4044
102
}
330
4044
100
AcDbXrecord
280
     1
102
RTVSPost2010Prop28
280
     0
102
RTVSPost2010PropOp28
 70
     1
102
RTVSPost2010Prop29
280
     1
102
RTVSPost2010PropOp29
 70
     1
102
RTVSPost2010Prop30
280
     1
102
RTVSPost2010PropOp30
 70
     1
102
RTVSPost2010Prop31
280
     0
102
RTVSPost2010PropOp31
 70
     1
102
RTVSPost2010Prop32
280
     0
102
RTVSPost2010PropOp32
 70
     1
102
RTVSPost2010Prop33
280
     0
102
RTVSPost2010PropOp33
 70
     1
102
RTVSPost2010Prop34
280
     0
102
RTVSPost2010PropOp34
 70
     1
102
RTVSPost2010Prop35
280
     0
102
RTVSPost2010PropOp35
 70
     1
102
RTVSPost2010Prop36
280
     0
102
RTVSPost2010PropOp36
 70
     1
102
RTVSPost2010Prop37
 90
       50
102
RTVSPost2010PropOp37
 70
     1
102
RTVSPost2010Prop38
140
0.0
102
RTVSPost2010PropOp38
 70
     1
102
RTVSPost2010Prop39
140
1.0
102
RTVSPost2010PropOp39
 70
     1
102
RTVSPost2010Prop40
 90
        0
102
RTVSPost2010PropOp40
 70
     1
102
RTVSPost2010Prop41ColorIndex
 90
       18
102
RTVSPost2010Prop41ColorRGB
 90
        0
102
RTVSPost2010PropOp41
 70
     1
102
RTVSPost2010Prop42
 90
       50
102
RTVSPost2010PropOp42
 70
     1
102
RTVSPost2010Prop43
 90
        3
102
RTVSPost2010PropOp43
 70
     1
102
RTVSPost2010Prop44ColorIndex
 90
        5
102
RTVSPost2010Prop44ColorRGB
 90
      255
102
RTVSPost2010PropOp44
 70
     1
102
RTVSPost2010Prop45
280
     0
102
RTVSPost2010PropOp45
 70
     1
102
RTVSPost2010Prop46
 90
       50
102
RTVSPost2010PropOp46
 70
     1
102
RTVSPost2010Prop47
 90
       50
102
RTVSPost2010PropOp47
 70
     1
102
RTVSPost2010Prop48
 90
       50
102
RTVSPost2010PropOp48
 70
     1
102
RTVSPost2010Prop49
280
     0
102
RTVSPost2010PropOp49
 70
     1
102
RTVSPost2010Prop50
 90
       50
102
RTVSPost2010PropOp50
 70
     1
102
RTVSPost2010Prop51ColorIndex
 90
      256
102
RTVSPost2010Prop51ColorRGB
 90
-16777216
102
RTVSPost2010PropOp51
 70
     0
102
RTVSPost2010Prop52
140
1.0
102
RTVSPost2010PropOp52
 70
     0
102
RTVSPost2010Prop53
 90
        2
102
RTVSPost2010PropOp53
 70
     1
102
RTVSPost2010Prop54
  1
strokes_ogs.tif
102
RTVSPost2010PropOp54
 70
     1
102
RTVSPost2010Prop55
280
     0
102
RTVSPost2010PropOp55
 70
     1
102
RTVSPost2010Prop56
140
1.0
102
RTVSPost2010PropOp56
 70
     1
102
RTVSPost2010Prop57
140
1.0
102
RTVSPost2010PropOp57
 70
     1
102
RTVSPropertyOp0
 70
     1
102
RTVSPropertyOp1
 70
     1
102
RTVSPropertyOp2
 70
     1
102
RTVSPropertyOp3
 70
     1
102
RTVSPropertyOp4
 70
     1
102
RTVSPropertyOp5
 70
     1
102
RTVSPropertyOp6
 70
     1
102
RTVSPropertyOp7
 70
     1
102
RTVSPropertyOp8
 70
     1
102
RTVSPropertyOp9
 70
     1
102
RTVSPropertyOp10
 70
     1
102
RTVSPropertyOp11
 70
     1
102
RTVSPropertyOp12
 70
     1
102
RTVSPropertyOp13
 70
     1
102
RTVSPropertyOp14
 70
     1
102
RTVSPropertyOp15
 70
     1
102
RTVSPropertyOp16
 70
     1
102
RTVSPropertyOp17
 70
     1
102
RTVSPropertyOp18
 70
     1
102
RTVSPropertyOp19
 70
     1
102
RTVSPropertyOp20
 70
     1
102
RTVSPropertyOp21
 70
     1
102
RTVSPropertyOp22
 70
     1
102
RTVSPropertyOp23
 70
     1
102
RTVSPropertyOp24
 70
     1
102
RTVSPropertyOp25
 70
     1
102
RTVSPropertyOp26
 70
     1
102
RTVSPropertyOp27
 70
     1
102
RTVSPropertyOp28
 70
     1
102
RTVSPropertyOp29
 70
     1
102
RTVSPropertyOp30
 70
     1
102
RTVSPropertyOp31
 70
     1
102
RTVSPropertyOp32
 70
     1
102
RTVSPropertyOp33
 70
     1
102
RTVSPropertyOp34
 70
     1
102
RTVSPropertyOp35
 70
     1
102
RTVSPropertyOp36
 70
     1
102
RTVSPropertyOp37
 70
     1
102
RTVSPropertyOp38
 70
     1
102
RTVSPropertyOp39
 70
     1
102
RTVSPropertyOp40
 70
     1
102
RTVSPropertyOp41
 70
     1
102
RTVSPropertyOp42
 70
     1
102
RTVSPropertyOp43
 70
     1
102
RTVSPropertyOp44
 70
     1
102
RTVSPropertyOp45
 70
     1
102
RTVSPropertyOp46
 70
     1
102
RTVSPropertyOp47
 70
     1
102
RTVSPropertyOp48
 70
     1
102
RTVSPropertyOp49
 70
     1
102
RTVSPropertyOp50
 70
     1
102
RTVSPropertyOp51
 70
     0
102
RTVSPropertyOp52
 70
     0
102
RTVSPropertyOp53
 70
     1
102
RTVSPropertyOp54
 70
     1
102
RTVSPropertyOp55
 70
     1
102
RTVSPropertyOp56
 70
     1
102
RTVSPropertyOp57
 70
     1
102
RTVSPropertyOp58
 70
     1
102
RTVSPropertyOp59
 70
     1
102
RTVSPropertyOp60
 70
     1
102
RTVSPropertyOp61
 70
     1
102
RTVSPropertyOp62
 70
     1
  0
XRECORD
  5
404D
102
{ACAD_REACTORS
330
404C
102
}
330
404C
100
AcDbXrecord
280
     1
102
RTVSPost2010Prop28
280
     0
102
RTVSPost2010PropOp28
 70
     1
102
RTVSPost2010Prop29
280
     1
102
RTVSPost2010PropOp29
 70
     1
102
RTVSPost2010Prop30
280
     1
102
RTVSPost2010PropOp30
 70
     1
102
RTVSPost2010Prop31
280
     0
102
RTVSPost2010PropOp31
 70
     1
102
RTVSPost2010Prop32
280
     0
102
RTVSPost2010PropOp32
 70
     1
102
RTVSPost2010Prop33
280
     0
102
RTVSPost2010PropOp33
 70
     1
102
RTVSPost2010Prop34
280
     0
102
RTVSPost2010PropOp34
 70
     1
102
RTVSPost2010Prop35
280
     0
102
RTVSPost2010PropOp35
 70
     1
102
RTVSPost2010Prop36
280
     0
102
RTVSPost2010PropOp36
 70
     1
102
RTVSPost2010Prop37
 90
       50
102
RTVSPost2010PropOp37
 70
     1
102
RTVSPost2010Prop38
140
0.0
102
RTVSPost2010PropOp38
 70
     1
102
RTVSPost2010Prop39
140
1.0
102
RTVSPost2010PropOp39
 70
     1
102
RTVSPost2010Prop40
 90
        0
102
RTVSPost2010PropOp40
 70
     1
102
RTVSPost2010Prop41ColorIndex
 90
       18
102
RTVSPost2010Prop41ColorRGB
 90
        0
102
RTVSPost2010PropOp41
 70
     1
102
RTVSPost2010Prop42
 90
       50
102
RTVSPost2010PropOp42
 70
     1
102
RTVSPost2010Prop43
 90
        3
102
RTVSPost2010PropOp43
 70
     1
102
RTVSPost2010Prop44ColorIndex
 90
        5
102
RTVSPost2010Prop44ColorRGB
 90
      255
102
RTVSPost2010PropOp44
 70
     1
102
RTVSPost2010Prop45
280
     0
102
RTVSPost2010PropOp45
 70
     1
102
RTVSPost2010Prop46
 90
       50
102
RTVSPost2010PropOp46
 70
     1
102
RTVSPost2010Prop47
 90
       50
102
RTVSPost2010PropOp47
 70
     1
102
RTVSPost2010Prop48
 90
       50
102
RTVSPost2010PropOp48
 70
     1
102
RTVSPost2010Prop49
280
     0
102
RTVSPost2010PropOp49
 70
     1
102
RTVSPost2010Prop50
 90
       50
102
RTVSPost2010PropOp50
 70
     1
102
RTVSPost2010Prop51ColorIndex
 90
      256
102
RTVSPost2010Prop51ColorRGB
 90
-16777216
102
RTVSPost2010PropOp51
 70
     0
102
RTVSPost2010Prop52
140
1.0
102
RTVSPost2010PropOp52
 70
     0
102
RTVSPost2010Prop53
 90
        2
102
RTVSPost2010PropOp53
 70
     1
102
RTVSPost2010Prop54
  1
strokes_ogs.tif
102
RTVSPost2010PropOp54
 70
     1
102
RTVSPost2010Prop55
280
     0
102
RTVSPost2010PropOp55
 70
     1
102
RTVSPost2010Prop56
140
1.0
102
RTVSPost2010PropOp56
 70
     1
102
RTVSPost2010Prop57
140
1.0
102
RTVSPost2010PropOp57
 70
     1
102
RTVSPropertyOp0
 70
     1
102
RTVSPropertyOp1
 70
     1
102
RTVSPropertyOp2
 70
     1
102
RTVSPropertyOp3
 70
     1
102
RTVSPropertyOp4
 70
     1
102
RTVSPropertyOp5
 70
     1
102
RTVSPropertyOp6
 70
     1
102
RTVSPropertyOp7
 70
     1
102
RTVSPropertyOp8
 70
     1
102
RTVSPropertyOp9
 70
     1
102
RTVSPropertyOp10
 70
     1
102
RTVSPropertyOp11
 70
     1
102
RTVSPropertyOp12
 70
     1
102
RTVSPropertyOp13
 70
     1
102
RTVSPropertyOp14
 70
     1
102
RTVSPropertyOp15
 70
     1
102
RTVSPropertyOp16
 70
     1
102
RTVSPropertyOp17
 70
     1
102
RTVSPropertyOp18
 70
     1
102
RTVSPropertyOp19
 70
     1
102
RTVSPropertyOp20
 70
     1
102
RTVSPropertyOp21
 70
     1
102
RTVSPropertyOp22
 70
     1
102
RTVSPropertyOp23
 70
     1
102
RTVSPropertyOp24
 70
     1
102
RTVSPropertyOp25
 70
     1
102
RTVSPropertyOp26
 70
     1
102
RTVSPropertyOp27
 70
     1
102
RTVSPropertyOp28
 70
     1
102
RTVSPropertyOp29
 70
     1
102
RTVSPropertyOp30
 70
     1
102
RTVSPropertyOp31
 70
     1
102
RTVSPropertyOp32
 70
     1
102
RTVSPropertyOp33
 70
     1
102
RTVSPropertyOp34
 70
     1
102
RTVSPropertyOp35
 70
     1
102
RTVSPropertyOp36
 70
     1
102
RTVSPropertyOp37
 70
     1
102
RTVSPropertyOp38
 70
     1
102
RTVSPropertyOp39
 70
     1
102
RTVSPropertyOp40
 70
     1
102
RTVSPropertyOp41
 70
     1
102
RTVSPropertyOp42
 70
     1
102
RTVSPropertyOp43
 70
     1
102
RTVSPropertyOp44
 70
     1
102
RTVSPropertyOp45
 70
     1
102
RTVSPropertyOp46
 70
     1
102
RTVSPropertyOp47
 70
     1
102
RTVSPropertyOp48
 70
     1
102
RTVSPropertyOp49
 70
     1
102
RTVSPropertyOp50
 70
     1
102
RTVSPropertyOp51
 70
     0
102
RTVSPropertyOp52
 70
     0
102
RTVSPropertyOp53
 70
     1
102
RTVSPropertyOp54
 70
     1
102
RTVSPropertyOp55
 70
     1
102
RTVSPropertyOp56
 70
     1
102
RTVSPropertyOp57
 70
     1
102
RTVSPropertyOp58
 70
     1
102
RTVSPropertyOp59
 70
     1
102
RTVSPropertyOp60
 70
     1
102
RTVSPropertyOp61
 70
     1
102
RTVSPropertyOp62
 70
     1
  0
XRECORD
  5
4055
102
{ACAD_REACTORS
330
4054
102
}
330
4054
100
AcDbXrecord
280
     1
102
RTVSPost2010Prop28
280
     0
102
RTVSPost2010PropOp28
 70
     1
102
RTVSPost2010Prop29
280
     1
102
RTVSPost2010PropOp29
 70
     1
102
RTVSPost2010Prop30
280
     1
102
RTVSPost2010PropOp30
 70
     1
102
RTVSPost2010Prop31
280
     0
102
RTVSPost2010PropOp31
 70
     1
102
RTVSPost2010Prop32
280
     0
102
RTVSPost2010PropOp32
 70
     1
102
RTVSPost2010Prop33
280
     0
102
RTVSPost2010PropOp33
 70
     1
102
RTVSPost2010Prop34
280
     0
102
RTVSPost2010PropOp34
 70
     1
102
RTVSPost2010Prop35
280
     0
102
RTVSPost2010PropOp35
 70
     1
102
RTVSPost2010Prop36
280
     0
102
RTVSPost2010PropOp36
 70
     1
102
RTVSPost2010Prop37
 90
       50
102
RTVSPost2010PropOp37
 70
     1
102
RTVSPost2010Prop38
140
0.0
102
RTVSPost2010PropOp38
 70
     1
102
RTVSPost2010Prop39
140
1.0
102
RTVSPost2010PropOp39
 70
     1
102
RTVSPost2010Prop40
 90
        0
102
RTVSPost2010PropOp40
 70
     1
102
RTVSPost2010Prop41ColorIndex
 90
       18
102
RTVSPost2010Prop41ColorRGB
 90
        0
102
RTVSPost2010PropOp41
 70
     1
102
RTVSPost2010Prop42
 90
       50
102
RTVSPost2010PropOp42
 70
     1
102
RTVSPost2010Prop43
 90
        3
102
RTVSPost2010PropOp43
 70
     1
102
RTVSPost2010Prop44ColorIndex
 90
        5
102
RTVSPost2010Prop44ColorRGB
 90
      255
102
RTVSPost2010PropOp44
 70
     1
102
RTVSPost2010Prop45
280
     0
102
RTVSPost2010PropOp45
 70
     1
102
RTVSPost2010Prop46
 90
       50
102
RTVSPost2010PropOp46
 70
     1
102
RTVSPost2010Prop47
 90
       50
102
RTVSPost2010PropOp47
 70
     1
102
RTVSPost2010Prop48
 90
       50
102
RTVSPost2010PropOp48
 70
     1
102
RTVSPost2010Prop49
280
     0
102
RTVSPost2010PropOp49
 70
     1
102
RTVSPost2010Prop50
 90
       50
102
RTVSPost2010PropOp50
 70
     1
102
RTVSPost2010Prop51ColorIndex
 90
      256
102
RTVSPost2010Prop51ColorRGB
 90
-16777216
102
RTVSPost2010PropOp51
 70
     0
102
RTVSPost2010Prop52
140
1.0
102
RTVSPost2010PropOp52
 70
     0
102
RTVSPost2010Prop53
 90
        2
102
RTVSPost2010PropOp53
 70
     1
102
RTVSPost2010Prop54
  1
strokes_ogs.tif
102
RTVSPost2010PropOp54
 70
     1
102
RTVSPost2010Prop55
280
     0
102
RTVSPost2010PropOp55
 70
     1
102
RTVSPost2010Prop56
140
1.0
102
RTVSPost2010PropOp56
 70
     1
102
RTVSPost2010Prop57
140
1.0
102
RTVSPost2010PropOp57
 70
     1
102
RTVSPropertyOp0
 70
     1
102
RTVSPropertyOp1
 70
     1
102
RTVSPropertyOp2
 70
     1
102
RTVSPropertyOp3
 70
     1
102
RTVSPropertyOp4
 70
     1
102
RTVSPropertyOp5
 70
     1
102
RTVSPropertyOp6
 70
     1
102
RTVSPropertyOp7
 70
     1
102
RTVSPropertyOp8
 70
     1
102
RTVSPropertyOp9
 70
     1
102
RTVSPropertyOp10
 70
     1
102
RTVSPropertyOp11
 70
     1
102
RTVSPropertyOp12
 70
     1
102
RTVSPropertyOp13
 70
     1
102
RTVSPropertyOp14
 70
     1
102
RTVSPropertyOp15
 70
     1
102
RTVSPropertyOp16
 70
     1
102
RTVSPropertyOp17
 70
     1
102
RTVSPropertyOp18
 70
     1
102
RTVSPropertyOp19
 70
     1
102
RTVSPropertyOp20
 70
     1
102
RTVSPropertyOp21
 70
     1
102
RTVSPropertyOp22
 70
     1
102
RTVSPropertyOp23
 70
     1
102
RTVSPropertyOp24
 70
     1
102
RTVSPropertyOp25
 70
     1
102
RTVSPropertyOp26
 70
     1
102
RTVSPropertyOp27
 70
     1
102
RTVSPropertyOp28
 70
     1
102
RTVSPropertyOp29
 70
     1
102
RTVSPropertyOp30
 70
     1
102
RTVSPropertyOp31
 70
     1
102
RTVSPropertyOp32
 70
     1
102
RTVSPropertyOp33
 70
     1
102
RTVSPropertyOp34
 70
     1
102
RTVSPropertyOp35
 70
     1
102
RTVSPropertyOp36
 70
     1
102
RTVSPropertyOp37
 70
     1
102
RTVSPropertyOp38
 70
     1
102
RTVSPropertyOp39
 70
     1
102
RTVSPropertyOp40
 70
     1
102
RTVSPropertyOp41
 70
     1
102
RTVSPropertyOp42
 70
     1
102
RTVSPropertyOp43
 70
     1
102
RTVSPropertyOp44
 70
     1
102
RTVSPropertyOp45
 70
     1
102
RTVSPropertyOp46
 70
     1
102
RTVSPropertyOp47
 70
     1
102
RTVSPropertyOp48
 70
     1
102
RTVSPropertyOp49
 70
     1
102
RTVSPropertyOp50
 70
     1
102
RTVSPropertyOp51
 70
     0
102
RTVSPropertyOp52
 70
     0
102
RTVSPropertyOp53
 70
     1
102
RTVSPropertyOp54
 70
     1
102
RTVSPropertyOp55
 70
     1
102
RTVSPropertyOp56
 70
     1
102
RTVSPropertyOp57
 70
     1
102
RTVSPropertyOp58
 70
     1
102
RTVSPropertyOp59
 70
     1
102
RTVSPropertyOp60
 70
     1
102
RTVSPropertyOp61
 70
     1
102
RTVSPropertyOp62
 70
     1
  0
XRECORD
  5
4049
102
{ACAD_REACTORS
330
4048
102
}
330
4048
100
AcDbXrecord
280
     1
102
RTVSPost2010Prop28
280
     0
102
RTVSPost2010PropOp28
 70
     1
102
RTVSPost2010Prop29
280
     1
102
RTVSPost2010PropOp29
 70
     1
102
RTVSPost2010Prop30
280
     1
102
RTVSPost2010PropOp30
 70
     1
102
RTVSPost2010Prop31
280
     0
102
RTVSPost2010PropOp31
 70
     1
102
RTVSPost2010Prop32
280
     0
102
RTVSPost2010PropOp32
 70
     1
102
RTVSPost2010Prop33
280
     0
102
RTVSPost2010PropOp33
 70
     1
102
RTVSPost2010Prop34
280
     0
102
RTVSPost2010PropOp34
 70
     1
102
RTVSPost2010Prop35
280
     0
102
RTVSPost2010PropOp35
 70
     1
102
RTVSPost2010Prop36
280
     0
102
RTVSPost2010PropOp36
 70
     1
102
RTVSPost2010Prop37
 90
       50
102
RTVSPost2010PropOp37
 70
     1
102
RTVSPost2010Prop38
140
0.0
102
RTVSPost2010PropOp38
 70
     1
102
RTVSPost2010Prop39
140
1.0
102
RTVSPost2010PropOp39
 70
     1
102
RTVSPost2010Prop40
 90
        0
102
RTVSPost2010PropOp40
 70
     1
102
RTVSPost2010Prop41ColorIndex
 90
       18
102
RTVSPost2010Prop41ColorRGB
 90
        0
102
RTVSPost2010PropOp41
 70
     1
102
RTVSPost2010Prop42
 90
       50
102
RTVSPost2010PropOp42
 70
     1
102
RTVSPost2010Prop43
 90
        3
102
RTVSPost2010PropOp43
 70
     1
102
RTVSPost2010Prop44ColorIndex
 90
        5
102
RTVSPost2010Prop44ColorRGB
 90
      255
102
RTVSPost2010PropOp44
 70
     1
102
RTVSPost2010Prop45
280
     0
102
RTVSPost2010PropOp45
 70
     1
102
RTVSPost2010Prop46
 90
       50
102
RTVSPost2010PropOp46
 70
     1
102
RTVSPost2010Prop47
 90
       50
102
RTVSPost2010PropOp47
 70
     1
102
RTVSPost2010Prop48
 90
       50
102
RTVSPost2010PropOp48
 70
     1
102
RTVSPost2010Prop49
280
     0
102
RTVSPost2010PropOp49
 70
     1
102
RTVSPost2010Prop50
 90
       50
102
RTVSPost2010PropOp50
 70
     1
102
RTVSPost2010Prop51ColorIndex
 90
      256
102
RTVSPost2010Prop51ColorRGB
 90
-16777216
102
RTVSPost2010PropOp51
 70
     0
102
RTVSPost2010Prop52
140
1.0
102
RTVSPost2010PropOp52
 70
     0
102
RTVSPost2010Prop53
 90
        2
102
RTVSPost2010PropOp53
 70
     1
102
RTVSPost2010Prop54
  1
strokes_ogs.tif
102
RTVSPost2010PropOp54
 70
     1
102
RTVSPost2010Prop55
280
     0
102
RTVSPost2010PropOp55
 70
     1
102
RTVSPost2010Prop56
140
1.0
102
RTVSPost2010PropOp56
 70
     1
102
RTVSPost2010Prop57
140
1.0
102
RTVSPost2010PropOp57
 70
     1
102
RTVSPropertyOp0
 70
     1
102
RTVSPropertyOp1
 70
     1
102
RTVSPropertyOp2
 70
     1
102
RTVSPropertyOp3
 70
     1
102
RTVSPropertyOp4
 70
     1
102
RTVSPropertyOp5
 70
     1
102
RTVSPropertyOp6
 70
     1
102
RTVSPropertyOp7
 70
     1
102
RTVSPropertyOp8
 70
     1
102
RTVSPropertyOp9
 70
     1
102
RTVSPropertyOp10
 70
     1
102
RTVSPropertyOp11
 70
     1
102
RTVSPropertyOp12
 70
     1
102
RTVSPropertyOp13
 70
     1
102
RTVSPropertyOp14
 70
     1
102
RTVSPropertyOp15
 70
     1
102
RTVSPropertyOp16
 70
     1
102
RTVSPropertyOp17
 70
     1
102
RTVSPropertyOp18
 70
     1
102
RTVSPropertyOp19
 70
     1
102
RTVSPropertyOp20
 70
     1
102
RTVSPropertyOp21
 70
     1
102
RTVSPropertyOp22
 70
     1
102
RTVSPropertyOp23
 70
     1
102
RTVSPropertyOp24
 70
     1
102
RTVSPropertyOp25
 70
     1
102
RTVSPropertyOp26
 70
     1
102
RTVSPropertyOp27
 70
     1
102
RTVSPropertyOp28
 70
     1
102
RTVSPropertyOp29
 70
     1
102
RTVSPropertyOp30
 70
     1
102
RTVSPropertyOp31
 70
     1
102
RTVSPropertyOp32
 70
     1
102
RTVSPropertyOp33
 70
     1
102
RTVSPropertyOp34
 70
     1
102
RTVSPropertyOp35
 70
     1
102
RTVSPropertyOp36
 70
     1
102
RTVSPropertyOp37
 70
     1
102
RTVSPropertyOp38
 70
     1
102
RTVSPropertyOp39
 70
     1
102
RTVSPropertyOp40
 70
     1
102
RTVSPropertyOp41
 70
     1
102
RTVSPropertyOp42
 70
     1
102
RTVSPropertyOp43
 70
     1
102
RTVSPropertyOp44
 70
     1
102
RTVSPropertyOp45
 70
     1
102
RTVSPropertyOp46
 70
     1
102
RTVSPropertyOp47
 70
     1
102
RTVSPropertyOp48
 70
     1
102
RTVSPropertyOp49
 70
     1
102
RTVSPropertyOp50
 70
     1
102
RTVSPropertyOp51
 70
     0
102
RTVSPropertyOp52
 70
     0
102
RTVSPropertyOp53
 70
     1
102
RTVSPropertyOp54
 70
     1
102
RTVSPropertyOp55
 70
     1
102
RTVSPropertyOp56
 70
     1
102
RTVSPropertyOp57
 70
     1
102
RTVSPropertyOp58
 70
     1
102
RTVSPropertyOp59
 70
     1
102
RTVSPropertyOp60
 70
     1
102
RTVSPropertyOp61
 70
     1
102
RTVSPropertyOp62
 70
     1
  0
XRECORD
  5
404B
102
{ACAD_REACTORS
330
404A
102
}
330
404A
100
AcDbXrecord
280
     1
102
RTVSPost2010Prop28
280
     0
102
RTVSPost2010PropOp28
 70
     1
102
RTVSPost2010Prop29
280
     1
102
RTVSPost2010PropOp29
 70
     1
102
RTVSPost2010Prop30
280
     1
102
RTVSPost2010PropOp30
 70
     1
102
RTVSPost2010Prop31
280
     0
102
RTVSPost2010PropOp31
 70
     1
102
RTVSPost2010Prop32
280
     0
102
RTVSPost2010PropOp32
 70
     1
102
RTVSPost2010Prop33
280
     0
102
RTVSPost2010PropOp33
 70
     1
102
RTVSPost2010Prop34
280
     0
102
RTVSPost2010PropOp34
 70
     1
102
RTVSPost2010Prop35
280
     0
102
RTVSPost2010PropOp35
 70
     1
102
RTVSPost2010Prop36
280
     0
102
RTVSPost2010PropOp36
 70
     1
102
RTVSPost2010Prop37
 90
       50
102
RTVSPost2010PropOp37
 70
     1
102
RTVSPost2010Prop38
140
0.0
102
RTVSPost2010PropOp38
 70
     1
102
RTVSPost2010Prop39
140
1.0
102
RTVSPost2010PropOp39
 70
     1
102
RTVSPost2010Prop40
 90
        0
102
RTVSPost2010PropOp40
 70
     1
102
RTVSPost2010Prop41ColorIndex
 90
       18
102
RTVSPost2010Prop41ColorRGB
 90
        0
102
RTVSPost2010PropOp41
 70
     1
102
RTVSPost2010Prop42
 90
       50
102
RTVSPost2010PropOp42
 70
     1
102
RTVSPost2010Prop43
 90
        3
102
RTVSPost2010PropOp43
 70
     1
102
RTVSPost2010Prop44ColorIndex
 90
        5
102
RTVSPost2010Prop44ColorRGB
 90
      255
102
RTVSPost2010PropOp44
 70
     1
102
RTVSPost2010Prop45
280
     0
102
RTVSPost2010PropOp45
 70
     1
102
RTVSPost2010Prop46
 90
       50
102
RTVSPost2010PropOp46
 70
     1
102
RTVSPost2010Prop47
 90
       50
102
RTVSPost2010PropOp47
 70
     1
102
RTVSPost2010Prop48
 90
       50
102
RTVSPost2010PropOp48
 70
     1
102
RTVSPost2010Prop49
280
     0
102
RTVSPost2010PropOp49
 70
     1
102
RTVSPost2010Prop50
 90
       50
102
RTVSPost2010PropOp50
 70
     1
102
RTVSPost2010Prop51ColorIndex
 90
      256
102
RTVSPost2010Prop51ColorRGB
 90
-16777216
102
RTVSPost2010PropOp51
 70
     0
102
RTVSPost2010Prop52
140
1.0
102
RTVSPost2010PropOp52
 70
     0
102
RTVSPost2010Prop53
 90
        2
102
RTVSPost2010PropOp53
 70
     1
102
RTVSPost2010Prop54
  1
strokes_ogs.tif
102
RTVSPost2010PropOp54
 70
     1
102
RTVSPost2010Prop55
280
     0
102
RTVSPost2010PropOp55
 70
     1
102
RTVSPost2010Prop56
140
1.0
102
RTVSPost2010PropOp56
 70
     1
102
RTVSPost2010Prop57
140
1.0
102
RTVSPost2010PropOp57
 70
     1
102
RTVSPropertyOp0
 70
     1
102
RTVSPropertyOp1
 70
     1
102
RTVSPropertyOp2
 70
     1
102
RTVSPropertyOp3
 70
     1
102
RTVSPropertyOp4
 70
     1
102
RTVSPropertyOp5
 70
     1
102
RTVSPropertyOp6
 70
     1
102
RTVSPropertyOp7
 70
     1
102
RTVSPropertyOp8
 70
     1
102
RTVSPropertyOp9
 70
     1
102
RTVSPropertyOp10
 70
     1
102
RTVSPropertyOp11
 70
     1
102
RTVSPropertyOp12
 70
     1
102
RTVSPropertyOp13
 70
     1
102
RTVSPropertyOp14
 70
     1
102
RTVSPropertyOp15
 70
     1
102
RTVSPropertyOp16
 70
     1
102
RTVSPropertyOp17
 70
     1
102
RTVSPropertyOp18
 70
     1
102
RTVSPropertyOp19
 70
     1
102
RTVSPropertyOp20
 70
     1
102
RTVSPropertyOp21
 70
     1
102
RTVSPropertyOp22
 70
     1
102
RTVSPropertyOp23
 70
     1
102
RTVSPropertyOp24
 70
     1
102
RTVSPropertyOp25
 70
     1
102
RTVSPropertyOp26
 70
     1
102
RTVSPropertyOp27
 70
     1
102
RTVSPropertyOp28
 70
     1
102
RTVSPropertyOp29
 70
     1
102
RTVSPropertyOp30
 70
     1
102
RTVSPropertyOp31
 70
     1
102
RTVSPropertyOp32
 70
     1
102
RTVSPropertyOp33
 70
     1
102
RTVSPropertyOp34
 70
     1
102
RTVSPropertyOp35
 70
     1
102
RTVSPropertyOp36
 70
     1
102
RTVSPropertyOp37
 70
     1
102
RTVSPropertyOp38
 70
     1
102
RTVSPropertyOp39
 70
     1
102
RTVSPropertyOp40
 70
     1
102
RTVSPropertyOp41
 70
     1
102
RTVSPropertyOp42
 70
     1
102
RTVSPropertyOp43
 70
     1
102
RTVSPropertyOp44
 70
     1
102
RTVSPropertyOp45
 70
     1
102
RTVSPropertyOp46
 70
     1
102
RTVSPropertyOp47
 70
     1
102
RTVSPropertyOp48
 70
     1
102
RTVSPropertyOp49
 70
     1
102
RTVSPropertyOp50
 70
     1
102
RTVSPropertyOp51
 70
     0
102
RTVSPropertyOp52
 70
     0
102
RTVSPropertyOp53
 70
     1
102
RTVSPropertyOp54
 70
     1
102
RTVSPropertyOp55
 70
     1
102
RTVSPropertyOp56
 70
     1
102
RTVSPropertyOp57
 70
     1
102
RTVSPropertyOp58
 70
     1
102
RTVSPropertyOp59
 70
     1
102
RTVSPropertyOp60
 70
     1
102
RTVSPropertyOp61
 70
     1
102
RTVSPropertyOp62
 70
     1
  0
XRECORD
  5
405D
102
{ACAD_REACTORS
330
405C
102
}
330
405C
100
AcDbXrecord
280
     1
102
RTVSPost2010Prop28
280
     0
102
RTVSPost2010PropOp28
 70
     1
102
RTVSPost2010Prop29
280
     1
102
RTVSPost2010PropOp29
 70
     1
102
RTVSPost2010Prop30
280
     1
102
RTVSPost2010PropOp30
 70
     1
102
RTVSPost2010Prop31
280
     0
102
RTVSPost2010PropOp31
 70
     1
102
RTVSPost2010Prop32
280
     0
102
RTVSPost2010PropOp32
 70
     1
102
RTVSPost2010Prop33
280
     0
102
RTVSPost2010PropOp33
 70
     1
102
RTVSPost2010Prop34
280
     0
102
RTVSPost2010PropOp34
 70
     1
102
RTVSPost2010Prop35
280
     0
102
RTVSPost2010PropOp35
 70
     1
102
RTVSPost2010Prop36
280
     0
102
RTVSPost2010PropOp36
 70
     1
102
RTVSPost2010Prop37
 90
       50
102
RTVSPost2010PropOp37
 70
     1
102
RTVSPost2010Prop38
140
0.0
102
RTVSPost2010PropOp38
 70
     1
102
RTVSPost2010Prop39
140
1.0
102
RTVSPost2010PropOp39
 70
     1
102
RTVSPost2010Prop40
 90
        0
102
RTVSPost2010PropOp40
 70
     1
102
RTVSPost2010Prop41ColorIndex
 90
       18
102
RTVSPost2010Prop41ColorRGB
 90
        0
102
RTVSPost2010PropOp41
 70
     1
102
RTVSPost2010Prop42
 90
       50
102
RTVSPost2010PropOp42
 70
     1
102
RTVSPost2010Prop43
 90
        3
102
RTVSPost2010PropOp43
 70
     1
102
RTVSPost2010Prop44ColorIndex
 90
        5
102
RTVSPost2010Prop44ColorRGB
 90
      255
102
RTVSPost2010PropOp44
 70
     1
102
RTVSPost2010Prop45
280
     0
102
RTVSPost2010PropOp45
 70
     1
102
RTVSPost2010Prop46
 90
       50
102
RTVSPost2010PropOp46
 70
     1
102
RTVSPost2010Prop47
 90
       50
102
RTVSPost2010PropOp47
 70
     1
102
RTVSPost2010Prop48
 90
       50
102
RTVSPost2010PropOp48
 70
     1
102
RTVSPost2010Prop49
280
     0
102
RTVSPost2010PropOp49
 70
     1
102
RTVSPost2010Prop50
 90
       50
102
RTVSPost2010PropOp50
 70
     1
102
RTVSPost2010Prop51ColorIndex
 90
      256
102
RTVSPost2010Prop51ColorRGB
 90
-16777216
102
RTVSPost2010PropOp51
 70
     0
102
RTVSPost2010Prop52
140
1.0
102
RTVSPost2010PropOp52
 70
     0
102
RTVSPost2010Prop53
 90
        2
102
RTVSPost2010PropOp53
 70
     1
102
RTVSPost2010Prop54
  1
strokes_ogs.tif
102
RTVSPost2010PropOp54
 70
     1
102
RTVSPost2010Prop55
280
     0
102
RTVSPost2010PropOp55
 70
     1
102
RTVSPost2010Prop56
140
1.0
102
RTVSPost2010PropOp56
 70
     1
102
RTVSPost2010Prop57
140
1.0
102
RTVSPost2010PropOp57
 70
     1
102
RTVSPropertyOp0
 70
     0
102
RTVSPropertyOp1
 70
     0
102
RTVSPropertyOp2
 70
     0
102
RTVSPropertyOp3
 70
     0
102
RTVSPropertyOp4
 70
     0
102
RTVSPropertyOp5
 70
     0
102
RTVSPropertyOp6
 70
     0
102
RTVSPropertyOp7
 70
     0
102
RTVSPropertyOp8
 70
     0
102
RTVSPropertyOp9
 70
     0
102
RTVSPropertyOp10
 70
     0
102
RTVSPropertyOp11
 70
     0
102
RTVSPropertyOp12
 70
     0
102
RTVSPropertyOp13
 70
     0
102
RTVSPropertyOp14
 70
     2
102
RTVSPropertyOp15
 70
     0
102
RTVSPropertyOp16
 70
     0
102
RTVSPropertyOp17
 70
     0
102
RTVSPropertyOp18
 70
     0
102
RTVSPropertyOp19
 70
     0
102
RTVSPropertyOp20
 70
     0
102
RTVSPropertyOp21
 70
     0
102
RTVSPropertyOp22
 70
     0
102
RTVSPropertyOp23
 70
     0
102
RTVSPropertyOp24
 70
     0
102
RTVSPropertyOp25
 70
     0
102
RTVSPropertyOp26
 70
     0
102
RTVSPropertyOp27
 70
     0
102
RTVSPropertyOp28
 70
     1
102
RTVSPropertyOp29
 70
     1
102
RTVSPropertyOp30
 70
     1
102
RTVSPropertyOp31
 70
     1
102
RTVSPropertyOp32
 70
     1
102
RTVSPropertyOp33
 70
     1
102
RTVSPropertyOp34
 70
     1
102
RTVSPropertyOp35
 70
     1
102
RTVSPropertyOp36
 70
     1
102
RTVSPropertyOp37
 70
     1
102
RTVSPropertyOp38
 70
     1
102
RTVSPropertyOp39
 70
     1
102
RTVSPropertyOp40
 70
     1
102
RTVSPropertyOp41
 70
     1
102
RTVSPropertyOp42
 70
     1
102
RTVSPropertyOp43
 70
     1
102
RTVSPropertyOp44
 70
     1
102
RTVSPropertyOp45
 70
     1
102
RTVSPropertyOp46
 70
     1
102
RTVSPropertyOp47
 70
     1
102
RTVSPropertyOp48
 70
     1
102
RTVSPropertyOp49
 70
     1
102
RTVSPropertyOp50
 70
     1
102
RTVSPropertyOp51
 70
     0
102
RTVSPropertyOp52
 70
     0
102
RTVSPropertyOp53
 70
     1
102
RTVSPropertyOp54
 70
     1
102
RTVSPropertyOp55
 70
     1
102
RTVSPropertyOp56
 70
     1
102
RTVSPropertyOp57
 70
     1
102
RTVSPropertyOp58
 70
     1
102
RTVSPropertyOp59
 70
     1
102
RTVSPropertyOp60
 70
     1
102
RTVSPropertyOp61
 70
     1
102
RTVSPropertyOp62
 70
     1
  0
XRECORD
  5
4053
102
{ACAD_REACTORS
330
4052
102
}
330
4052
100
AcDbXrecord
280
     1
102
RTVSPost2010Prop28
280
     0
102
RTVSPost2010PropOp28
 70
     1
102
RTVSPost2010Prop29
280
     1
102
RTVSPost2010PropOp29
 70
     1
102
RTVSPost2010Prop30
280
     1
102
RTVSPost2010PropOp30
 70
     1
102
RTVSPost2010Prop31
280
     0
102
RTVSPost2010PropOp31
 70
     1
102
RTVSPost2010Prop32
280
     0
102
RTVSPost2010PropOp32
 70
     1
102
RTVSPost2010Prop33
280
     0
102
RTVSPost2010PropOp33
 70
     1
102
RTVSPost2010Prop34
280
     0
102
RTVSPost2010PropOp34
 70
     1
102
RTVSPost2010Prop35
280
     0
102
RTVSPost2010PropOp35
 70
     1
102
RTVSPost2010Prop36
280
     0
102
RTVSPost2010PropOp36
 70
     1
102
RTVSPost2010Prop37
 90
       50
102
RTVSPost2010PropOp37
 70
     1
102
RTVSPost2010Prop38
140
0.0
102
RTVSPost2010PropOp38
 70
     1
102
RTVSPost2010Prop39
140
1.0
102
RTVSPost2010PropOp39
 70
     1
102
RTVSPost2010Prop40
 90
        0
102
RTVSPost2010PropOp40
 70
     1
102
RTVSPost2010Prop41ColorIndex
 90
       18
102
RTVSPost2010Prop41ColorRGB
 90
        0
102
RTVSPost2010PropOp41
 70
     1
102
RTVSPost2010Prop42
 90
       50
102
RTVSPost2010PropOp42
 70
     1
102
RTVSPost2010Prop43
 90
        3
102
RTVSPost2010PropOp43
 70
     1
102
RTVSPost2010Prop44ColorIndex
 90
        5
102
RTVSPost2010Prop44ColorRGB
 90
      255
102
RTVSPost2010PropOp44
 70
     1
102
RTVSPost2010Prop45
280
     0
102
RTVSPost2010PropOp45
 70
     1
102
RTVSPost2010Prop46
 90
       50
102
RTVSPost2010PropOp46
 70
     1
102
RTVSPost2010Prop47
 90
       50
102
RTVSPost2010PropOp47
 70
     1
102
RTVSPost2010Prop48
 90
       50
102
RTVSPost2010PropOp48
 70
     1
102
RTVSPost2010Prop49
280
     0
102
RTVSPost2010PropOp49
 70
     1
102
RTVSPost2010Prop50
 90
       50
102
RTVSPost2010PropOp50
 70
     1
102
RTVSPost2010Prop51ColorIndex
 90
      256
102
RTVSPost2010Prop51ColorRGB
 90
-16777216
102
RTVSPost2010PropOp51
 70
     0
102
RTVSPost2010Prop52
140
1.0
102
RTVSPost2010PropOp52
 70
     0
102
RTVSPost2010Prop53
 90
        2
102
RTVSPost2010PropOp53
 70
     1
102
RTVSPost2010Prop54
  1
strokes_ogs.tif
102
RTVSPost2010PropOp54
 70
     1
102
RTVSPost2010Prop55
280
     0
102
RTVSPost2010PropOp55
 70
     1
102
RTVSPost2010Prop56
140
1.0
102
RTVSPost2010PropOp56
 70
     1
102
RTVSPost2010Prop57
140
1.0
102
RTVSPost2010PropOp57
 70
     1
102
RTVSPropertyOp0
 70
     1
102
RTVSPropertyOp1
 70
     1
102
RTVSPropertyOp2
 70
     1
102
RTVSPropertyOp3
 70
     1
102
RTVSPropertyOp4
 70
     1
102
RTVSPropertyOp5
 70
     1
102
RTVSPropertyOp6
 70
     1
102
RTVSPropertyOp7
 70
     1
102
RTVSPropertyOp8
 70
     1
102
RTVSPropertyOp9
 70
     1
102
RTVSPropertyOp10
 70
     1
102
RTVSPropertyOp11
 70
     1
102
RTVSPropertyOp12
 70
     1
102
RTVSPropertyOp13
 70
     1
102
RTVSPropertyOp14
 70
     1
102
RTVSPropertyOp15
 70
     1
102
RTVSPropertyOp16
 70
     1
102
RTVSPropertyOp17
 70
     1
102
RTVSPropertyOp18
 70
     1
102
RTVSPropertyOp19
 70
     1
102
RTVSPropertyOp20
 70
     1
102
RTVSPropertyOp21
 70
     1
102
RTVSPropertyOp22
 70
     1
102
RTVSPropertyOp23
 70
     1
102
RTVSPropertyOp24
 70
     1
102
RTVSPropertyOp25
 70
     1
102
RTVSPropertyOp26
 70
     1
102
RTVSPropertyOp27
 70
     1
102
RTVSPropertyOp28
 70
     1
102
RTVSPropertyOp29
 70
     1
102
RTVSPropertyOp30
 70
     1
102
RTVSPropertyOp31
 70
     1
102
RTVSPropertyOp32
 70
     1
102
RTVSPropertyOp33
 70
     1
102
RTVSPropertyOp34
 70
     1
102
RTVSPropertyOp35
 70
     1
102
RTVSPropertyOp36
 70
     1
102
RTVSPropertyOp37
 70
     1
102
RTVSPropertyOp38
 70
     1
102
RTVSPropertyOp39
 70
     1
102
RTVSPropertyOp40
 70
     1
102
RTVSPropertyOp41
 70
     1
102
RTVSPropertyOp42
 70
     1
102
RTVSPropertyOp43
 70
     1
102
RTVSPropertyOp44
 70
     1
102
RTVSPropertyOp45
 70
     1
102
RTVSPropertyOp46
 70
     1
102
RTVSPropertyOp47
 70
     1
102
RTVSPropertyOp48
 70
     1
102
RTVSPropertyOp49
 70
     1
102
RTVSPropertyOp50
 70
     1
102
RTVSPropertyOp51
 70
     0
102
RTVSPropertyOp52
 70
     0
102
RTVSPropertyOp53
 70
     1
102
RTVSPropertyOp54
 70
     1
102
RTVSPropertyOp55
 70
     1
102
RTVSPropertyOp56
 70
     1
102
RTVSPropertyOp57
 70
     1
102
RTVSPropertyOp58
 70
     1
102
RTVSPropertyOp59
 70
     1
102
RTVSPropertyOp60
 70
     1
102
RTVSPropertyOp61
 70
     1
102
RTVSPropertyOp62
 70
     1
  0
XRECORD
  5
403D
102
{ACAD_REACTORS
330
403C
102
}
330
403C
100
AcDbXrecord
280
     1
102
RTVSPost2010Prop28
280
     0
102
RTVSPost2010PropOp28
 70
     1
102
RTVSPost2010Prop29
280
     1
102
RTVSPost2010PropOp29
 70
     1
102
RTVSPost2010Prop30
280
     1
102
RTVSPost2010PropOp30
 70
     1
102
RTVSPost2010Prop31
280
     0
102
RTVSPost2010PropOp31
 70
     1
102
RTVSPost2010Prop32
280
     0
102
RTVSPost2010PropOp32
 70
     1
102
RTVSPost2010Prop33
280
     0
102
RTVSPost2010PropOp33
 70
     1
102
RTVSPost2010Prop34
280
     0
102
RTVSPost2010PropOp34
 70
     1
102
RTVSPost2010Prop35
280
     0
102
RTVSPost2010PropOp35
 70
     1
102
RTVSPost2010Prop36
280
     0
102
RTVSPost2010PropOp36
 70
     1
102
RTVSPost2010Prop37
 90
       50
102
RTVSPost2010PropOp37
 70
     1
102
RTVSPost2010Prop38
140
0.0
102
RTVSPost2010PropOp38
 70
     1
102
RTVSPost2010Prop39
140
1.0
102
RTVSPost2010PropOp39
 70
     1
102
RTVSPost2010Prop40
 90
        0
102
RTVSPost2010PropOp40
 70
     1
102
RTVSPost2010Prop41ColorIndex
 90
       18
102
RTVSPost2010Prop41ColorRGB
 90
        0
102
RTVSPost2010PropOp41
 70
     1
102
RTVSPost2010Prop42
 90
       50
102
RTVSPost2010PropOp42
 70
     1
102
RTVSPost2010Prop43
 90
        3
102
RTVSPost2010PropOp43
 70
     1
102
RTVSPost2010Prop44ColorIndex
 90
        5
102
RTVSPost2010Prop44ColorRGB
 90
      255
102
RTVSPost2010PropOp44
 70
     1
102
RTVSPost2010Prop45
280
     0
102
RTVSPost2010PropOp45
 70
     1
102
RTVSPost2010Prop46
 90
       50
102
RTVSPost2010PropOp46
 70
     1
102
RTVSPost2010Prop47
 90
       50
102
RTVSPost2010PropOp47
 70
     1
102
RTVSPost2010Prop48
 90
       50
102
RTVSPost2010PropOp48
 70
     1
102
RTVSPost2010Prop49
280
     0
102
RTVSPost2010PropOp49
 70
     1
102
RTVSPost2010Prop50
 90
       50
102
RTVSPost2010PropOp50
 70
     1
102
RTVSPost2010Prop51ColorIndex
 90
      256
102
RTVSPost2010Prop51ColorRGB
 90
-16777216
102
RTVSPost2010PropOp51
 70
     0
102
RTVSPost2010Prop52
140
1.0
102
RTVSPost2010PropOp52
 70
     0
102
RTVSPost2010Prop53
 90
        2
102
RTVSPost2010PropOp53
 70
     1
102
RTVSPost2010Prop54
  1
strokes_ogs.tif
102
RTVSPost2010PropOp54
 70
     1
102
RTVSPost2010Prop55
280
     0
102
RTVSPost2010PropOp55
 70
     1
102
RTVSPost2010Prop56
140
1.0
102
RTVSPost2010PropOp56
 70
     1
102
RTVSPost2010Prop57
140
1.0
102
RTVSPost2010PropOp57
 70
     1
102
RTVSPropertyOp0
 70
     1
102
RTVSPropertyOp1
 70
     1
102
RTVSPropertyOp2
 70
     1
102
RTVSPropertyOp3
 70
     1
102
RTVSPropertyOp4
 70
     1
102
RTVSPropertyOp5
 70
     1
102
RTVSPropertyOp6
 70
     1
102
RTVSPropertyOp7
 70
     1
102
RTVSPropertyOp8
 70
     1
102
RTVSPropertyOp9
 70
     1
102
RTVSPropertyOp10
 70
     1
102
RTVSPropertyOp11
 70
     1
102
RTVSPropertyOp12
 70
     1
102
RTVSPropertyOp13
 70
     1
102
RTVSPropertyOp14
 70
     1
102
RTVSPropertyOp15
 70
     1
102
RTVSPropertyOp16
 70
     1
102
RTVSPropertyOp17
 70
     1
102
RTVSPropertyOp18
 70
     1
102
RTVSPropertyOp19
 70
     1
102
RTVSPropertyOp20
 70
     1
102
RTVSPropertyOp21
 70
     1
102
RTVSPropertyOp22
 70
     1
102
RTVSPropertyOp23
 70
     1
102
RTVSPropertyOp24
 70
     1
102
RTVSPropertyOp25
 70
     1
102
RTVSPropertyOp26
 70
     1
102
RTVSPropertyOp27
 70
     1
102
RTVSPropertyOp28
 70
     1
102
RTVSPropertyOp29
 70
     1
102
RTVSPropertyOp30
 70
     1
102
RTVSPropertyOp31
 70
     1
102
RTVSPropertyOp32
 70
     1
102
RTVSPropertyOp33
 70
     1
102
RTVSPropertyOp34
 70
     1
102
RTVSPropertyOp35
 70
     1
102
RTVSPropertyOp36
 70
     1
102
RTVSPropertyOp37
 70
     1
102
RTVSPropertyOp38
 70
     1
102
RTVSPropertyOp39
 70
     1
102
RTVSPropertyOp40
 70
     1
102
RTVSPropertyOp41
 70
     1
102
RTVSPropertyOp42
 70
     1
102
RTVSPropertyOp43
 70
     1
102
RTVSPropertyOp44
 70
     1
102
RTVSPropertyOp45
 70
     1
102
RTVSPropertyOp46
 70
     1
102
RTVSPropertyOp47
 70
     1
102
RTVSPropertyOp48
 70
     1
102
RTVSPropertyOp49
 70
     1
102
RTVSPropertyOp50
 70
     1
102
RTVSPropertyOp51
 70
     0
102
RTVSPropertyOp52
 70
     0
102
RTVSPropertyOp53
 70
     1
102
RTVSPropertyOp54
 70
     1
102
RTVSPropertyOp55
 70
     1
102
RTVSPropertyOp56
 70
     1
102
RTVSPropertyOp57
 70
     1
102
RTVSPropertyOp58
 70
     1
102
RTVSPropertyOp59
 70
     1
102
RTVSPropertyOp60
 70
     1
102
RTVSPropertyOp61
 70
     1
102
RTVSPropertyOp62
 70
     1
  0
XRECORD
  5
403F
102
{ACAD_REACTORS
330
403E
102
}
330
403E
100
AcDbXrecord
280
     1
102
RTVSPost2010Prop28
280
     0
102
RTVSPost2010PropOp28
 70
     1
102
RTVSPost2010Prop29
280
     1
102
RTVSPost2010PropOp29
 70
     1
102
RTVSPost2010Prop30
280
     1
102
RTVSPost2010PropOp30
 70
     1
102
RTVSPost2010Prop31
280
     0
102
RTVSPost2010PropOp31
 70
     1
102
RTVSPost2010Prop32
280
     0
102
RTVSPost2010PropOp32
 70
     1
102
RTVSPost2010Prop33
280
     0
102
RTVSPost2010PropOp33
 70
     1
102
RTVSPost2010Prop34
280
     0
102
RTVSPost2010PropOp34
 70
     1
102
RTVSPost2010Prop35
280
     0
102
RTVSPost2010PropOp35
 70
     1
102
RTVSPost2010Prop36
280
     0
102
RTVSPost2010PropOp36
 70
     1
102
RTVSPost2010Prop37
 90
       50
102
RTVSPost2010PropOp37
 70
     1
102
RTVSPost2010Prop38
140
0.0
102
RTVSPost2010PropOp38
 70
     1
102
RTVSPost2010Prop39
140
1.0
102
RTVSPost2010PropOp39
 70
     1
102
RTVSPost2010Prop40
 90
        0
102
RTVSPost2010PropOp40
 70
     1
102
RTVSPost2010Prop41ColorIndex
 90
       18
102
RTVSPost2010Prop41ColorRGB
 90
        0
102
RTVSPost2010PropOp41
 70
     1
102
RTVSPost2010Prop42
 90
       50
102
RTVSPost2010PropOp42
 70
     1
102
RTVSPost2010Prop43
 90
        3
102
RTVSPost2010PropOp43
 70
     1
102
RTVSPost2010Prop44ColorIndex
 90
        5
102
RTVSPost2010Prop44ColorRGB
 90
      255
102
RTVSPost2010PropOp44
 70
     1
102
RTVSPost2010Prop45
280
     0
102
RTVSPost2010PropOp45
 70
     1
102
RTVSPost2010Prop46
 90
       50
102
RTVSPost2010PropOp46
 70
     1
102
RTVSPost2010Prop47
 90
       50
102
RTVSPost2010PropOp47
 70
     1
102
RTVSPost2010Prop48
 90
       50
102
RTVSPost2010PropOp48
 70
     1
102
RTVSPost2010Prop49
280
     0
102
RTVSPost2010PropOp49
 70
     1
102
RTVSPost2010Prop50
 90
       50
102
RTVSPost2010PropOp50
 70
     1
102
RTVSPost2010Prop51ColorIndex
 90
      256
102
RTVSPost2010Prop51ColorRGB
 90
-16777216
102
RTVSPost2010PropOp51
 70
     0
102
RTVSPost2010Prop52
140
1.0
102
RTVSPost2010PropOp52
 70
     0
102
RTVSPost2010Prop53
 90
        2
102
RTVSPost2010PropOp53
 70
     1
102
RTVSPost2010Prop54
  1
strokes_ogs.tif
102
RTVSPost2010PropOp54
 70
     1
102
RTVSPost2010Prop55
280
     0
102
RTVSPost2010PropOp55
 70
     1
102
RTVSPost2010Prop56
140
1.0
102
RTVSPost2010PropOp56
 70
     1
102
RTVSPost2010Prop57
140
1.0
102
RTVSPost2010PropOp57
 70
     1
102
RTVSPropertyOp0
 70
     1
102
RTVSPropertyOp1
 70
     1
102
RTVSPropertyOp2
 70
     1
102
RTVSPropertyOp3
 70
     1
102
RTVSPropertyOp4
 70
     1
102
RTVSPropertyOp5
 70
     1
102
RTVSPropertyOp6
 70
     1
102
RTVSPropertyOp7
 70
     1
102
RTVSPropertyOp8
 70
     1
102
RTVSPropertyOp9
 70
     1
102
RTVSPropertyOp10
 70
     1
102
RTVSPropertyOp11
 70
     1
102
RTVSPropertyOp12
 70
     1
102
RTVSPropertyOp13
 70
     1
102
RTVSPropertyOp14
 70
     1
102
RTVSPropertyOp15
 70
     1
102
RTVSPropertyOp16
 70
     1
102
RTVSPropertyOp17
 70
     1
102
RTVSPropertyOp18
 70
     1
102
RTVSPropertyOp19
 70
     1
102
RTVSPropertyOp20
 70
     1
102
RTVSPropertyOp21
 70
     1
102
RTVSPropertyOp22
 70
     1
102
RTVSPropertyOp23
 70
     1
102
RTVSPropertyOp24
 70
     1
102
RTVSPropertyOp25
 70
     1
102
RTVSPropertyOp26
 70
     1
102
RTVSPropertyOp27
 70
     1
102
RTVSPropertyOp28
 70
     1
102
RTVSPropertyOp29
 70
     1
102
RTVSPropertyOp30
 70
     1
102
RTVSPropertyOp31
 70
     1
102
RTVSPropertyOp32
 70
     1
102
RTVSPropertyOp33
 70
     1
102
RTVSPropertyOp34
 70
     1
102
RTVSPropertyOp35
 70
     1
102
RTVSPropertyOp36
 70
     1
102
RTVSPropertyOp37
 70
     1
102
RTVSPropertyOp38
 70
     1
102
RTVSPropertyOp39
 70
     1
102
RTVSPropertyOp40
 70
     1
102
RTVSPropertyOp41
 70
     1
102
RTVSPropertyOp42
 70
     1
102
RTVSPropertyOp43
 70
     1
102
RTVSPropertyOp44
 70
     1
102
RTVSPropertyOp45
 70
     1
102
RTVSPropertyOp46
 70
     1
102
RTVSPropertyOp47
 70
     1
102
RTVSPropertyOp48
 70
     1
102
RTVSPropertyOp49
 70
     1
102
RTVSPropertyOp50
 70
     1
102
RTVSPropertyOp51
 70
     0
102
RTVSPropertyOp52
 70
     0
102
RTVSPropertyOp53
 70
     1
102
RTVSPropertyOp54
 70
     1
102
RTVSPropertyOp55
 70
     1
102
RTVSPropertyOp56
 70
     1
102
RTVSPropertyOp57
 70
     1
102
RTVSPropertyOp58
 70
     1
102
RTVSPropertyOp59
 70
     1
102
RTVSPropertyOp60
 70
     1
102
RTVSPropertyOp61
 70
     1
102
RTVSPropertyOp62
 70
     1
  0
XRECORD
  5
4041
102
{ACAD_REACTORS
330
4040
102
}
330
4040
100
AcDbXrecord
280
     1
102
RTVSPost2010Prop28
280
     0
102
RTVSPost2010PropOp28
 70
     1
102
RTVSPost2010Prop29
280
     1
102
RTVSPost2010PropOp29
 70
     1
102
RTVSPost2010Prop30
280
     1
102
RTVSPost2010PropOp30
 70
     1
102
RTVSPost2010Prop31
280
     0
102
RTVSPost2010PropOp31
 70
     1
102
RTVSPost2010Prop32
280
     0
102
RTVSPost2010PropOp32
 70
     1
102
RTVSPost2010Prop33
280
     0
102
RTVSPost2010PropOp33
 70
     1
102
RTVSPost2010Prop34
280
     0
102
RTVSPost2010PropOp34
 70
     1
102
RTVSPost2010Prop35
280
     0
102
RTVSPost2010PropOp35
 70
     1
102
RTVSPost2010Prop36
280
     0
102
RTVSPost2010PropOp36
 70
     1
102
RTVSPost2010Prop37
 90
       50
102
RTVSPost2010PropOp37
 70
     1
102
RTVSPost2010Prop38
140
0.0
102
RTVSPost2010PropOp38
 70
     1
102
RTVSPost2010Prop39
140
1.0
102
RTVSPost2010PropOp39
 70
     1
102
RTVSPost2010Prop40
 90
        0
102
RTVSPost2010PropOp40
 70
     1
102
RTVSPost2010Prop41ColorIndex
 90
       18
102
RTVSPost2010Prop41ColorRGB
 90
        0
102
RTVSPost2010PropOp41
 70
     1
102
RTVSPost2010Prop42
 90
       50
102
RTVSPost2010PropOp42
 70
     1
102
RTVSPost2010Prop43
 90
        3
102
RTVSPost2010PropOp43
 70
     1
102
RTVSPost2010Prop44ColorIndex
 90
        5
102
RTVSPost2010Prop44ColorRGB
 90
      255
102
RTVSPost2010PropOp44
 70
     1
102
RTVSPost2010Prop45
280
     0
102
RTVSPost2010PropOp45
 70
     1
102
RTVSPost2010Prop46
 90
       50
102
RTVSPost2010PropOp46
 70
     1
102
RTVSPost2010Prop47
 90
       50
102
RTVSPost2010PropOp47
 70
     1
102
RTVSPost2010Prop48
 90
       50
102
RTVSPost2010PropOp48
 70
     1
102
RTVSPost2010Prop49
280
     0
102
RTVSPost2010PropOp49
 70
     1
102
RTVSPost2010Prop50
 90
       50
102
RTVSPost2010PropOp50
 70
     1
102
RTVSPost2010Prop51ColorIndex
 90
      256
102
RTVSPost2010Prop51ColorRGB
 90
-16777216
102
RTVSPost2010PropOp51
 70
     0
102
RTVSPost2010Prop52
140
1.0
102
RTVSPost2010PropOp52
 70
     0
102
RTVSPost2010Prop53
 90
        2
102
RTVSPost2010PropOp53
 70
     1
102
RTVSPost2010Prop54
  1
strokes_ogs.tif
102
RTVSPost2010PropOp54
 70
     1
102
RTVSPost2010Prop55
280
     0
102
RTVSPost2010PropOp55
 70
     1
102
RTVSPost2010Prop56
140
1.0
102
RTVSPost2010PropOp56
 70
     1
102
RTVSPost2010Prop57
140
1.0
102
RTVSPost2010PropOp57
 70
     1
102
RTVSPropertyOp0
 70
     1
102
RTVSPropertyOp1
 70
     1
102
RTVSPropertyOp2
 70
     1
102
RTVSPropertyOp3
 70
     1
102
RTVSPropertyOp4
 70
     1
102
RTVSPropertyOp5
 70
     1
102
RTVSPropertyOp6
 70
     1
102
RTVSPropertyOp7
 70
     1
102
RTVSPropertyOp8
 70
     1
102
RTVSPropertyOp9
 70
     1
102
RTVSPropertyOp10
 70
     1
102
RTVSPropertyOp11
 70
     1
102
RTVSPropertyOp12
 70
     1
102
RTVSPropertyOp13
 70
     1
102
RTVSPropertyOp14
 70
     1
102
RTVSPropertyOp15
 70
     1
102
RTVSPropertyOp16
 70
     1
102
RTVSPropertyOp17
 70
     1
102
RTVSPropertyOp18
 70
     1
102
RTVSPropertyOp19
 70
     1
102
RTVSPropertyOp20
 70
     1
102
RTVSPropertyOp21
 70
     1
102
RTVSPropertyOp22
 70
     1
102
RTVSPropertyOp23
 70
     1
102
RTVSPropertyOp24
 70
     1
102
RTVSPropertyOp25
 70
     1
102
RTVSPropertyOp26
 70
     1
102
RTVSPropertyOp27
 70
     1
102
RTVSPropertyOp28
 70
     1
102
RTVSPropertyOp29
 70
     1
102
RTVSPropertyOp30
 70
     1
102
RTVSPropertyOp31
 70
     1
102
RTVSPropertyOp32
 70
     1
102
RTVSPropertyOp33
 70
     1
102
RTVSPropertyOp34
 70
     1
102
RTVSPropertyOp35
 70
     1
102
RTVSPropertyOp36
 70
     1
102
RTVSPropertyOp37
 70
     1
102
RTVSPropertyOp38
 70
     1
102
RTVSPropertyOp39
 70
     1
102
RTVSPropertyOp40
 70
     1
102
RTVSPropertyOp41
 70
     1
102
RTVSPropertyOp42
 70
     1
102
RTVSPropertyOp43
 70
     1
102
RTVSPropertyOp44
 70
     1
102
RTVSPropertyOp45
 70
     1
102
RTVSPropertyOp46
 70
     1
102
RTVSPropertyOp47
 70
     1
102
RTVSPropertyOp48
 70
     1
102
RTVSPropertyOp49
 70
     1
102
RTVSPropertyOp50
 70
     1
102
RTVSPropertyOp51
 70
     0
102
RTVSPropertyOp52
 70
     0
102
RTVSPropertyOp53
 70
     1
102
RTVSPropertyOp54
 70
     1
102
RTVSPropertyOp55
 70
     1
102
RTVSPropertyOp56
 70
     1
102
RTVSPropertyOp57
 70
     1
102
RTVSPropertyOp58
 70
     1
102
RTVSPropertyOp59
 70
     1
102
RTVSPropertyOp60
 70
     1
102
RTVSPropertyOp61
 70
     1
102
RTVSPropertyOp62
 70
     1
  0
XRECORD
  5
4043
102
{ACAD_REACTORS
330
4042
102
}
330
4042
100
AcDbXrecord
280
     1
102
RTVSPost2010Prop28
280
     0
102
RTVSPost2010PropOp28
 70
     1
102
RTVSPost2010Prop29
280
     1
102
RTVSPost2010PropOp29
 70
     1
102
RTVSPost2010Prop30
280
     1
102
RTVSPost2010PropOp30
 70
     1
102
RTVSPost2010Prop31
280
     0
102
RTVSPost2010PropOp31
 70
     1
102
RTVSPost2010Prop32
280
     0
102
RTVSPost2010PropOp32
 70
     1
102
RTVSPost2010Prop33
280
     0
102
RTVSPost2010PropOp33
 70
     1
102
RTVSPost2010Prop34
280
     0
102
RTVSPost2010PropOp34
 70
     1
102
RTVSPost2010Prop35
280
     0
102
RTVSPost2010PropOp35
 70
     1
102
RTVSPost2010Prop36
280
     0
102
RTVSPost2010PropOp36
 70
     1
102
RTVSPost2010Prop37
 90
       50
102
RTVSPost2010PropOp37
 70
     1
102
RTVSPost2010Prop38
140
0.0
102
RTVSPost2010PropOp38
 70
     1
102
RTVSPost2010Prop39
140
1.0
102
RTVSPost2010PropOp39
 70
     1
102
RTVSPost2010Prop40
 90
        0
102
RTVSPost2010PropOp40
 70
     1
102
RTVSPost2010Prop41ColorIndex
 90
       18
102
RTVSPost2010Prop41ColorRGB
 90
        0
102
RTVSPost2010PropOp41
 70
     1
102
RTVSPost2010Prop42
 90
       50
102
RTVSPost2010PropOp42
 70
     1
102
RTVSPost2010Prop43
 90
        3
102
RTVSPost2010PropOp43
 70
     1
102
RTVSPost2010Prop44ColorIndex
 90
        5
102
RTVSPost2010Prop44ColorRGB
 90
      255
102
RTVSPost2010PropOp44
 70
     1
102
RTVSPost2010Prop45
280
     0
102
RTVSPost2010PropOp45
 70
     1
102
RTVSPost2010Prop46
 90
       50
102
RTVSPost2010PropOp46
 70
     1
102
RTVSPost2010Prop47
 90
       50
102
RTVSPost2010PropOp47
 70
     1
102
RTVSPost2010Prop48
 90
       50
102
RTVSPost2010PropOp48
 70
     1
102
RTVSPost2010Prop49
280
     0
102
RTVSPost2010PropOp49
 70
     1
102
RTVSPost2010Prop50
 90
       50
102
RTVSPost2010PropOp50
 70
     1
102
RTVSPost2010Prop51ColorIndex
 90
      256
102
RTVSPost2010Prop51ColorRGB
 90
-16777216
102
RTVSPost2010PropOp51
 70
     0
102
RTVSPost2010Prop52
140
1.0
102
RTVSPost2010PropOp52
 70
     0
102
RTVSPost2010Prop53
 90
        2
102
RTVSPost2010PropOp53
 70
     1
102
RTVSPost2010Prop54
  1
strokes_ogs.tif
102
RTVSPost2010PropOp54
 70
     1
102
RTVSPost2010Prop55
280
     0
102
RTVSPost2010PropOp55
 70
     1
102
RTVSPost2010Prop56
140
1.0
102
RTVSPost2010PropOp56
 70
     1
102
RTVSPost2010Prop57
140
1.0
102
RTVSPost2010PropOp57
 70
     1
102
RTVSPropertyOp0
 70
     1
102
RTVSPropertyOp1
 70
     1
102
RTVSPropertyOp2
 70
     1
102
RTVSPropertyOp3
 70
     1
102
RTVSPropertyOp4
 70
     1
102
RTVSPropertyOp5
 70
     1
102
RTVSPropertyOp6
 70
     1
102
RTVSPropertyOp7
 70
     1
102
RTVSPropertyOp8
 70
     1
102
RTVSPropertyOp9
 70
     1
102
RTVSPropertyOp10
 70
     1
102
RTVSPropertyOp11
 70
     1
102
RTVSPropertyOp12
 70
     1
102
RTVSPropertyOp13
 70
     1
102
RTVSPropertyOp14
 70
     1
102
RTVSPropertyOp15
 70
     1
102
RTVSPropertyOp16
 70
     1
102
RTVSPropertyOp17
 70
     1
102
RTVSPropertyOp18
 70
     1
102
RTVSPropertyOp19
 70
     1
102
RTVSPropertyOp20
 70
     1
102
RTVSPropertyOp21
 70
     1
102
RTVSPropertyOp22
 70
     1
102
RTVSPropertyOp23
 70
     1
102
RTVSPropertyOp24
 70
     1
102
RTVSPropertyOp25
 70
     1
102
RTVSPropertyOp26
 70
     1
102
RTVSPropertyOp27
 70
     1
102
RTVSPropertyOp28
 70
     1
102
RTVSPropertyOp29
 70
     1
102
RTVSPropertyOp30
 70
     1
102
RTVSPropertyOp31
 70
     1
102
RTVSPropertyOp32
 70
     1
102
RTVSPropertyOp33
 70
     1
102
RTVSPropertyOp34
 70
     1
102
RTVSPropertyOp35
 70
     1
102
RTVSPropertyOp36
 70
     1
102
RTVSPropertyOp37
 70
     1
102
RTVSPropertyOp38
 70
     1
102
RTVSPropertyOp39
 70
     1
102
RTVSPropertyOp40
 70
     1
102
RTVSPropertyOp41
 70
     1
102
RTVSPropertyOp42
 70
     1
102
RTVSPropertyOp43
 70
     1
102
RTVSPropertyOp44
 70
     1
102
RTVSPropertyOp45
 70
     1
102
RTVSPropertyOp46
 70
     1
102
RTVSPropertyOp47
 70
     1
102
RTVSPropertyOp48
 70
     1
102
RTVSPropertyOp49
 70
     1
102
RTVSPropertyOp50
 70
     1
102
RTVSPropertyOp51
 70
     0
102
RTVSPropertyOp52
 70
     0
102
RTVSPropertyOp53
 70
     1
102
RTVSPropertyOp54
 70
     1
102
RTVSPropertyOp55
 70
     1
102
RTVSPropertyOp56
 70
     1
102
RTVSPropertyOp57
 70
     1
102
RTVSPropertyOp58
 70
     1
102
RTVSPropertyOp59
 70
     1
102
RTVSPropertyOp60
 70
     1
102
RTVSPropertyOp61
 70
     1
102
RTVSPropertyOp62
 70
     1
  0
XRECORD
  5
4061
102
{ACAD_REACTORS
330
4060
102
}
330
4060
100
AcDbXrecord
280
     1
102
RTVSPost2010Prop28
280
     0
102
RTVSPost2010PropOp28
 70
     1
102
RTVSPost2010Prop29
280
     1
102
RTVSPost2010PropOp29
 70
     1
102
RTVSPost2010Prop30
280
     1
102
RTVSPost2010PropOp30
 70
     1
102
RTVSPost2010Prop31
280
     0
102
RTVSPost2010PropOp31
 70
     1
102
RTVSPost2010Prop32
280
     0
102
RTVSPost2010PropOp32
 70
     1
102
RTVSPost2010Prop33
280
     0
102
RTVSPost2010PropOp33
 70
     1
102
RTVSPost2010Prop34
280
     0
102
RTVSPost2010PropOp34
 70
     1
102
RTVSPost2010Prop35
280
     0
102
RTVSPost2010PropOp35
 70
     1
102
RTVSPost2010Prop36
280
     0
102
RTVSPost2010PropOp36
 70
     1
102
RTVSPost2010Prop37
 90
       50
102
RTVSPost2010PropOp37
 70
     1
102
RTVSPost2010Prop38
140
0.0
102
RTVSPost2010PropOp38
 70
     1
102
RTVSPost2010Prop39
140
1.0
102
RTVSPost2010PropOp39
 70
     1
102
RTVSPost2010Prop40
 90
        0
102
RTVSPost2010PropOp40
 70
     1
102
RTVSPost2010Prop41ColorIndex
 90
       18
102
RTVSPost2010Prop41ColorRGB
 90
        0
102
RTVSPost2010PropOp41
 70
     1
102
RTVSPost2010Prop42
 90
       50
102
RTVSPost2010PropOp42
 70
     1
102
RTVSPost2010Prop43
 90
        3
102
RTVSPost2010PropOp43
 70
     1
102
RTVSPost2010Prop44ColorIndex
 90
        5
102
RTVSPost2010Prop44ColorRGB
 90
      255
102
RTVSPost2010PropOp44
 70
     1
102
RTVSPost2010Prop45
280
     0
102
RTVSPost2010PropOp45
 70
     1
102
RTVSPost2010Prop46
 90
       50
102
RTVSPost2010PropOp46
 70
     1
102
RTVSPost2010Prop47
 90
       50
102
RTVSPost2010PropOp47
 70
     1
102
RTVSPost2010Prop48
 90
       50
102
RTVSPost2010PropOp48
 70
     1
102
RTVSPost2010Prop49
280
     0
102
RTVSPost2010PropOp49
 70
     1
102
RTVSPost2010Prop50
 90
       50
102
RTVSPost2010PropOp50
 70
     1
102
RTVSPost2010Prop51ColorIndex
 90
      256
102
RTVSPost2010Prop51ColorRGB
 90
-16777216
102
RTVSPost2010PropOp51
 70
     0
102
RTVSPost2010Prop52
140
1.0
102
RTVSPost2010PropOp52
 70
     0
102
RTVSPost2010Prop53
 90
        2
102
RTVSPost2010PropOp53
 70
     1
102
RTVSPost2010Prop54
  1
strokes_ogs.tif
102
RTVSPost2010PropOp54
 70
     1
102
RTVSPost2010Prop55
280
     0
102
RTVSPost2010PropOp55
 70
     1
102
RTVSPost2010Prop56
140
1.0
102
RTVSPost2010PropOp56
 70
     1
102
RTVSPost2010Prop57
140
1.0
102
RTVSPost2010PropOp57
 70
     1
102
RTVSPropertyOp0
 70
     1
102
RTVSPropertyOp1
 70
     1
102
RTVSPropertyOp2
 70
     1
102
RTVSPropertyOp3
 70
     1
102
RTVSPropertyOp4
 70
     1
102
RTVSPropertyOp5
 70
     1
102
RTVSPropertyOp6
 70
     1
102
RTVSPropertyOp7
 70
     1
102
RTVSPropertyOp8
 70
     1
102
RTVSPropertyOp9
 70
     1
102
RTVSPropertyOp10
 70
     1
102
RTVSPropertyOp11
 70
     1
102
RTVSPropertyOp12
 70
     1
102
RTVSPropertyOp13
 70
     1
102
RTVSPropertyOp14
 70
     1
102
RTVSPropertyOp15
 70
     1
102
RTVSPropertyOp16
 70
     1
102
RTVSPropertyOp17
 70
     1
102
RTVSPropertyOp18
 70
     1
102
RTVSPropertyOp19
 70
     1
102
RTVSPropertyOp20
 70
     1
102
RTVSPropertyOp21
 70
     1
102
RTVSPropertyOp22
 70
     1
102
RTVSPropertyOp23
 70
     1
102
RTVSPropertyOp24
 70
     1
102
RTVSPropertyOp25
 70
     1
102
RTVSPropertyOp26
 70
     1
102
RTVSPropertyOp27
 70
     1
102
RTVSPropertyOp28
 70
     1
102
RTVSPropertyOp29
 70
     1
102
RTVSPropertyOp30
 70
     1
102
RTVSPropertyOp31
 70
     1
102
RTVSPropertyOp32
 70
     1
102
RTVSPropertyOp33
 70
     1
102
RTVSPropertyOp34
 70
     1
102
RTVSPropertyOp35
 70
     1
102
RTVSPropertyOp36
 70
     1
102
RTVSPropertyOp37
 70
     1
102
RTVSPropertyOp38
 70
     1
102
RTVSPropertyOp39
 70
     1
102
RTVSPropertyOp40
 70
     1
102
RTVSPropertyOp41
 70
     1
102
RTVSPropertyOp42
 70
     1
102
RTVSPropertyOp43
 70
     1
102
RTVSPropertyOp44
 70
     1
102
RTVSPropertyOp45
 70
     1
102
RTVSPropertyOp46
 70
     1
102
RTVSPropertyOp47
 70
     1
102
RTVSPropertyOp48
 70
     1
102
RTVSPropertyOp49
 70
     1
102
RTVSPropertyOp50
 70
     1
102
RTVSPropertyOp51
 70
     0
102
RTVSPropertyOp52
 70
     0
102
RTVSPropertyOp53
 70
     1
102
RTVSPropertyOp54
 70
     1
102
RTVSPropertyOp55
 70
     1
102
RTVSPropertyOp56
 70
     1
102
RTVSPropertyOp57
 70
     1
102
RTVSPropertyOp58
 70
     1
102
RTVSPropertyOp59
 70
     1
102
RTVSPropertyOp60
 70
     1
102
RTVSPropertyOp61
 70
     1
102
RTVSPropertyOp62
 70
     1
  0
XRECORD
  5
4059
102
{ACAD_REACTORS
330
4058
102
}
330
4058
100
AcDbXrecord
280
     1
102
RTVSPost2010Prop28
280
     0
102
RTVSPost2010PropOp28
 70
     1
102
RTVSPost2010Prop29
280
     1
102
RTVSPost2010PropOp29
 70
     1
102
RTVSPost2010Prop30
280
     1
102
RTVSPost2010PropOp30
 70
     1
102
RTVSPost2010Prop31
280
     0
102
RTVSPost2010PropOp31
 70
     1
102
RTVSPost2010Prop32
280
     0
102
RTVSPost2010PropOp32
 70
     1
102
RTVSPost2010Prop33
280
     0
102
RTVSPost2010PropOp33
 70
     1
102
RTVSPost2010Prop34
280
     0
102
RTVSPost2010PropOp34
 70
     1
102
RTVSPost2010Prop35
280
     0
102
RTVSPost2010PropOp35
 70
     1
102
RTVSPost2010Prop36
280
     0
102
RTVSPost2010PropOp36
 70
     1
102
RTVSPost2010Prop37
 90
       50
102
RTVSPost2010PropOp37
 70
     1
102
RTVSPost2010Prop38
140
0.0
102
RTVSPost2010PropOp38
 70
     1
102
RTVSPost2010Prop39
140
1.0
102
RTVSPost2010PropOp39
 70
     1
102
RTVSPost2010Prop40
 90
        0
102
RTVSPost2010PropOp40
 70
     1
102
RTVSPost2010Prop41ColorIndex
 90
       18
102
RTVSPost2010Prop41ColorRGB
 90
        0
102
RTVSPost2010PropOp41
 70
     1
102
RTVSPost2010Prop42
 90
       50
102
RTVSPost2010PropOp42
 70
     1
102
RTVSPost2010Prop43
 90
        3
102
RTVSPost2010PropOp43
 70
     1
102
RTVSPost2010Prop44ColorIndex
 90
        5
102
RTVSPost2010Prop44ColorRGB
 90
      255
102
RTVSPost2010PropOp44
 70
     1
102
RTVSPost2010Prop45
280
     0
102
RTVSPost2010PropOp45
 70
     1
102
RTVSPost2010Prop46
 90
       50
102
RTVSPost2010PropOp46
 70
     1
102
RTVSPost2010Prop47
 90
       50
102
RTVSPost2010PropOp47
 70
     1
102
RTVSPost2010Prop48
 90
       50
102
RTVSPost2010PropOp48
 70
     1
102
RTVSPost2010Prop49
280
     0
102
RTVSPost2010PropOp49
 70
     1
102
RTVSPost2010Prop50
 90
       50
102
RTVSPost2010PropOp50
 70
     1
102
RTVSPost2010Prop51ColorIndex
 90
      256
102
RTVSPost2010Prop51ColorRGB
 90
-16777216
102
RTVSPost2010PropOp51
 70
     0
102
RTVSPost2010Prop52
140
1.0
102
RTVSPost2010PropOp52
 70
     0
102
RTVSPost2010Prop53
 90
        2
102
RTVSPost2010PropOp53
 70
     1
102
RTVSPost2010Prop54
  1
strokes_ogs.tif
102
RTVSPost2010PropOp54
 70
     1
102
RTVSPost2010Prop55
280
     0
102
RTVSPost2010PropOp55
 70
     1
102
RTVSPost2010Prop56
140
1.0
102
RTVSPost2010PropOp56
 70
     1
102
RTVSPost2010Prop57
140
1.0
102
RTVSPost2010PropOp57
 70
     1
102
RTVSPropertyOp0
 70
     0
102
RTVSPropertyOp1
 70
     0
102
RTVSPropertyOp2
 70
     0
102
RTVSPropertyOp3
 70
     0
102
RTVSPropertyOp4
 70
     0
102
RTVSPropertyOp5
 70
     0
102
RTVSPropertyOp6
 70
     0
102
RTVSPropertyOp7
 70
     0
102
RTVSPropertyOp8
 70
     0
102
RTVSPropertyOp9
 70
     0
102
RTVSPropertyOp10
 70
     0
102
RTVSPropertyOp11
 70
     0
102
RTVSPropertyOp12
 70
     0
102
RTVSPropertyOp13
 70
     0
102
RTVSPropertyOp14
 70
     2
102
RTVSPropertyOp15
 70
     0
102
RTVSPropertyOp16
 70
     0
102
RTVSPropertyOp17
 70
     0
102
RTVSPropertyOp18
 70
     0
102
RTVSPropertyOp19
 70
     0
102
RTVSPropertyOp20
 70
     0
102
RTVSPropertyOp21
 70
     0
102
RTVSPropertyOp22
 70
     0
102
RTVSPropertyOp23
 70
     0
102
RTVSPropertyOp24
 70
     0
102
RTVSPropertyOp25
 70
     0
102
RTVSPropertyOp26
 70
     0
102
RTVSPropertyOp27
 70
     0
102
RTVSPropertyOp28
 70
     1
102
RTVSPropertyOp29
 70
     1
102
RTVSPropertyOp30
 70
     1
102
RTVSPropertyOp31
 70
     1
102
RTVSPropertyOp32
 70
     1
102
RTVSPropertyOp33
 70
     1
102
RTVSPropertyOp34
 70
     1
102
RTVSPropertyOp35
 70
     1
102
RTVSPropertyOp36
 70
     1
102
RTVSPropertyOp37
 70
     1
102
RTVSPropertyOp38
 70
     1
102
RTVSPropertyOp39
 70
     1
102
RTVSPropertyOp40
 70
     1
102
RTVSPropertyOp41
 70
     1
102
RTVSPropertyOp42
 70
     1
102
RTVSPropertyOp43
 70
     1
102
RTVSPropertyOp44
 70
     1
102
RTVSPropertyOp45
 70
     1
102
RTVSPropertyOp46
 70
     1
102
RTVSPropertyOp47
 70
     1
102
RTVSPropertyOp48
 70
     1
102
RTVSPropertyOp49
 70
     1
102
RTVSPropertyOp50
 70
     1
102
RTVSPropertyOp51
 70
     0
102
RTVSPropertyOp52
 70
     0
102
RTVSPropertyOp53
 70
     1
102
RTVSPropertyOp54
 70
     1
102
RTVSPropertyOp55
 70
     1
102
RTVSPropertyOp56
 70
     1
102
RTVSPropertyOp57
 70
     1
102
RTVSPropertyOp58
 70
     1
102
RTVSPropertyOp59
 70
     1
102
RTVSPropertyOp60
 70
     1
102
RTVSPropertyOp61
 70
     1
102
RTVSPropertyOp62
 70
     1
  0
XRECORD
  5
4051
102
{ACAD_REACTORS
330
4050
102
}
330
4050
100
AcDbXrecord
280
     1
102
RTVSPost2010Prop28
280
     0
102
RTVSPost2010PropOp28
 70
     1
102
RTVSPost2010Prop29
280
     1
102
RTVSPost2010PropOp29
 70
     1
102
RTVSPost2010Prop30
280
     1
102
RTVSPost2010PropOp30
 70
     1
102
RTVSPost2010Prop31
280
     0
102
RTVSPost2010PropOp31
 70
     1
102
RTVSPost2010Prop32
280
     0
102
RTVSPost2010PropOp32
 70
     1
102
RTVSPost2010Prop33
280
     0
102
RTVSPost2010PropOp33
 70
     1
102
RTVSPost2010Prop34
280
     0
102
RTVSPost2010PropOp34
 70
     1
102
RTVSPost2010Prop35
280
     0
102
RTVSPost2010PropOp35
 70
     1
102
RTVSPost2010Prop36
280
     0
102
RTVSPost2010PropOp36
 70
     1
102
RTVSPost2010Prop37
 90
       50
102
RTVSPost2010PropOp37
 70
     1
102
RTVSPost2010Prop38
140
0.0
102
RTVSPost2010PropOp38
 70
     1
102
RTVSPost2010Prop39
140
1.0
102
RTVSPost2010PropOp39
 70
     1
102
RTVSPost2010Prop40
 90
        0
102
RTVSPost2010PropOp40
 70
     1
102
RTVSPost2010Prop41ColorIndex
 90
       18
102
RTVSPost2010Prop41ColorRGB
 90
        0
102
RTVSPost2010PropOp41
 70
     1
102
RTVSPost2010Prop42
 90
       50
102
RTVSPost2010PropOp42
 70
     1
102
RTVSPost2010Prop43
 90
        3
102
RTVSPost2010PropOp43
 70
     1
102
RTVSPost2010Prop44ColorIndex
 90
        5
102
RTVSPost2010Prop44ColorRGB
 90
      255
102
RTVSPost2010PropOp44
 70
     1
102
RTVSPost2010Prop45
280
     0
102
RTVSPost2010PropOp45
 70
     1
102
RTVSPost2010Prop46
 90
       50
102
RTVSPost2010PropOp46
 70
     1
102
RTVSPost2010Prop47
 90
       50
102
RTVSPost2010PropOp47
 70
     1
102
RTVSPost2010Prop48
 90
       50
102
RTVSPost2010PropOp48
 70
     1
102
RTVSPost2010Prop49
280
     0
102
RTVSPost2010PropOp49
 70
     1
102
RTVSPost2010Prop50
 90
       50
102
RTVSPost2010PropOp50
 70
     1
102
RTVSPost2010Prop51ColorIndex
 90
      256
102
RTVSPost2010Prop51ColorRGB
 90
-16777216
102
RTVSPost2010PropOp51
 70
     0
102
RTVSPost2010Prop52
140
1.0
102
RTVSPost2010PropOp52
 70
     0
102
RTVSPost2010Prop53
 90
        2
102
RTVSPost2010PropOp53
 70
     1
102
RTVSPost2010Prop54
  1
strokes_ogs.tif
102
RTVSPost2010PropOp54
 70
     1
102
RTVSPost2010Prop55
280
     0
102
RTVSPost2010PropOp55
 70
     1
102
RTVSPost2010Prop56
140
1.0
102
RTVSPost2010PropOp56
 70
     1
102
RTVSPost2010Prop57
140
1.0
102
RTVSPost2010PropOp57
 70
     1
102
RTVSPropertyOp0
 70
     1
102
RTVSPropertyOp1
 70
     1
102
RTVSPropertyOp2
 70
     1
102
RTVSPropertyOp3
 70
     1
102
RTVSPropertyOp4
 70
     1
102
RTVSPropertyOp5
 70
     1
102
RTVSPropertyOp6
 70
     1
102
RTVSPropertyOp7
 70
     1
102
RTVSPropertyOp8
 70
     1
102
RTVSPropertyOp9
 70
     1
102
RTVSPropertyOp10
 70
     1
102
RTVSPropertyOp11
 70
     1
102
RTVSPropertyOp12
 70
     1
102
RTVSPropertyOp13
 70
     1
102
RTVSPropertyOp14
 70
     1
102
RTVSPropertyOp15
 70
     1
102
RTVSPropertyOp16
 70
     1
102
RTVSPropertyOp17
 70
     1
102
RTVSPropertyOp18
 70
     1
102
RTVSPropertyOp19
 70
     1
102
RTVSPropertyOp20
 70
     1
102
RTVSPropertyOp21
 70
     1
102
RTVSPropertyOp22
 70
     1
102
RTVSPropertyOp23
 70
     1
102
RTVSPropertyOp24
 70
     1
102
RTVSPropertyOp25
 70
     1
102
RTVSPropertyOp26
 70
     1
102
RTVSPropertyOp27
 70
     1
102
RTVSPropertyOp28
 70
     1
102
RTVSPropertyOp29
 70
     1
102
RTVSPropertyOp30
 70
     1
102
RTVSPropertyOp31
 70
     1
102
RTVSPropertyOp32
 70
     1
102
RTVSPropertyOp33
 70
     1
102
RTVSPropertyOp34
 70
     1
102
RTVSPropertyOp35
 70
     1
102
RTVSPropertyOp36
 70
     1
102
RTVSPropertyOp37
 70
     1
102
RTVSPropertyOp38
 70
     1
102
RTVSPropertyOp39
 70
     1
102
RTVSPropertyOp40
 70
     1
102
RTVSPropertyOp41
 70
     1
102
RTVSPropertyOp42
 70
     1
102
RTVSPropertyOp43
 70
     1
102
RTVSPropertyOp44
 70
     1
102
RTVSPropertyOp45
 70
     1
102
RTVSPropertyOp46
 70
     1
102
RTVSPropertyOp47
 70
     1
102
RTVSPropertyOp48
 70
     1
102
RTVSPropertyOp49
 70
     1
102
RTVSPropertyOp50
 70
     1
102
RTVSPropertyOp51
 70
     0
102
RTVSPropertyOp52
 70
     0
102
RTVSPropertyOp53
 70
     1
102
RTVSPropertyOp54
 70
     1
102
RTVSPropertyOp55
 70
     1
102
RTVSPropertyOp56
 70
     1
102
RTVSPropertyOp57
 70
     1
102
RTVSPropertyOp58
 70
     1
102
RTVSPropertyOp59
 70
     1
102
RTVSPropertyOp60
 70
     1
102
RTVSPropertyOp61
 70
     1
102
RTVSPropertyOp62
 70
     1
  0
XRECORD
  5
405B
102
{ACAD_REACTORS
330
405A
102
}
330
405A
100
AcDbXrecord
280
     1
102
RTVSPost2010Prop28
280
     0
102
RTVSPost2010PropOp28
 70
     1
102
RTVSPost2010Prop29
280
     1
102
RTVSPost2010PropOp29
 70
     1
102
RTVSPost2010Prop30
280
     1
102
RTVSPost2010PropOp30
 70
     1
102
RTVSPost2010Prop31
280
     0
102
RTVSPost2010PropOp31
 70
     1
102
RTVSPost2010Prop32
280
     0
102
RTVSPost2010PropOp32
 70
     1
102
RTVSPost2010Prop33
280
     0
102
RTVSPost2010PropOp33
 70
     1
102
RTVSPost2010Prop34
280
     0
102
RTVSPost2010PropOp34
 70
     1
102
RTVSPost2010Prop35
280
     0
102
RTVSPost2010PropOp35
 70
     1
102
RTVSPost2010Prop36
280
     0
102
RTVSPost2010PropOp36
 70
     1
102
RTVSPost2010Prop37
 90
       50
102
RTVSPost2010PropOp37
 70
     1
102
RTVSPost2010Prop38
140
0.0
102
RTVSPost2010PropOp38
 70
     1
102
RTVSPost2010Prop39
140
1.0
102
RTVSPost2010PropOp39
 70
     1
102
RTVSPost2010Prop40
 90
        0
102
RTVSPost2010PropOp40
 70
     1
102
RTVSPost2010Prop41ColorIndex
 90
       18
102
RTVSPost2010Prop41ColorRGB
 90
        0
102
RTVSPost2010PropOp41
 70
     1
102
RTVSPost2010Prop42
 90
       50
102
RTVSPost2010PropOp42
 70
     1
102
RTVSPost2010Prop43
 90
        3
102
RTVSPost2010PropOp43
 70
     1
102
RTVSPost2010Prop44ColorIndex
 90
        5
102
RTVSPost2010Prop44ColorRGB
 90
      255
102
RTVSPost2010PropOp44
 70
     1
102
RTVSPost2010Prop45
280
     0
102
RTVSPost2010PropOp45
 70
     1
102
RTVSPost2010Prop46
 90
       50
102
RTVSPost2010PropOp46
 70
     1
102
RTVSPost2010Prop47
 90
       50
102
RTVSPost2010PropOp47
 70
     1
102
RTVSPost2010Prop48
 90
       50
102
RTVSPost2010PropOp48
 70
     1
102
RTVSPost2010Prop49
280
     0
102
RTVSPost2010PropOp49
 70
     1
102
RTVSPost2010Prop50
 90
       50
102
RTVSPost2010PropOp50
 70
     1
102
RTVSPost2010Prop51ColorIndex
 90
      256
102
RTVSPost2010Prop51ColorRGB
 90
-16777216
102
RTVSPost2010PropOp51
 70
     0
102
RTVSPost2010Prop52
140
1.0
102
RTVSPost2010PropOp52
 70
     0
102
RTVSPost2010Prop53
 90
        2
102
RTVSPost2010PropOp53
 70
     1
102
RTVSPost2010Prop54
  1
strokes_ogs.tif
102
RTVSPost2010PropOp54
 70
     1
102
RTVSPost2010Prop55
280
     0
102
RTVSPost2010PropOp55
 70
     1
102
RTVSPost2010Prop56
140
1.0
102
RTVSPost2010PropOp56
 70
     1
102
RTVSPost2010Prop57
140
1.0
102
RTVSPost2010PropOp57
 70
     1
102
RTVSPropertyOp0
 70
     0
102
RTVSPropertyOp1
 70
     0
102
RTVSPropertyOp2
 70
     0
102
RTVSPropertyOp3
 70
     0
102
RTVSPropertyOp4
 70
     0
102
RTVSPropertyOp5
 70
     0
102
RTVSPropertyOp6
 70
     0
102
RTVSPropertyOp7
 70
     0
102
RTVSPropertyOp8
 70
     0
102
RTVSPropertyOp9
 70
     0
102
RTVSPropertyOp10
 70
     0
102
RTVSPropertyOp11
 70
     0
102
RTVSPropertyOp12
 70
     0
102
RTVSPropertyOp13
 70
     0
102
RTVSPropertyOp14
 70
     2
102
RTVSPropertyOp15
 70
     0
102
RTVSPropertyOp16
 70
     0
102
RTVSPropertyOp17
 70
     0
102
RTVSPropertyOp18
 70
     0
102
RTVSPropertyOp19
 70
     0
102
RTVSPropertyOp20
 70
     0
102
RTVSPropertyOp21
 70
     0
102
RTVSPropertyOp22
 70
     0
102
RTVSPropertyOp23
 70
     0
102
RTVSPropertyOp24
 70
     0
102
RTVSPropertyOp25
 70
     0
102
RTVSPropertyOp26
 70
     0
102
RTVSPropertyOp27
 70
     0
102
RTVSPropertyOp28
 70
     1
102
RTVSPropertyOp29
 70
     1
102
RTVSPropertyOp30
 70
     1
102
RTVSPropertyOp31
 70
     1
102
RTVSPropertyOp32
 70
     1
102
RTVSPropertyOp33
 70
     1
102
RTVSPropertyOp34
 70
     1
102
RTVSPropertyOp35
 70
     1
102
RTVSPropertyOp36
 70
     1
102
RTVSPropertyOp37
 70
     1
102
RTVSPropertyOp38
 70
     1
102
RTVSPropertyOp39
 70
     1
102
RTVSPropertyOp40
 70
     1
102
RTVSPropertyOp41
 70
     1
102
RTVSPropertyOp42
 70
     1
102
RTVSPropertyOp43
 70
     1
102
RTVSPropertyOp44
 70
     1
102
RTVSPropertyOp45
 70
     1
102
RTVSPropertyOp46
 70
     1
102
RTVSPropertyOp47
 70
     1
102
RTVSPropertyOp48
 70
     1
102
RTVSPropertyOp49
 70
     1
102
RTVSPropertyOp50
 70
     1
102
RTVSPropertyOp51
 70
     0
102
RTVSPropertyOp52
 70
     0
102
RTVSPropertyOp53
 70
     1
102
RTVSPropertyOp54
 70
     1
102
RTVSPropertyOp55
 70
     1
102
RTVSPropertyOp56
 70
     1
102
RTVSPropertyOp57
 70
     1
102
RTVSPropertyOp58
 70
     1
102
RTVSPropertyOp59
 70
     1
102
RTVSPropertyOp60
 70
     1
102
RTVSPropertyOp61
 70
     1
102
RTVSPropertyOp62
 70
     1
  0
XRECORD
  5
4039
102
{ACAD_REACTORS
330
4038
102
}
330
4038
100
AcDbXrecord
280
     1
102
RTVSPost2010Prop28
280
     0
102
RTVSPost2010PropOp28
 70
     1
102
RTVSPost2010Prop29
280
     1
102
RTVSPost2010PropOp29
 70
     1
102
RTVSPost2010Prop30
280
     1
102
RTVSPost2010PropOp30
 70
     1
102
RTVSPost2010Prop31
280
     0
102
RTVSPost2010PropOp31
 70
     1
102
RTVSPost2010Prop32
280
     0
102
RTVSPost2010PropOp32
 70
     1
102
RTVSPost2010Prop33
280
     0
102
RTVSPost2010PropOp33
 70
     1
102
RTVSPost2010Prop34
280
     0
102
RTVSPost2010PropOp34
 70
     1
102
RTVSPost2010Prop35
280
     0
102
RTVSPost2010PropOp35
 70
     1
102
RTVSPost2010Prop36
280
     0
102
RTVSPost2010PropOp36
 70
     1
102
RTVSPost2010Prop37
 90
       50
102
RTVSPost2010PropOp37
 70
     1
102
RTVSPost2010Prop38
140
0.0
102
RTVSPost2010PropOp38
 70
     1
102
RTVSPost2010Prop39
140
1.0
102
RTVSPost2010PropOp39
 70
     1
102
RTVSPost2010Prop40
 90
        0
102
RTVSPost2010PropOp40
 70
     1
102
RTVSPost2010Prop41ColorIndex
 90
       18
102
RTVSPost2010Prop41ColorRGB
 90
        0
102
RTVSPost2010PropOp41
 70
     1
102
RTVSPost2010Prop42
 90
       50
102
RTVSPost2010PropOp42
 70
     1
102
RTVSPost2010Prop43
 90
        3
102
RTVSPost2010PropOp43
 70
     1
102
RTVSPost2010Prop44ColorIndex
 90
        5
102
RTVSPost2010Prop44ColorRGB
 90
      255
102
RTVSPost2010PropOp44
 70
     1
102
RTVSPost2010Prop45
280
     0
102
RTVSPost2010PropOp45
 70
     1
102
RTVSPost2010Prop46
 90
       50
102
RTVSPost2010PropOp46
 70
     1
102
RTVSPost2010Prop47
 90
       50
102
RTVSPost2010PropOp47
 70
     1
102
RTVSPost2010Prop48
 90
       50
102
RTVSPost2010PropOp48
 70
     1
102
RTVSPost2010Prop49
280
     0
102
RTVSPost2010PropOp49
 70
     1
102
RTVSPost2010Prop50
 90
       50
102
RTVSPost2010PropOp50
 70
     1
102
RTVSPost2010Prop51ColorIndex
 90
      256
102
RTVSPost2010Prop51ColorRGB
 90
-16777216
102
RTVSPost2010PropOp51
 70
     0
102
RTVSPost2010Prop52
140
1.0
102
RTVSPost2010PropOp52
 70
     0
102
RTVSPost2010Prop53
 90
        2
102
RTVSPost2010PropOp53
 70
     1
102
RTVSPost2010Prop54
  1
strokes_ogs.tif
102
RTVSPost2010PropOp54
 70
     1
102
RTVSPost2010Prop55
280
     0
102
RTVSPost2010PropOp55
 70
     1
102
RTVSPost2010Prop56
140
1.0
102
RTVSPost2010PropOp56
 70
     1
102
RTVSPost2010Prop57
140
1.0
102
RTVSPost2010PropOp57
 70
     1
102
RTVSPropertyOp0
 70
     1
102
RTVSPropertyOp1
 70
     1
102
RTVSPropertyOp2
 70
     1
102
RTVSPropertyOp3
 70
     1
102
RTVSPropertyOp4
 70
     1
102
RTVSPropertyOp5
 70
     1
102
RTVSPropertyOp6
 70
     1
102
RTVSPropertyOp7
 70
     1
102
RTVSPropertyOp8
 70
     1
102
RTVSPropertyOp9
 70
     1
102
RTVSPropertyOp10
 70
     1
102
RTVSPropertyOp11
 70
     1
102
RTVSPropertyOp12
 70
     1
102
RTVSPropertyOp13
 70
     1
102
RTVSPropertyOp14
 70
     1
102
RTVSPropertyOp15
 70
     1
102
RTVSPropertyOp16
 70
     1
102
RTVSPropertyOp17
 70
     1
102
RTVSPropertyOp18
 70
     1
102
RTVSPropertyOp19
 70
     1
102
RTVSPropertyOp20
 70
     1
102
RTVSPropertyOp21
 70
     1
102
RTVSPropertyOp22
 70
     1
102
RTVSPropertyOp23
 70
     1
102
RTVSPropertyOp24
 70
     1
102
RTVSPropertyOp25
 70
     1
102
RTVSPropertyOp26
 70
     1
102
RTVSPropertyOp27
 70
     1
102
RTVSPropertyOp28
 70
     1
102
RTVSPropertyOp29
 70
     1
102
RTVSPropertyOp30
 70
     1
102
RTVSPropertyOp31
 70
     1
102
RTVSPropertyOp32
 70
     1
102
RTVSPropertyOp33
 70
     1
102
RTVSPropertyOp34
 70
     1
102
RTVSPropertyOp35
 70
     1
102
RTVSPropertyOp36
 70
     1
102
RTVSPropertyOp37
 70
     1
102
RTVSPropertyOp38
 70
     1
102
RTVSPropertyOp39
 70
     1
102
RTVSPropertyOp40
 70
     1
102
RTVSPropertyOp41
 70
     1
102
RTVSPropertyOp42
 70
     1
102
RTVSPropertyOp43
 70
     1
102
RTVSPropertyOp44
 70
     1
102
RTVSPropertyOp45
 70
     1
102
RTVSPropertyOp46
 70
     1
102
RTVSPropertyOp47
 70
     1
102
RTVSPropertyOp48
 70
     1
102
RTVSPropertyOp49
 70
     1
102
RTVSPropertyOp50
 70
     1
102
RTVSPropertyOp51
 70
     0
102
RTVSPropertyOp52
 70
     0
102
RTVSPropertyOp53
 70
     1
102
RTVSPropertyOp54
 70
     1
102
RTVSPropertyOp55
 70
     1
102
RTVSPropertyOp56
 70
     1
102
RTVSPropertyOp57
 70
     1
102
RTVSPropertyOp58
 70
     1
102
RTVSPropertyOp59
 70
     1
102
RTVSPropertyOp60
 70
     1
102
RTVSPropertyOp61
 70
     1
102
RTVSPropertyOp62
 70
     1
  0
XRECORD
  5
406B
102
{ACAD_REACTORS
330
406A
102
}
330
406A
100
AcDbXrecord
280
     1
102
RTVSPost2010Prop28
280
     0
102
RTVSPost2010PropOp28
 70
     1
102
RTVSPost2010Prop29
280
     1
102
RTVSPost2010PropOp29
 70
     1
102
RTVSPost2010Prop30
280
     1
102
RTVSPost2010PropOp30
 70
     1
102
RTVSPost2010Prop31
280
     0
102
RTVSPost2010PropOp31
 70
     1
102
RTVSPost2010Prop32
280
     0
102
RTVSPost2010PropOp32
 70
     1
102
RTVSPost2010Prop33
280
     0
102
RTVSPost2010PropOp33
 70
     1
102
RTVSPost2010Prop34
280
     0
102
RTVSPost2010PropOp34
 70
     1
102
RTVSPost2010Prop35
280
     0
102
RTVSPost2010PropOp35
 70
     1
102
RTVSPost2010Prop36
280
     0
102
RTVSPost2010PropOp36
 70
     1
102
RTVSPost2010Prop37
 90
       50
102
RTVSPost2010PropOp37
 70
     1
102
RTVSPost2010Prop38
140
0.0
102
RTVSPost2010PropOp38
 70
     1
102
RTVSPost2010Prop39
140
1.0
102
RTVSPost2010PropOp39
 70
     1
102
RTVSPost2010Prop40
 90
        0
102
RTVSPost2010PropOp40
 70
     1
102
RTVSPost2010Prop41ColorIndex
 90
       18
102
RTVSPost2010Prop41ColorRGB
 90
        0
102
RTVSPost2010PropOp41
 70
     1
102
RTVSPost2010Prop42
 90
       50
102
RTVSPost2010PropOp42
 70
     1
102
RTVSPost2010Prop43
 90
        3
102
RTVSPost2010PropOp43
 70
     1
102
RTVSPost2010Prop44ColorIndex
 90
        5
102
RTVSPost2010Prop44ColorRGB
 90
      255
102
RTVSPost2010PropOp44
 70
     1
102
RTVSPost2010Prop45
280
     0
102
RTVSPost2010PropOp45
 70
     1
102
RTVSPost2010Prop46
 90
       50
102
RTVSPost2010PropOp46
 70
     1
102
RTVSPost2010Prop47
 90
       50
102
RTVSPost2010PropOp47
 70
     1
102
RTVSPost2010Prop48
 90
       50
102
RTVSPost2010PropOp48
 70
     1
102
RTVSPost2010Prop49
280
     0
102
RTVSPost2010PropOp49
 70
     1
102
RTVSPost2010Prop50
 90
       50
102
RTVSPost2010PropOp50
 70
     1
102
RTVSPost2010Prop51ColorIndex
 90
      256
102
RTVSPost2010Prop51ColorRGB
 90
-16777216
102
RTVSPost2010PropOp51
 70
     0
102
RTVSPost2010Prop52
140
1.0
102
RTVSPost2010PropOp52
 70
     0
102
RTVSPost2010Prop53
 90
        2
102
RTVSPost2010PropOp53
 70
     1
102
RTVSPost2010Prop54
  1
strokes_ogs.tif
102
RTVSPost2010PropOp54
 70
     1
102
RTVSPost2010Prop55
280
     0
102
RTVSPost2010PropOp55
 70
     1
102
RTVSPost2010Prop56
140
1.0
102
RTVSPost2010PropOp56
 70
     1
102
RTVSPost2010Prop57
140
1.0
102
RTVSPost2010PropOp57
 70
     1
102
RTVSPropertyOp0
 70
     1
102
RTVSPropertyOp1
 70
     1
102
RTVSPropertyOp2
 70
     1
102
RTVSPropertyOp3
 70
     1
102
RTVSPropertyOp4
 70
     1
102
RTVSPropertyOp5
 70
     1
102
RTVSPropertyOp6
 70
     1
102
RTVSPropertyOp7
 70
     1
102
RTVSPropertyOp8
 70
     1
102
RTVSPropertyOp9
 70
     1
102
RTVSPropertyOp10
 70
     1
102
RTVSPropertyOp11
 70
     1
102
RTVSPropertyOp12
 70
     1
102
RTVSPropertyOp13
 70
     1
102
RTVSPropertyOp14
 70
     1
102
RTVSPropertyOp15
 70
     1
102
RTVSPropertyOp16
 70
     1
102
RTVSPropertyOp17
 70
     1
102
RTVSPropertyOp18
 70
     1
102
RTVSPropertyOp19
 70
     1
102
RTVSPropertyOp20
 70
     1
102
RTVSPropertyOp21
 70
     1
102
RTVSPropertyOp22
 70
     1
102
RTVSPropertyOp23
 70
     1
102
RTVSPropertyOp24
 70
     1
102
RTVSPropertyOp25
 70
     1
102
RTVSPropertyOp26
 70
     1
102
RTVSPropertyOp27
 70
     1
102
RTVSPropertyOp28
 70
     1
102
RTVSPropertyOp29
 70
     1
102
RTVSPropertyOp30
 70
     1
102
RTVSPropertyOp31
 70
     1
102
RTVSPropertyOp32
 70
     1
102
RTVSPropertyOp33
 70
     1
102
RTVSPropertyOp34
 70
     1
102
RTVSPropertyOp35
 70
     1
102
RTVSPropertyOp36
 70
     1
102
RTVSPropertyOp37
 70
     1
102
RTVSPropertyOp38
 70
     1
102
RTVSPropertyOp39
 70
     1
102
RTVSPropertyOp40
 70
     1
102
RTVSPropertyOp41
 70
     1
102
RTVSPropertyOp42
 70
     1
102
RTVSPropertyOp43
 70
     1
102
RTVSPropertyOp44
 70
     1
102
RTVSPropertyOp45
 70
     1
102
RTVSPropertyOp46
 70
     1
102
RTVSPropertyOp47
 70
     1
102
RTVSPropertyOp48
 70
     1
102
RTVSPropertyOp49
 70
     1
102
RTVSPropertyOp50
 70
     1
102
RTVSPropertyOp51
 70
     0
102
RTVSPropertyOp52
 70
     0
102
RTVSPropertyOp53
 70
     1
102
RTVSPropertyOp54
 70
     1
102
RTVSPropertyOp55
 70
     1
102
RTVSPropertyOp56
 70
     1
102
RTVSPropertyOp57
 70
     1
102
RTVSPropertyOp58
 70
     1
102
RTVSPropertyOp59
 70
     1
102
RTVSPropertyOp60
 70
     1
102
RTVSPropertyOp61
 70
     1
102
RTVSPropertyOp62
 70
     1
  0
XRECORD
  5
4069
102
{ACAD_REACTORS
330
4068
102
}
330
4068
100
AcDbXrecord
280
     1
102
RTVSPost2010Prop28
280
     0
102
RTVSPost2010PropOp28
 70
     1
102
RTVSPost2010Prop29
280
     1
102
RTVSPost2010PropOp29
 70
     1
102
RTVSPost2010Prop30
280
     1
102
RTVSPost2010PropOp30
 70
     1
102
RTVSPost2010Prop31
280
     0
102
RTVSPost2010PropOp31
 70
     1
102
RTVSPost2010Prop32
280
     0
102
RTVSPost2010PropOp32
 70
     1
102
RTVSPost2010Prop33
280
     0
102
RTVSPost2010PropOp33
 70
     1
102
RTVSPost2010Prop34
280
     0
102
RTVSPost2010PropOp34
 70
     1
102
RTVSPost2010Prop35
280
     0
102
RTVSPost2010PropOp35
 70
     1
102
RTVSPost2010Prop36
280
     0
102
RTVSPost2010PropOp36
 70
     1
102
RTVSPost2010Prop37
 90
       50
102
RTVSPost2010PropOp37
 70
     1
102
RTVSPost2010Prop38
140
0.0
102
RTVSPost2010PropOp38
 70
     1
102
RTVSPost2010Prop39
140
1.0
102
RTVSPost2010PropOp39
 70
     1
102
RTVSPost2010Prop40
 90
        0
102
RTVSPost2010PropOp40
 70
     1
102
RTVSPost2010Prop41ColorIndex
 90
       18
102
RTVSPost2010Prop41ColorRGB
 90
        0
102
RTVSPost2010PropOp41
 70
     1
102
RTVSPost2010Prop42
 90
       50
102
RTVSPost2010PropOp42
 70
     1
102
RTVSPost2010Prop43
 90
        3
102
RTVSPost2010PropOp43
 70
     1
102
RTVSPost2010Prop44ColorIndex
 90
        5
102
RTVSPost2010Prop44ColorRGB
 90
      255
102
RTVSPost2010PropOp44
 70
     1
102
RTVSPost2010Prop45
280
     0
102
RTVSPost2010PropOp45
 70
     1
102
RTVSPost2010Prop46
 90
       50
102
RTVSPost2010PropOp46
 70
     1
102
RTVSPost2010Prop47
 90
       50
102
RTVSPost2010PropOp47
 70
     1
102
RTVSPost2010Prop48
 90
       50
102
RTVSPost2010PropOp48
 70
     1
102
RTVSPost2010Prop49
280
     0
102
RTVSPost2010PropOp49
 70
     1
102
RTVSPost2010Prop50
 90
       50
102
RTVSPost2010PropOp50
 70
     1
102
RTVSPost2010Prop51ColorIndex
 90
      256
102
RTVSPost2010Prop51ColorRGB
 90
-16777216
102
RTVSPost2010PropOp51
 70
     0
102
RTVSPost2010Prop52
140
1.0
102
RTVSPost2010PropOp52
 70
     0
102
RTVSPost2010Prop53
 90
        2
102
RTVSPost2010PropOp53
 70
     1
102
RTVSPost2010Prop54
  1
strokes_ogs.tif
102
RTVSPost2010PropOp54
 70
     1
102
RTVSPost2010Prop55
280
     0
102
RTVSPost2010PropOp55
 70
     1
102
RTVSPost2010Prop56
140
1.0
102
RTVSPost2010PropOp56
 70
     1
102
RTVSPost2010Prop57
140
1.0
102
RTVSPost2010PropOp57
 70
     1
102
RTVSPropertyOp0
 70
     1
102
RTVSPropertyOp1
 70
     1
102
RTVSPropertyOp2
 70
     1
102
RTVSPropertyOp3
 70
     1
102
RTVSPropertyOp4
 70
     1
102
RTVSPropertyOp5
 70
     1
102
RTVSPropertyOp6
 70
     1
102
RTVSPropertyOp7
 70
     1
102
RTVSPropertyOp8
 70
     1
102
RTVSPropertyOp9
 70
     1
102
RTVSPropertyOp10
 70
     1
102
RTVSPropertyOp11
 70
     1
102
RTVSPropertyOp12
 70
     1
102
RTVSPropertyOp13
 70
     1
102
RTVSPropertyOp14
 70
     1
102
RTVSPropertyOp15
 70
     1
102
RTVSPropertyOp16
 70
     1
102
RTVSPropertyOp17
 70
     1
102
RTVSPropertyOp18
 70
     1
102
RTVSPropertyOp19
 70
     1
102
RTVSPropertyOp20
 70
     1
102
RTVSPropertyOp21
 70
     1
102
RTVSPropertyOp22
 70
     1
102
RTVSPropertyOp23
 70
     1
102
RTVSPropertyOp24
 70
     1
102
RTVSPropertyOp25
 70
     1
102
RTVSPropertyOp26
 70
     1
102
RTVSPropertyOp27
 70
     1
102
RTVSPropertyOp28
 70
     1
102
RTVSPropertyOp29
 70
     1
102
RTVSPropertyOp30
 70
     1
102
RTVSPropertyOp31
 70
     1
102
RTVSPropertyOp32
 70
     1
102
RTVSPropertyOp33
 70
     1
102
RTVSPropertyOp34
 70
     1
102
RTVSPropertyOp35
 70
     1
102
RTVSPropertyOp36
 70
     1
102
RTVSPropertyOp37
 70
     1
102
RTVSPropertyOp38
 70
     1
102
RTVSPropertyOp39
 70
     1
102
RTVSPropertyOp40
 70
     1
102
RTVSPropertyOp41
 70
     1
102
RTVSPropertyOp42
 70
     1
102
RTVSPropertyOp43
 70
     1
102
RTVSPropertyOp44
 70
     1
102
RTVSPropertyOp45
 70
     1
102
RTVSPropertyOp46
 70
     1
102
RTVSPropertyOp47
 70
     1
102
RTVSPropertyOp48
 70
     1
102
RTVSPropertyOp49
 70
     1
102
RTVSPropertyOp50
 70
     1
102
RTVSPropertyOp51
 70
     0
102
RTVSPropertyOp52
 70
     0
102
RTVSPropertyOp53
 70
     1
102
RTVSPropertyOp54
 70
     1
102
RTVSPropertyOp55
 70
     1
102
RTVSPropertyOp56
 70
     1
102
RTVSPropertyOp57
 70
     1
102
RTVSPropertyOp58
 70
     1
102
RTVSPropertyOp59
 70
     1
102
RTVSPropertyOp60
 70
     1
102
RTVSPropertyOp61
 70
     1
102
RTVSPropertyOp62
 70
     1
  0
XRECORD
  5
4063
102
{ACAD_REACTORS
330
4062
102
}
330
4062
100
AcDbXrecord
280
     1
102
RTVSPost2010Prop28
280
     0
102
RTVSPost2010PropOp28
 70
     1
102
RTVSPost2010Prop29
280
     1
102
RTVSPost2010PropOp29
 70
     1
102
RTVSPost2010Prop30
280
     1
102
RTVSPost2010PropOp30
 70
     1
102
RTVSPost2010Prop31
280
     0
102
RTVSPost2010PropOp31
 70
     1
102
RTVSPost2010Prop32
280
     0
102
RTVSPost2010PropOp32
 70
     1
102
RTVSPost2010Prop33
280
     0
102
RTVSPost2010PropOp33
 70
     1
102
RTVSPost2010Prop34
280
     0
102
RTVSPost2010PropOp34
 70
     1
102
RTVSPost2010Prop35
280
     0
102
RTVSPost2010PropOp35
 70
     1
102
RTVSPost2010Prop36
280
     0
102
RTVSPost2010PropOp36
 70
     1
102
RTVSPost2010Prop37
 90
       50
102
RTVSPost2010PropOp37
 70
     1
102
RTVSPost2010Prop38
140
0.0
102
RTVSPost2010PropOp38
 70
     1
102
RTVSPost2010Prop39
140
1.0
102
RTVSPost2010PropOp39
 70
     1
102
RTVSPost2010Prop40
 90
        0
102
RTVSPost2010PropOp40
 70
     1
102
RTVSPost2010Prop41ColorIndex
 90
       18
102
RTVSPost2010Prop41ColorRGB
 90
        0
102
RTVSPost2010PropOp41
 70
     1
102
RTVSPost2010Prop42
 90
       50
102
RTVSPost2010PropOp42
 70
     1
102
RTVSPost2010Prop43
 90
        3
102
RTVSPost2010PropOp43
 70
     1
102
RTVSPost2010Prop44ColorIndex
 90
        5
102
RTVSPost2010Prop44ColorRGB
 90
      255
102
RTVSPost2010PropOp44
 70
     1
102
RTVSPost2010Prop45
280
     0
102
RTVSPost2010PropOp45
 70
     1
102
RTVSPost2010Prop46
 90
       50
102
RTVSPost2010PropOp46
 70
     1
102
RTVSPost2010Prop47
 90
       50
102
RTVSPost2010PropOp47
 70
     1
102
RTVSPost2010Prop48
 90
       50
102
RTVSPost2010PropOp48
 70
     1
102
RTVSPost2010Prop49
280
     0
102
RTVSPost2010PropOp49
 70
     1
102
RTVSPost2010Prop50
 90
       50
102
RTVSPost2010PropOp50
 70
     1
102
RTVSPost2010Prop51ColorIndex
 90
      256
102
RTVSPost2010Prop51ColorRGB
 90
-16777216
102
RTVSPost2010PropOp51
 70
     0
102
RTVSPost2010Prop52
140
1.0
102
RTVSPost2010PropOp52
 70
     0
102
RTVSPost2010Prop53
 90
        2
102
RTVSPost2010PropOp53
 70
     1
102
RTVSPost2010Prop54
  1
strokes_ogs.tif
102
RTVSPost2010PropOp54
 70
     1
102
RTVSPost2010Prop55
280
     0
102
RTVSPost2010PropOp55
 70
     1
102
RTVSPost2010Prop56
140
1.0
102
RTVSPost2010PropOp56
 70
     1
102
RTVSPost2010Prop57
140
1.0
102
RTVSPost2010PropOp57
 70
     1
102
RTVSPropertyOp0
 70
     1
102
RTVSPropertyOp1
 70
     1
102
RTVSPropertyOp2
 70
     1
102
RTVSPropertyOp3
 70
     1
102
RTVSPropertyOp4
 70
     1
102
RTVSPropertyOp5
 70
     1
102
RTVSPropertyOp6
 70
     1
102
RTVSPropertyOp7
 70
     1
102
RTVSPropertyOp8
 70
     1
102
RTVSPropertyOp9
 70
     1
102
RTVSPropertyOp10
 70
     1
102
RTVSPropertyOp11
 70
     1
102
RTVSPropertyOp12
 70
     1
102
RTVSPropertyOp13
 70
     1
102
RTVSPropertyOp14
 70
     1
102
RTVSPropertyOp15
 70
     1
102
RTVSPropertyOp16
 70
     1
102
RTVSPropertyOp17
 70
     1
102
RTVSPropertyOp18
 70
     1
102
RTVSPropertyOp19
 70
     1
102
RTVSPropertyOp20
 70
     1
102
RTVSPropertyOp21
 70
     1
102
RTVSPropertyOp22
 70
     1
102
RTVSPropertyOp23
 70
     1
102
RTVSPropertyOp24
 70
     1
102
RTVSPropertyOp25
 70
     1
102
RTVSPropertyOp26
 70
     1
102
RTVSPropertyOp27
 70
     1
102
RTVSPropertyOp28
 70
     1
102
RTVSPropertyOp29
 70
     1
102
RTVSPropertyOp30
 70
     1
102
RTVSPropertyOp31
 70
     1
102
RTVSPropertyOp32
 70
     1
102
RTVSPropertyOp33
 70
     1
102
RTVSPropertyOp34
 70
     1
102
RTVSPropertyOp35
 70
     1
102
RTVSPropertyOp36
 70
     1
102
RTVSPropertyOp37
 70
     1
102
RTVSPropertyOp38
 70
     1
102
RTVSPropertyOp39
 70
     1
102
RTVSPropertyOp40
 70
     1
102
RTVSPropertyOp41
 70
     1
102
RTVSPropertyOp42
 70
     1
102
RTVSPropertyOp43
 70
     1
102
RTVSPropertyOp44
 70
     1
102
RTVSPropertyOp45
 70
     1
102
RTVSPropertyOp46
 70
     1
102
RTVSPropertyOp47
 70
     1
102
RTVSPropertyOp48
 70
     1
102
RTVSPropertyOp49
 70
     1
102
RTVSPropertyOp50
 70
     1
102
RTVSPropertyOp51
 70
     0
102
RTVSPropertyOp52
 70
     0
102
RTVSPropertyOp53
 70
     1
102
RTVSPropertyOp54
 70
     1
102
RTVSPropertyOp55
 70
     1
102
RTVSPropertyOp56
 70
     1
102
RTVSPropertyOp57
 70
     1
102
RTVSPropertyOp58
 70
     1
102
RTVSPropertyOp59
 70
     1
102
RTVSPropertyOp60
 70
     1
102
RTVSPropertyOp61
 70
     1
102
RTVSPropertyOp62
 70
     1
  0
XRECORD
  5
4065
102
{ACAD_REACTORS
330
4064
102
}
330
4064
100
AcDbXrecord
280
     1
102
RTVSPost2010Prop28
280
     0
102
RTVSPost2010PropOp28
 70
     1
102
RTVSPost2010Prop29
280
     1
102
RTVSPost2010PropOp29
 70
     1
102
RTVSPost2010Prop30
280
     1
102
RTVSPost2010PropOp30
 70
     1
102
RTVSPost2010Prop31
280
     0
102
RTVSPost2010PropOp31
 70
     1
102
RTVSPost2010Prop32
280
     0
102
RTVSPost2010PropOp32
 70
     1
102
RTVSPost2010Prop33
280
     0
102
RTVSPost2010PropOp33
 70
     1
102
RTVSPost2010Prop34
280
     0
102
RTVSPost2010PropOp34
 70
     1
102
RTVSPost2010Prop35
280
     0
102
RTVSPost2010PropOp35
 70
     1
102
RTVSPost2010Prop36
280
     0
102
RTVSPost2010PropOp36
 70
     1
102
RTVSPost2010Prop37
 90
       50
102
RTVSPost2010PropOp37
 70
     1
102
RTVSPost2010Prop38
140
0.0
102
RTVSPost2010PropOp38
 70
     1
102
RTVSPost2010Prop39
140
1.0
102
RTVSPost2010PropOp39
 70
     1
102
RTVSPost2010Prop40
 90
        0
102
RTVSPost2010PropOp40
 70
     1
102
RTVSPost2010Prop41ColorIndex
 90
       18
102
RTVSPost2010Prop41ColorRGB
 90
        0
102
RTVSPost2010PropOp41
 70
     1
102
RTVSPost2010Prop42
 90
       50
102
RTVSPost2010PropOp42
 70
     1
102
RTVSPost2010Prop43
 90
        3
102
RTVSPost2010PropOp43
 70
     1
102
RTVSPost2010Prop44ColorIndex
 90
        5
102
RTVSPost2010Prop44ColorRGB
 90
      255
102
RTVSPost2010PropOp44
 70
     1
102
RTVSPost2010Prop45
280
     0
102
RTVSPost2010PropOp45
 70
     1
102
RTVSPost2010Prop46
 90
       50
102
RTVSPost2010PropOp46
 70
     1
102
RTVSPost2010Prop47
 90
       50
102
RTVSPost2010PropOp47
 70
     1
102
RTVSPost2010Prop48
 90
       50
102
RTVSPost2010PropOp48
 70
     1
102
RTVSPost2010Prop49
280
     0
102
RTVSPost2010PropOp49
 70
     1
102
RTVSPost2010Prop50
 90
       50
102
RTVSPost2010PropOp50
 70
     1
102
RTVSPost2010Prop51ColorIndex
 90
      256
102
RTVSPost2010Prop51ColorRGB
 90
-16777216
102
RTVSPost2010PropOp51
 70
     0
102
RTVSPost2010Prop52
140
1.0
102
RTVSPost2010PropOp52
 70
     0
102
RTVSPost2010Prop53
 90
        2
102
RTVSPost2010PropOp53
 70
     1
102
RTVSPost2010Prop54
  1
strokes_ogs.tif
102
RTVSPost2010PropOp54
 70
     1
102
RTVSPost2010Prop55
280
     0
102
RTVSPost2010PropOp55
 70
     1
102
RTVSPost2010Prop56
140
1.0
102
RTVSPost2010PropOp56
 70
     1
102
RTVSPost2010Prop57
140
1.0
102
RTVSPost2010PropOp57
 70
     1
102
RTVSPropertyOp0
 70
     1
102
RTVSPropertyOp1
 70
     1
102
RTVSPropertyOp2
 70
     1
102
RTVSPropertyOp3
 70
     1
102
RTVSPropertyOp4
 70
     1
102
RTVSPropertyOp5
 70
     1
102
RTVSPropertyOp6
 70
     1
102
RTVSPropertyOp7
 70
     1
102
RTVSPropertyOp8
 70
     1
102
RTVSPropertyOp9
 70
     1
102
RTVSPropertyOp10
 70
     1
102
RTVSPropertyOp11
 70
     1
102
RTVSPropertyOp12
 70
     1
102
RTVSPropertyOp13
 70
     1
102
RTVSPropertyOp14
 70
     1
102
RTVSPropertyOp15
 70
     1
102
RTVSPropertyOp16
 70
     1
102
RTVSPropertyOp17
 70
     1
102
RTVSPropertyOp18
 70
     1
102
RTVSPropertyOp19
 70
     1
102
RTVSPropertyOp20
 70
     1
102
RTVSPropertyOp21
 70
     1
102
RTVSPropertyOp22
 70
     1
102
RTVSPropertyOp23
 70
     1
102
RTVSPropertyOp24
 70
     1
102
RTVSPropertyOp25
 70
     1
102
RTVSPropertyOp26
 70
     1
102
RTVSPropertyOp27
 70
     1
102
RTVSPropertyOp28
 70
     1
102
RTVSPropertyOp29
 70
     1
102
RTVSPropertyOp30
 70
     1
102
RTVSPropertyOp31
 70
     1
102
RTVSPropertyOp32
 70
     1
102
RTVSPropertyOp33
 70
     1
102
RTVSPropertyOp34
 70
     1
102
RTVSPropertyOp35
 70
     1
102
RTVSPropertyOp36
 70
     1
102
RTVSPropertyOp37
 70
     1
102
RTVSPropertyOp38
 70
     1
102
RTVSPropertyOp39
 70
     1
102
RTVSPropertyOp40
 70
     1
102
RTVSPropertyOp41
 70
     1
102
RTVSPropertyOp42
 70
     1
102
RTVSPropertyOp43
 70
     1
102
RTVSPropertyOp44
 70
     1
102
RTVSPropertyOp45
 70
     1
102
RTVSPropertyOp46
 70
     1
102
RTVSPropertyOp47
 70
     1
102
RTVSPropertyOp48
 70
     1
102
RTVSPropertyOp49
 70
     1
102
RTVSPropertyOp50
 70
     1
102
RTVSPropertyOp51
 70
     0
102
RTVSPropertyOp52
 70
     0
102
RTVSPropertyOp53
 70
     1
102
RTVSPropertyOp54
 70
     1
102
RTVSPropertyOp55
 70
     1
102
RTVSPropertyOp56
 70
     1
102
RTVSPropertyOp57
 70
     1
102
RTVSPropertyOp58
 70
     1
102
RTVSPropertyOp59
 70
     1
102
RTVSPropertyOp60
 70
     1
102
RTVSPropertyOp61
 70
     1
102
RTVSPropertyOp62
 70
     1
  0
XRECORD
  5
404F
102
{ACAD_REACTORS
330
404E
102
}
330
404E
100
AcDbXrecord
280
     1
102
RTVSPost2010Prop28
280
     0
102
RTVSPost2010PropOp28
 70
     1
102
RTVSPost2010Prop29
280
     1
102
RTVSPost2010PropOp29
 70
     1
102
RTVSPost2010Prop30
280
     1
102
RTVSPost2010PropOp30
 70
     1
102
RTVSPost2010Prop31
280
     0
102
RTVSPost2010PropOp31
 70
     1
102
RTVSPost2010Prop32
280
     0
102
RTVSPost2010PropOp32
 70
     1
102
RTVSPost2010Prop33
280
     0
102
RTVSPost2010PropOp33
 70
     1
102
RTVSPost2010Prop34
280
     0
102
RTVSPost2010PropOp34
 70
     1
102
RTVSPost2010Prop35
280
     0
102
RTVSPost2010PropOp35
 70
     1
102
RTVSPost2010Prop36
280
     0
102
RTVSPost2010PropOp36
 70
     1
102
RTVSPost2010Prop37
 90
       50
102
RTVSPost2010PropOp37
 70
     1
102
RTVSPost2010Prop38
140
0.0
102
RTVSPost2010PropOp38
 70
     1
102
RTVSPost2010Prop39
140
1.0
102
RTVSPost2010PropOp39
 70
     1
102
RTVSPost2010Prop40
 90
        0
102
RTVSPost2010PropOp40
 70
     1
102
RTVSPost2010Prop41ColorIndex
 90
       18
102
RTVSPost2010Prop41ColorRGB
 90
        0
102
RTVSPost2010PropOp41
 70
     1
102
RTVSPost2010Prop42
 90
       50
102
RTVSPost2010PropOp42
 70
     1
102
RTVSPost2010Prop43
 90
        3
102
RTVSPost2010PropOp43
 70
     1
102
RTVSPost2010Prop44ColorIndex
 90
        5
102
RTVSPost2010Prop44ColorRGB
 90
      255
102
RTVSPost2010PropOp44
 70
     1
102
RTVSPost2010Prop45
280
     0
102
RTVSPost2010PropOp45
 70
     1
102
RTVSPost2010Prop46
 90
       50
102
RTVSPost2010PropOp46
 70
     1
102
RTVSPost2010Prop47
 90
       50
102
RTVSPost2010PropOp47
 70
     1
102
RTVSPost2010Prop48
 90
       50
102
RTVSPost2010PropOp48
 70
     1
102
RTVSPost2010Prop49
280
     0
102
RTVSPost2010PropOp49
 70
     1
102
RTVSPost2010Prop50
 90
       50
102
RTVSPost2010PropOp50
 70
     1
102
RTVSPost2010Prop51ColorIndex
 90
      256
102
RTVSPost2010Prop51ColorRGB
 90
-16777216
102
RTVSPost2010PropOp51
 70
     0
102
RTVSPost2010Prop52
140
1.0
102
RTVSPost2010PropOp52
 70
     0
102
RTVSPost2010Prop53
 90
        2
102
RTVSPost2010PropOp53
 70
     1
102
RTVSPost2010Prop54
  1
strokes_ogs.tif
102
RTVSPost2010PropOp54
 70
     1
102
RTVSPost2010Prop55
280
     0
102
RTVSPost2010PropOp55
 70
     1
102
RTVSPost2010Prop56
140
1.0
102
RTVSPost2010PropOp56
 70
     1
102
RTVSPost2010Prop57
140
1.0
102
RTVSPost2010PropOp57
 70
     1
102
RTVSPropertyOp0
 70
     1
102
RTVSPropertyOp1
 70
     1
102
RTVSPropertyOp2
 70
     1
102
RTVSPropertyOp3
 70
     1
102
RTVSPropertyOp4
 70
     1
102
RTVSPropertyOp5
 70
     1
102
RTVSPropertyOp6
 70
     1
102
RTVSPropertyOp7
 70
     1
102
RTVSPropertyOp8
 70
     1
102
RTVSPropertyOp9
 70
     1
102
RTVSPropertyOp10
 70
     1
102
RTVSPropertyOp11
 70
     1
102
RTVSPropertyOp12
 70
     1
102
RTVSPropertyOp13
 70
     1
102
RTVSPropertyOp14
 70
     1
102
RTVSPropertyOp15
 70
     1
102
RTVSPropertyOp16
 70
     1
102
RTVSPropertyOp17
 70
     1
102
RTVSPropertyOp18
 70
     1
102
RTVSPropertyOp19
 70
     1
102
RTVSPropertyOp20
 70
     1
102
RTVSPropertyOp21
 70
     1
102
RTVSPropertyOp22
 70
     1
102
RTVSPropertyOp23
 70
     1
102
RTVSPropertyOp24
 70
     1
102
RTVSPropertyOp25
 70
     1
102
RTVSPropertyOp26
 70
     1
102
RTVSPropertyOp27
 70
     1
102
RTVSPropertyOp28
 70
     1
102
RTVSPropertyOp29
 70
     1
102
RTVSPropertyOp30
 70
     1
102
RTVSPropertyOp31
 70
     1
102
RTVSPropertyOp32
 70
     1
102
RTVSPropertyOp33
 70
     1
102
RTVSPropertyOp34
 70
     1
102
RTVSPropertyOp35
 70
     1
102
RTVSPropertyOp36
 70
     1
102
RTVSPropertyOp37
 70
     1
102
RTVSPropertyOp38
 70
     1
102
RTVSPropertyOp39
 70
     1
102
RTVSPropertyOp40
 70
     1
102
RTVSPropertyOp41
 70
     1
102
RTVSPropertyOp42
 70
     1
102
RTVSPropertyOp43
 70
     1
102
RTVSPropertyOp44
 70
     1
102
RTVSPropertyOp45
 70
     1
102
RTVSPropertyOp46
 70
     1
102
RTVSPropertyOp47
 70
     1
102
RTVSPropertyOp48
 70
     1
102
RTVSPropertyOp49
 70
     1
102
RTVSPropertyOp50
 70
     1
102
RTVSPropertyOp51
 70
     0
102
RTVSPropertyOp52
 70
     0
102
RTVSPropertyOp53
 70
     1
102
RTVSPropertyOp54
 70
     1
102
RTVSPropertyOp55
 70
     1
102
RTVSPropertyOp56
 70
     1
102
RTVSPropertyOp57
 70
     1
102
RTVSPropertyOp58
 70
     1
102
RTVSPropertyOp59
 70
     1
102
RTVSPropertyOp60
 70
     1
102
RTVSPropertyOp61
 70
     1
102
RTVSPropertyOp62
 70
     1
  0
XRECORD
  5
405F
102
{ACAD_REACTORS
330
405E
102
}
330
405E
100
AcDbXrecord
280
     1
102
RTVSPost2010Prop28
280
     0
102
RTVSPost2010PropOp28
 70
     1
102
RTVSPost2010Prop29
280
     1
102
RTVSPost2010PropOp29
 70
     1
102
RTVSPost2010Prop30
280
     1
102
RTVSPost2010PropOp30
 70
     1
102
RTVSPost2010Prop31
280
     0
102
RTVSPost2010PropOp31
 70
     1
102
RTVSPost2010Prop32
280
     0
102
RTVSPost2010PropOp32
 70
     1
102
RTVSPost2010Prop33
280
     0
102
RTVSPost2010PropOp33
 70
     1
102
RTVSPost2010Prop34
280
     0
102
RTVSPost2010PropOp34
 70
     1
102
RTVSPost2010Prop35
280
     0
102
RTVSPost2010PropOp35
 70
     1
102
RTVSPost2010Prop36
280
     0
102
RTVSPost2010PropOp36
 70
     1
102
RTVSPost2010Prop37
 90
       50
102
RTVSPost2010PropOp37
 70
     1
102
RTVSPost2010Prop38
140
0.0
102
RTVSPost2010PropOp38
 70
     1
102
RTVSPost2010Prop39
140
1.0
102
RTVSPost2010PropOp39
 70
     1
102
RTVSPost2010Prop40
 90
        0
102
RTVSPost2010PropOp40
 70
     1
102
RTVSPost2010Prop41ColorIndex
 90
       18
102
RTVSPost2010Prop41ColorRGB
 90
        0
102
RTVSPost2010PropOp41
 70
     1
102
RTVSPost2010Prop42
 90
       50
102
RTVSPost2010PropOp42
 70
     1
102
RTVSPost2010Prop43
 90
        3
102
RTVSPost2010PropOp43
 70
     1
102
RTVSPost2010Prop44ColorIndex
 90
        5
102
RTVSPost2010Prop44ColorRGB
 90
      255
102
RTVSPost2010PropOp44
 70
     1
102
RTVSPost2010Prop45
280
     0
102
RTVSPost2010PropOp45
 70
     1
102
RTVSPost2010Prop46
 90
       50
102
RTVSPost2010PropOp46
 70
     1
102
RTVSPost2010Prop47
 90
       50
102
RTVSPost2010PropOp47
 70
     1
102
RTVSPost2010Prop48
 90
       50
102
RTVSPost2010PropOp48
 70
     1
102
RTVSPost2010Prop49
280
     0
102
RTVSPost2010PropOp49
 70
     1
102
RTVSPost2010Prop50
 90
       50
102
RTVSPost2010PropOp50
 70
     1
102
RTVSPost2010Prop51ColorIndex
 90
      256
102
RTVSPost2010Prop51ColorRGB
 90
-16777216
102
RTVSPost2010PropOp51
 70
     0
102
RTVSPost2010Prop52
140
1.0
102
RTVSPost2010PropOp52
 70
     0
102
RTVSPost2010Prop53
 90
        2
102
RTVSPost2010PropOp53
 70
     1
102
RTVSPost2010Prop54
  1
strokes_ogs.tif
102
RTVSPost2010PropOp54
 70
     1
102
RTVSPost2010Prop55
280
     0
102
RTVSPost2010PropOp55
 70
     1
102
RTVSPost2010Prop56
140
1.0
102
RTVSPost2010PropOp56
 70
     1
102
RTVSPost2010Prop57
140
1.0
102
RTVSPost2010PropOp57
 70
     1
102
RTVSPropertyOp0
 70
     1
102
RTVSPropertyOp1
 70
     1
102
RTVSPropertyOp2
 70
     1
102
RTVSPropertyOp3
 70
     1
102
RTVSPropertyOp4
 70
     1
102
RTVSPropertyOp5
 70
     1
102
RTVSPropertyOp6
 70
     1
102
RTVSPropertyOp7
 70
     1
102
RTVSPropertyOp8
 70
     1
102
RTVSPropertyOp9
 70
     1
102
RTVSPropertyOp10
 70
     1
102
RTVSPropertyOp11
 70
     1
102
RTVSPropertyOp12
 70
     1
102
RTVSPropertyOp13
 70
     1
102
RTVSPropertyOp14
 70
     1
102
RTVSPropertyOp15
 70
     1
102
RTVSPropertyOp16
 70
     1
102
RTVSPropertyOp17
 70
     1
102
RTVSPropertyOp18
 70
     1
102
RTVSPropertyOp19
 70
     1
102
RTVSPropertyOp20
 70
     1
102
RTVSPropertyOp21
 70
     1
102
RTVSPropertyOp22
 70
     1
102
RTVSPropertyOp23
 70
     1
102
RTVSPropertyOp24
 70
     1
102
RTVSPropertyOp25
 70
     1
102
RTVSPropertyOp26
 70
     1
102
RTVSPropertyOp27
 70
     1
102
RTVSPropertyOp28
 70
     1
102
RTVSPropertyOp29
 70
     1
102
RTVSPropertyOp30
 70
     1
102
RTVSPropertyOp31
 70
     1
102
RTVSPropertyOp32
 70
     1
102
RTVSPropertyOp33
 70
     1
102
RTVSPropertyOp34
 70
     1
102
RTVSPropertyOp35
 70
     1
102
RTVSPropertyOp36
 70
     1
102
RTVSPropertyOp37
 70
     1
102
RTVSPropertyOp38
 70
     1
102
RTVSPropertyOp39
 70
     1
102
RTVSPropertyOp40
 70
     1
102
RTVSPropertyOp41
 70
     1
102
RTVSPropertyOp42
 70
     1
102
RTVSPropertyOp43
 70
     1
102
RTVSPropertyOp44
 70
     1
102
RTVSPropertyOp45
 70
     1
102
RTVSPropertyOp46
 70
     1
102
RTVSPropertyOp47
 70
     1
102
RTVSPropertyOp48
 70
     1
102
RTVSPropertyOp49
 70
     1
102
RTVSPropertyOp50
 70
     1
102
RTVSPropertyOp51
 70
     0
102
RTVSPropertyOp52
 70
     0
102
RTVSPropertyOp53
 70
     1
102
RTVSPropertyOp54
 70
     1
102
RTVSPropertyOp55
 70
     1
102
RTVSPropertyOp56
 70
     1
102
RTVSPropertyOp57
 70
     1
102
RTVSPropertyOp58
 70
     1
102
RTVSPropertyOp59
 70
     1
102
RTVSPropertyOp60
 70
     1
102
RTVSPropertyOp61
 70
     1
102
RTVSPropertyOp62
 70
     1
  0
XRECORD
  5
4067
102
{ACAD_REACTORS
330
4066
102
}
330
4066
100
AcDbXrecord
280
     1
102
RTVSPost2010Prop28
280
     0
102
RTVSPost2010PropOp28
 70
     1
102
RTVSPost2010Prop29
280
     1
102
RTVSPost2010PropOp29
 70
     1
102
RTVSPost2010Prop30
280
     1
102
RTVSPost2010PropOp30
 70
     1
102
RTVSPost2010Prop31
280
     0
102
RTVSPost2010PropOp31
 70
     1
102
RTVSPost2010Prop32
280
     0
102
RTVSPost2010PropOp32
 70
     1
102
RTVSPost2010Prop33
280
     0
102
RTVSPost2010PropOp33
 70
     1
102
RTVSPost2010Prop34
280
     0
102
RTVSPost2010PropOp34
 70
     1
102
RTVSPost2010Prop35
280
     0
102
RTVSPost2010PropOp35
 70
     1
102
RTVSPost2010Prop36
280
     0
102
RTVSPost2010PropOp36
 70
     1
102
RTVSPost2010Prop37
 90
       50
102
RTVSPost2010PropOp37
 70
     1
102
RTVSPost2010Prop38
140
0.0
102
RTVSPost2010PropOp38
 70
     1
102
RTVSPost2010Prop39
140
1.0
102
RTVSPost2010PropOp39
 70
     1
102
RTVSPost2010Prop40
 90
        0
102
RTVSPost2010PropOp40
 70
     1
102
RTVSPost2010Prop41ColorIndex
 90
       18
102
RTVSPost2010Prop41ColorRGB
 90
        0
102
RTVSPost2010PropOp41
 70
     1
102
RTVSPost2010Prop42
 90
       50
102
RTVSPost2010PropOp42
 70
     1
102
RTVSPost2010Prop43
 90
        3
102
RTVSPost2010PropOp43
 70
     1
102
RTVSPost2010Prop44ColorIndex
 90
        5
102
RTVSPost2010Prop44ColorRGB
 90
      255
102
RTVSPost2010PropOp44
 70
     1
102
RTVSPost2010Prop45
280
     0
102
RTVSPost2010PropOp45
 70
     1
102
RTVSPost2010Prop46
 90
       50
102
RTVSPost2010PropOp46
 70
     1
102
RTVSPost2010Prop47
 90
       50
102
RTVSPost2010PropOp47
 70
     1
102
RTVSPost2010Prop48
 90
       50
102
RTVSPost2010PropOp48
 70
     1
102
RTVSPost2010Prop49
280
     0
102
RTVSPost2010PropOp49
 70
     1
102
RTVSPost2010Prop50
 90
       50
102
RTVSPost2010PropOp50
 70
     1
102
RTVSPost2010Prop51ColorIndex
 90
      256
102
RTVSPost2010Prop51ColorRGB
 90
-16777216
102
RTVSPost2010PropOp51
 70
     0
102
RTVSPost2010Prop52
140
1.0
102
RTVSPost2010PropOp52
 70
     0
102
RTVSPost2010Prop53
 90
        2
102
RTVSPost2010PropOp53
 70
     1
102
RTVSPost2010Prop54
  1
strokes_ogs.tif
102
RTVSPost2010PropOp54
 70
     1
102
RTVSPost2010Prop55
280
     0
102
RTVSPost2010PropOp55
 70
     1
102
RTVSPost2010Prop56
140
1.0
102
RTVSPost2010PropOp56
 70
     1
102
RTVSPost2010Prop57
140
1.0
102
RTVSPost2010PropOp57
 70
     1
102
RTVSPropertyOp0
 70
     1
102
RTVSPropertyOp1
 70
     1
102
RTVSPropertyOp2
 70
     1
102
RTVSPropertyOp3
 70
     1
102
RTVSPropertyOp4
 70
     1
102
RTVSPropertyOp5
 70
     1
102
RTVSPropertyOp6
 70
     1
102
RTVSPropertyOp7
 70
     1
102
RTVSPropertyOp8
 70
     1
102
RTVSPropertyOp9
 70
     1
102
RTVSPropertyOp10
 70
     1
102
RTVSPropertyOp11
 70
     1
102
RTVSPropertyOp12
 70
     1
102
RTVSPropertyOp13
 70
     1
102
RTVSPropertyOp14
 70
     1
102
RTVSPropertyOp15
 70
     1
102
RTVSPropertyOp16
 70
     1
102
RTVSPropertyOp17
 70
     1
102
RTVSPropertyOp18
 70
     1
102
RTVSPropertyOp19
 70
     1
102
RTVSPropertyOp20
 70
     1
102
RTVSPropertyOp21
 70
     1
102
RTVSPropertyOp22
 70
     1
102
RTVSPropertyOp23
 70
     1
102
RTVSPropertyOp24
 70
     1
102
RTVSPropertyOp25
 70
     1
102
RTVSPropertyOp26
 70
     1
102
RTVSPropertyOp27
 70
     1
102
RTVSPropertyOp28
 70
     1
102
RTVSPropertyOp29
 70
     1
102
RTVSPropertyOp30
 70
     1
102
RTVSPropertyOp31
 70
     1
102
RTVSPropertyOp32
 70
     1
102
RTVSPropertyOp33
 70
     1
102
RTVSPropertyOp34
 70
     1
102
RTVSPropertyOp35
 70
     1
102
RTVSPropertyOp36
 70
     1
102
RTVSPropertyOp37
 70
     1
102
RTVSPropertyOp38
 70
     1
102
RTVSPropertyOp39
 70
     1
102
RTVSPropertyOp40
 70
     1
102
RTVSPropertyOp41
 70
     1
102
RTVSPropertyOp42
 70
     1
102
RTVSPropertyOp43
 70
     1
102
RTVSPropertyOp44
 70
     1
102
RTVSPropertyOp45
 70
     1
102
RTVSPropertyOp46
 70
     1
102
RTVSPropertyOp47
 70
     1
102
RTVSPropertyOp48
 70
     1
102
RTVSPropertyOp49
 70
     1
102
RTVSPropertyOp50
 70
     1
102
RTVSPropertyOp51
 70
     0
102
RTVSPropertyOp52
 70
     0
102
RTVSPropertyOp53
 70
     1
102
RTVSPropertyOp54
 70
     1
102
RTVSPropertyOp55
 70
     1
102
RTVSPropertyOp56
 70
     1
102
RTVSPropertyOp57
 70
     1
102
RTVSPropertyOp58
 70
     1
102
RTVSPropertyOp59
 70
     1
102
RTVSPropertyOp60
 70
     1
102
RTVSPropertyOp61
 70
     1
102
RTVSPropertyOp62
 70
     1
  0
XRECORD
  5
288B
102
{ACAD_REACTORS
330
288A
102
}
330
288A
100
AcDbXrecord
280
     1
330
4B
  0
ENDSEC
  0
EOF
