  0
SECTION
  2
HEADER
  9
$ACADVER
  1
AC1015
  9
$ACADMAINTVER
 70
    20
  9
$DWGCODEPAGE
  3
ANSI_1252
  9
$INSBASE
 10
0.0
 20
0.0
 30
0.0
  9
$EXTMIN
 10
20.98799217644887
 20
12.9997541738522
 30
-0.062001891945491
  9
$EXTMAX
 10
24.43268018638729
 20
15.19408427798218
 30
0.000001892234201
  9
$LIMMIN
 10
0.0
 20
0.0
  9
$LIMMAX
 10
12.0
 20
9.0
  9
$ORTHOMODE
 70
     0
  9
$REGENMODE
 70
     1
  9
$FILLMODE
 70
     1
  9
$QTEXTMODE
 70
     0
  9
$MIRRTEXT
 70
     0
  9
$LTSCALE
 40
1.0
  9
$ATTMODE
 70
     1
  9
$TEXTSIZE
 40
0.2
  9
$TRACEWID
 40
0.05
  9
$TEXTSTYLE
  7
Standard
  9
$CLAYER
  8
0
  9
$CELTYPE
  6
ByLayer
  9
$CECOLOR
 62
   256
  9
$CELTSCALE
 40
1.0
  9
$DISPSILH
 70
     0
  9
$DIMSCALE
 40
1.0
  9
$DIMASZ
 40
0.12
  9
$DIMEXO
 40
0.05
  9
$DIMDLI
 40
0.5
  9
$DIMRND
 40
0.0
  9
$DIMDLE
 40
0.0
  9
$DIMEXE
 40
0.1
  9
$DIMTP
 40
0.1
  9
$DIMTM
 40
0.1
  9
$DIMTXT
 40
0.12
  9
$DIMCEN
 40
0.0
  9
$DIMTSZ
 40
0.0
  9
$DIMTOL
 70
     0
  9
$DIMLIM
 70
     0
  9
$DIMTIH
 70
     1
  9
$DIMTOH
 70
     1
  9
$DIMSE1
 70
     0
  9
$DIMSE2
 70
     0
  9
$DIMTAD
 70
     0
  9
$DIMZIN
 70
     7
  9
$DIMBLK
  1

  9
$DIMASO
 70
     1
  9
$DIMSHO
 70
     1
  9
$DIMPOST
  1

  9
$DIMAPOST
  1
mm
  9
$DIMALT
 70
     0
  9
$DIMALTD
 70
     2
  9
$DIMALTF
 40
25.4
  9
$DIMLFAC
 40
1.0
  9
$DIMTOFL
 70
     0
  9
$DIMTVP
 40
0.0
  9
$DIMTIX
 70
     0
  9
$DIMSOXD
 70
     0
  9
$DIMSAH
 70
     0
  9
$DIMBLK1
  1

  9
$DIMBLK2
  1

  9
$DIMSTYLE
  2
AM_ANSI
  9
$DIMCLRD
 70
   256
  9
$DIMCLRE
 70
   256
  9
$DIMCLRT
 70
     2
  9
$DIMTFAC
 40
0.71
  9
$DIMGAP
 40
0.06
  9
$DIMJUST
 70
     0
  9
$DIMSD1
 70
     0
  9
$DIMSD2
 70
     0
  9
$DIMTOLJ
 70
     1
  9
$DIMTZIN
 70
     7
  9
$DIMALTZ
 70
     0
  9
$DIMALTTZ
 70
     0
  9
$DIMUPT
 70
     0
  9
$DIMDEC
 70
     4
  9
$DIMTDEC
 70
     4
  9
$DIMALTU
 70
     2
  9
$DIMALTTD
 70
     4
  9
$DIMTXSTY
  7
Standard
  9
$DIMAUNIT
 70
     0
  9
$DIMADEC
 70
     0
  9
$DIMALTRND
 40
0.0
  9
$DIMAZIN
 70
     2
  9
$DIMDSEP
 70
    46
  9
$DIMATFIT
 70
     3
  9
$DIMFRAC
 70
     0
  9
$DIMLDRBLK
  1

  9
$DIMLUNIT
 70
     2
  9
$DIMLWD
 70
    -1
  9
$DIMLWE
 70
    -1
  9
$DIMTMOVE
 70
     0
  9
$LUNITS
 70
     2
  9
$LUPREC
 70
     4
  9
$SKETCHINC
 40
0.1
  9
$FILLETRAD
 40
0.0
  9
$AUNITS
 70
     0
  9
$AUPREC
 70
     0
  9
$MENU
  1
.
  9
$ELEVATION
 40
0.0
  9
$PELEVATION
 40
0.0
  9
$THICKNESS
 40
0.0
  9
$LIMCHECK
 70
     0
  9
$CHAMFERA
 40
0.0
  9
$CHAMFERB
 40
0.0
  9
$CHAMFERC
 40
0.0
  9
$CHAMFERD
 40
0.0
  9
$SKPOLY
 70
     0
  9
$TDCREATE
 40
2456469.462548704
  9
$TDUCREATE
 40
2456469.629215370
  9
$TDUPDATE
 40
2456905.544415324
  9
$TDUUPDATE
 40
2456905.711081991
  9
$TDINDWG
 40
0.0025156944
  9
$TDUSRTIMER
 40
0.0025155324
  9
$USRTIMER
 70
     1
  9
$ANGBASE
 50
0.0
  9
$ANGDIR
 70
     0
  9
$PDMODE
 70
     0
  9
$PDSIZE
 40
0.0
  9
$PLINEWID
 40
0.0
  9
$SPLFRAME
 70
     0
  9
$SPLINETYPE
 70
     6
  9
$SPLINESEGS
 70
     8
  9
$HANDSEED
  5
A07
  9
$SURFTAB1
 70
     6
  9
$SURFTAB2
 70
     6
  9
$SURFTYPE
 70
     6
  9
$SURFU
 70
     6
  9
$SURFV
 70
     6
  9
$UCSBASE
  2

  9
$UCSNAME
  2

  9
$UCSORG
 10
0.0
 20
0.0
 30
0.0
  9
$UCSXDIR
 10
1.0
 20
0.0
 30
0.0
  9
$UCSYDIR
 10
0.0
 20
1.0
 30
0.0
  9
$UCSORTHOREF
  2

  9
$UCSORTHOVIEW
 70
     0
  9
$UCSORGTOP
 10
0.0
 20
0.0
 30
0.0
  9
$UCSORGBOTTOM
 10
0.0
 20
0.0
 30
0.0
  9
$UCSORGLEFT
 10
0.0
 20
0.0
 30
0.0
  9
$UCSORGRIGHT
 10
0.0
 20
0.0
 30
0.0
  9
$UCSORGFRONT
 10
0.0
 20
0.0
 30
0.0
  9
$UCSORGBACK
 10
0.0
 20
0.0
 30
0.0
  9
$PUCSBASE
  2

  9
$PUCSNAME
  2

  9
$PUCSORG
 10
0.0
 20
0.0
 30
0.0
  9
$PUCSXDIR
 10
1.0
 20
0.0
 30
0.0
  9
$PUCSYDIR
 10
0.0
 20
1.0
 30
0.0
  9
$PUCSORTHOREF
  2

  9
$PUCSORTHOVIEW
 70
     0
  9
$PUCSORGTOP
 10
0.0
 20
0.0
 30
0.0
  9
$PUCSORGBOTTOM
 10
0.0
 20
0.0
 30
0.0
  9
$PUCSORGLEFT
 10
0.0
 20
0.0
 30
0.0
  9
$PUCSORGRIGHT
 10
0.0
 20
0.0
 30
0.0
  9
$PUCSORGFRONT
 10
0.0
 20
0.0
 30
0.0
  9
$PUCSORGBACK
 10
0.0
 20
0.0
 30
0.0
  9
$USERI1
 70
     0
  9
$USERI2
 70
     0
  9
$USERI3
 70
     0
  9
$USERI4
 70
     0
  9
$USERI5
 70
     0
  9
$USERR1
 40
0.0
  9
$USERR2
 40
0.0
  9
$USERR3
 40
0.0
  9
$USERR4
 40
0.0
  9
$USERR5
 40
0.0
  9
$WORLDVIEW
 70
     1
  9
$SHADEDGE
 70
     3
  9
$SHADEDIF
 70
    70
  9
$TILEMODE
 70
     1
  9
$MAXACTVP
 70
    64
  9
$PINSBASE
 10
0.0
 20
0.0
 30
0.0
  9
$PLIMCHECK
 70
     0
  9
$PEXTMIN
 10
0.0
 20
0.0
 30
0.0
  9
$PEXTMAX
 10
0.0
 20
0.0
 30
0.0
  9
$PLIMMIN
 10
0.0
 20
0.0
  9
$PLIMMAX
 10
12.0
 20
9.0
  9
$UNITMODE
 70
     0
  9
$VISRETAIN
 70
     1
  9
$PLINEGEN
 70
     0
  9
$PSLTSCALE
 70
     1
  9
$TREEDEPTH
 70
  3020
  9
$CMLSTYLE
  2
Standard
  9
$CMLJUST
 70
     0
  9
$CMLSCALE
 40
1.0
  9
$PROXYGRAPHICS
 70
     1
  9
$MEASUREMENT
 70
     0
  9
$CELWEIGHT
370
    -1
  9
$ENDCAPS
280
     0
  9
$JOINSTYLE
280
     0
  9
$LWDISPLAY
290
     0
  9
$INSUNITS
 70
     1
  9
$HYPERLINKBASE
  1

  9
$STYLESHEET
  1

  9
$XEDIT
290
     1
  9
$CEPSNTYPE
380
     0
  9
$PSTYLEMODE
290
     1
  9
$FINGERPRINTGUID
  2
{7CB55BA6-4DD2-4050-B107-2E689C6F3830}
  9
$VERSIONGUID
  2
{8C672395-0BF3-4033-89D6-C4113F19E722}
  9
$EXTNAMES
290
     1
  9
$PSVPSCALE
 40
0.0
  9
$OLESTARTUP
290
     0
  0
ENDSEC
  0
SECTION
  2
CLASSES
  0
CLASS
  1
ACDBDICTIONARYWDFLT
  2
AcDbDictionaryWithDefault
  3
ObjectDBX Classes
 90
        0
280
     0
281
     0
  0
CLASS
  1
ACDBPLACEHOLDER
  2
AcDbPlaceHolder
  3
ObjectDBX Classes
 90
        0
280
     0
281
     0
  0
CLASS
  1
LAYOUT
  2
AcDbLayout
  3
ObjectDBX Classes
 90
        0
280
     0
281
     0
  0
CLASS
  1
DICTIONARYVAR
  2
AcDbDictionaryVar
  3
ObjectDBX Classes
 90
        0
280
     0
281
     0
  0
CLASS
  1
TABLESTYLE
  2
AcDbTableStyle
  3
ObjectDBX Classes
 90
     4095
280
     0
281
     0
  0
CLASS
  1
MATERIAL
  2
AcDbMaterial
  3
ObjectDBX Classes
 90
     1153
280
     0
281
     0
  0
CLASS
  1
VISUALSTYLE
  2
AcDbVisualStyle
  3
ObjectDBX Classes
 90
     4095
280
     0
281
     0
  0
CLASS
  1
SCALE
  2
AcDbScale
  3
ObjectDBX Classes
 90
     1153
280
     0
281
     0
  0
CLASS
  1
MLEADERSTYLE
  2
AcDbMLeaderStyle
  3
ACDB_MLEADERSTYLE_CLASS
 90
     4095
280
     0
281
     0
  0
CLASS
  1
CELLSTYLEMAP
  2
AcDbCellStyleMap
  3
ObjectDBX Classes
 90
     1152
280
     0
281
     0
  0
CLASS
  1
EXACXREFPANELOBJECT
  2
ExAcXREFPanelObject
  3
EXAC_ESW
 90
    33793
280
     0
281
     0
  0
CLASS
  1
NPOCOLLECTION
  2
AcDbImpNonPersistentObjectsCollection
  3
ObjectDBX Classes
 90
    33921
280
     0
281
     0
  0
CLASS
  1
LAYER_INDEX
  2
AcDbLayerIndex
  3
ObjectDBX Classes
 90
    32768
280
     0
281
     0
  0
CLASS
  1
SPATIAL_INDEX
  2
AcDbSpatialIndex
  3
ObjectDBX Classes
 90
    32768
280
     0
281
     0
  0
CLASS
  1
IDBUFFER
  2
AcDbIdBuffer
  3
ObjectDBX Classes
 90
    32768
280
     0
281
     0
  0
CLASS
  1
ACDBSECTIONVIEWSTYLE
  2
AcDbSectionViewStyle
  3
ObjectDBX Classes
 90
     1025
280
     0
281
     0
  0
CLASS
  1
ACDBDETAILVIEWSTYLE
  2
AcDbDetailViewStyle
  3
ObjectDBX Classes
 90
     1025
280
     0
281
     0
  0
CLASS
  1
ACME_DOCUMENT
  2
AcMeDbDoc
  3
AcMeServices
 90
     1024
280
     0
281
     0
  0
CLASS
  1
AMGSETTINGSOBJ
  2
AmgSettingsObj
  3
"AcadM|Product Description: AutoCAD Mechanical|Company: Autodesk, Inc."
 90
     1024
280
     0
281
     0
  0
CLASS
  1
ACMESCOPE
  2
AcMeScope
  3
AcMeServices
 90
     1024
280
     0
281
     0
  0
CLASS
  1
ACMECOMMANDHISTORY
  2
AcMeCommandHistory
  3
AcMeServices
 90
     1024
280
     0
281
     0
  0
CLASS
  1
ACIMSYSVARMAN
  2
AcImSysVarManager
  3
AcMeServices
 90
     1024
280
     0
281
     0
  0
CLASS
  1
ACIMINTSYSVAR
  2
AcImIntSysVar
  3
AcMeServices
 90
     1024
280
     0
281
     0
  0
CLASS
  1
ACMESTATEMGR
  2
AcMeStateMgr
  3
AcMeServices
 90
     1024
280
     0
281
     0
  0
CLASS
  1
ACDBENTITYCACHE
  2
AcMeEntityCache
  3
AcMeServices
 90
     1024
280
     0
281
     0
  0
CLASS
  1
ACGREFMASTER
  2
AcGrefMaster
  3
AcAttribServices
 90
     1024
280
     0
281
     0
  0
CLASS
  1
ACME_DATABASE
  2
AcMeDbDatabase
  3
AcMeServices
 90
     1024
280
     0
281
     0
  0
CLASS
  1
ACRFINSADJUSTERMGR
  2
AcRfInsAdjusterMgr
  3
AcMeServices
 90
     1024
280
     0
281
     0
  0
CLASS
  1
ACGREFACADMASTER
  2
AcGrefacadMaster
  3
AcGrefServices
 90
     1024
280
     0
281
     0
  0
CLASS
  1
AMDTMENUSTATEMGR
  2
AmdtMenuStateMgr
  3
McadcomServices
 90
     1024
280
     0
281
     0
  0
CLASS
  1
AMDTMCOMMENUSTATE
  2
AmdtMcomMenuState
  3
McadcomServices
 90
     1024
280
     0
281
     0
  0
CLASS
  1
AMIMASTER
  2
AmiMaster
  3
AmiServices
 90
     1024
280
     0
281
     0
  0
CLASS
  1
MAPIAMMOUDLE
  2
MApiAmModule
  3
MApiAmServices
 90
     1024
280
     0
281
     0
  0
CLASS
  1
ACIMSTRSYSVAR
  2
AcImStrSysVar
  3
AcMeServices
 90
     1024
280
     0
281
     0
  0
CLASS
  1
AMDTAMMENUSTATE
  2
AmdtAmMenuState
  3
DesignerAssemblies
 90
     1024
280
     0
281
     0
  0
CLASS
  1
ACAMPROJECT
  2
AcAmProject
  3
DesignerAssemblies
 90
     1024
280
     0
281
     0
  0
CLASS
  1
ACAMGRCOMPDEF
  2
AcAmGrCompDef
  3
DesignerAssemblies
 90
     1024
280
     0
281
     0
  0
CLASS
  1
ACAMCOMPDEF
  2
AcAmCompDef
  3
DesignerAssemblies
 90
     1024
280
     0
281
     0
  0
CLASS
  1
ACAMCOMPDEFMGR
  2
AcAmCompDefMgr
  3
DesignerAssemblies
 90
     1024
280
     0
281
     0
  0
CLASS
  1
AMCONTEXTMGR
  2
AcAmContextMgr
  3
DesignerAssemblies
 90
     1024
280
     0
281
     0
  0
CLASS
  1
ACAMCONTEXTMODELER
  2
AcAmContextModeler
  3
DesignerAssemblies
 90
     1024
280
     0
281
     0
  0
CLASS
  1
ACMDATADICTIONARY
  2
AcmDataDictionary
  3
"AcmSymBB|Product Description: AutoCAD Mechanical|Company: Autodesk, Inc."
 90
     1024
280
     0
281
     0
  0
CLASS
  1
ACMSTANDARDANSI
  2
AcmStandardANSI
  3
"Amdt_StdImp|Product Description: AutoCAD Mechanical|Company: Autodesk, Inc."
 90
     1024
280
     0
281
     0
  0
CLASS
  1
ACMSURFSTANDARDANSI
  2
AcmSurfTextStdANSI
  3
"Amdt_StdImp|Product Description: AutoCAD Mechanical|Company: Autodesk, Inc."
 90
     1024
280
     0
281
     0
  0
CLASS
  1
ACMFCFSTANDARDANSI
  2
AcmFCFStdANSI
  3
"Amdt_StdImp|Product Description: AutoCAD Mechanical|Company: Autodesk, Inc."
 90
     1024
280
     0
281
     0
  0
CLASS
  1
ACMWELDSTANDARDANSI
  2
AcmWeldingStdANSI
  3
"Amdt_StdImp|Product Description: AutoCAD Mechanical|Company: Autodesk, Inc."
 90
     1024
280
     0
281
     0
  0
CLASS
  1
ACMIDSTANDARDANSI
  2
AcmIdStdANSI
  3
"Amdt_StdImp|Product Description: AutoCAD Mechanical|Company: Autodesk, Inc."
 90
     1024
280
     0
281
     0
  0
CLASS
  1
ACMDATUMSTANDARDANSI
  2
AcmDatumStdANSI
  3
"Amdt_StdImp|Product Description: AutoCAD Mechanical|Company: Autodesk, Inc."
 90
     1024
280
     0
281
     0
  0
CLASS
  1
ACMBOMSTANDARDANSI
  2
AcmBOMStdANSI
  3
"Amdt_StdImp|Product Description: AutoCAD Mechanical|Company: Autodesk, Inc."
 90
     1024
280
     0
281
     0
  0
CLASS
  1
ACMDETAILSTANDARDANSI
  2
AmdtDetailSymStdANSI
  3
"Amdt_StdImp|Product Description: AutoCAD Mechanical|Company: Autodesk, Inc."
 90
     1024
280
     0
281
     0
  0
CLASS
  1
ACMSECTIONSTANDARDANSI
  2
AmdtSectionSymStdANSI
  3
"Amdt_StdImp|Product Description: AutoCAD Mechanical|Company: Autodesk, Inc."
 90
     1024
280
     0
281
     0
  0
CLASS
  1
ACMCENTERLINESTANDARDANSI
  2
AmdtCenterLineStdANSI
  3
"Amdt_StdImp|Product Description: AutoCAD Mechanical|Company: Autodesk, Inc."
 90
     1024
280
     0
281
     0
  0
CLASS
  1
ACMTHREADLINESTANDARDANSI
  2
AmdtThreadLineStdANSI
  3
"Amdt_StdImp|Product Description: AutoCAD Mechanical|Company: Autodesk, Inc."
 90
     1024
280
     0
281
     0
  0
CLASS
  1
ACMNOTESTANDARDANSI
  2
AmdtNoteStdANSI
  3
"Amdt_StdImp|Product Description: AutoCAD Mechanical|Company: Autodesk, Inc."
 90
     1024
280
     0
281
     0
  0
CLASS
  1
ACMTAPERSTANDARDANSI
  2
AcmTaperStdANSI
  3
"Amdt_StdImp|Product Description: AutoCAD Mechanical|Company: Autodesk, Inc."
 90
     1024
280
     0
281
     0
  0
CLASS
  1
ACMANOOTATIONVIEWSTANDARDANSI
  2
AmdtAnViewStdANSI
  3
"Amdt_StdImp|Product Description: AutoCAD Mechanical|Company: Autodesk, Inc."
 90
     1024
280
     0
281
     0
  0
CLASS
  1
ACAMGLAYSTD
  2
AcAmgLayStd
  3
"AmgLay|Product Description: AutoCAD Mechanical|Company: Autodesk, Inc."
 90
     1024
280
     0
281
     0
  0
CLASS
  1
ACAMGDIMSTD
  2
AcAmgDimStd
  3
"AmgDim|Product Description: AutoCAD Mechanical|Company: Autodesk, Inc."
 90
     1024
280
     0
281
     0
  0
CLASS
  1
AMGOBJPROPCFG
  2
AmgObjPropCfg
  3
"AmgLay|Product Description: AutoCAD Mechanical|Company: Autodesk, Inc."
 90
     1024
280
     0
281
     0
  0
CLASS
  1
ACAMGHOLECHARTSTDANSI
  2
AcAmgHoleChartStdANSI
  3
AmgDim|Product Description: AutoCAD Mechanical|Company: Autodesk, Inc.
 90
     1024
280
     0
281
     0
  0
CLASS
  1
ACAMGTITLESTD
  2
AcAmgTitleStd
  3
"AmgTitle|Product Description: AutoCAD Mechanical|Company: Autodesk, Inc."
 90
     1024
280
     0
281
     0
  0
CLASS
  1
AMDTNOTETEMPLATEDB
  2
AmdtNoteTemplateDB
  3
AcmSymBB|Product Description: AutoCAD Mechanical|Company: Autodesk, Inc.
 90
     1024
280
     0
281
     0
  0
CLASS
  1
ACAMGRCOMPDEFSET
  2
AcAmGrCompDefSet
  3
DesignerAssemblies
 90
     1024
280
     0
281
     0
  0
CLASS
  1
AMDTBROWSERDBTAB
  2
AmdtBrowserDbTab
  3
McadcomServices
 90
     1024
280
     0
281
     0
  0
CLASS
  1
CBROWSERAPPOBJECT
  2
CBrowserAppObject
  3
McadcomServices
 90
     1024
280
     0
281
     0
  0
CLASS
  1
DM_PLACEHOLDER
  2
AcDmSelsetPlaceholder
  3
McadcomServices
 90
     1024
280
     0
281
     0
  0
CLASS
  1
SORTENTSTABLE
  2
AcDbSortentsTable
  3
ObjectDBX Classes
 90
    32768
280
     0
281
     0
  0
CLASS
  1
ACAMGFILTERDAT
  2
AcAmgFilterDat
  3
"AcadM|Product Description: AutoCAD Mechanical|Company: Autodesk, Inc."
 90
    33792
280
     0
281
     0
  0
ENDSEC
  0
SECTION
  2
TABLES
  0
TABLE
  2
VPORT
  5
8
330
0
100
AcDbSymbolTable
 70
     1
  0
VPORT
  5
94
330
8
100
AcDbSymbolTableRecord
100
AcDbViewportTableRecord
  2
*Active
 70
     0
 10
0.0
 20
0.0
 11
1.0
 21
1.0
 12
22.83238639340482
 22
14.02140029850318
 13
0.0
 23
0.0
 14
0.5
 24
0.5
 15
0.5
 25
0.5
 16
0.0
 26
0.0
 36
1.0
 17
0.0
 27
0.0
 37
0.0
 40
3.534878442722676
 41
2.035582822085889
 42
50.0
 43
0.0
 44
0.0
 50
0.0
 51
0.0
 71
     0
 72
  1000
 73
     1
 74
     3
 75
     0
 76
     1
 77
     0
 78
     0
281
     0
 65
     0
110
0.0
120
0.0
130
0.0
111
1.0
121
0.0
131
0.0
112
0.0
122
1.0
132
0.0
 79
     0
146
0.0
1001
ACAD_NAV_VCDISPLAY
1070
     3
  0
ENDTAB
  0
TABLE
  2
LTYPE
  5
5
330
0
100
AcDbSymbolTable
 70
    16
  0
LTYPE
  5
14
330
5
100
AcDbSymbolTableRecord
100
AcDbLinetypeTableRecord
  2
ByBlock
 70
     0
  3

 72
    65
 73
     0
 40
0.0
  0
LTYPE
  5
15
330
5
100
AcDbSymbolTableRecord
100
AcDbLinetypeTableRecord
  2
ByLayer
 70
     0
  3

 72
    65
 73
     0
 40
0.0
  0
LTYPE
  5
16
330
5
100
AcDbSymbolTableRecord
100
AcDbLinetypeTableRecord
  2
Continuous
 70
     0
  3
Solid line
 72
    65
 73
     0
 40
0.0
  0
LTYPE
  5
1A9
330
5
100
AcDbSymbolTableRecord
100
AcDbLinetypeTableRecord
  2
PHANTOM2
 70
     0
  3
Phantom (.5x) ___ _ _ ___ _ _ ___ _ _ ___ _ _
 72
    65
 73
     6
 40
1.25
 49
0.625
 74
     0
 49
-0.125
 74
     0
 49
0.125
 74
     0
 49
-0.125
 74
     0
 49
0.125
 74
     0
 49
-0.125
 74
     0
  0
LTYPE
  5
1CA
330
5
100
AcDbSymbolTableRecord
100
AcDbLinetypeTableRecord
  2
HIDDEN
 70
     0
  3
Hidden __ __ __ __ __ __ __ __ __ __ __ __ __ _
 72
    65
 73
     2
 40
0.375
 49
0.25
 74
     0
 49
-0.125
 74
     0
  0
LTYPE
  5
1CB
330
5
100
AcDbSymbolTableRecord
100
AcDbLinetypeTableRecord
  2
CENTER
 70
     0
  3
Center ____ _ ____ _ ____ _ ____ _ ____ _ ____
 72
    65
 73
     4
 40
2.0
 49
1.25
 74
     0
 49
-0.25
 74
     0
 49
0.25
 74
     0
 49
-0.25
 74
     0
  0
LTYPE
  5
202
330
5
100
AcDbSymbolTableRecord
100
AcDbLinetypeTableRecord
  2
Amconstr
 70
     0
  3
_______________________
 72
    65
 73
     2
 40
9999.0
 49
9999.0
 74
     0
 49
0.0
 74
     0
  0
LTYPE
  5
208
330
5
100
AcDbSymbolTableRecord
100
AcDbLinetypeTableRecord
  2
CENTER2
 70
     0
  3
Center (.5x) ___ _ ___ _ ___ _ ___ _ ___ _ ___
 72
    65
 73
     4
 40
1.125
 49
0.75
 74
     0
 49
-0.125
 74
     0
 49
0.125
 74
     0
 49
-0.125
 74
     0
  0
LTYPE
  5
209
330
5
100
AcDbSymbolTableRecord
100
AcDbLinetypeTableRecord
  2
HIDDEN2
 70
     0
  3
Hidden (.5x) _ _ _ _ _ _ _ _ _ _ _ _ _ _ _ _ _
 72
    65
 73
     2
 40
0.1875
 49
0.125
 74
     0
 49
-0.0625
 74
     0
  0
LTYPE
  5
20A
330
5
100
AcDbSymbolTableRecord
100
AcDbLinetypeTableRecord
  2
Amzigzag2
 70
     0
  3
/\/-/\/-/\/-/\/-/\/-/\/
 72
    65
 73
     2
 40
0.4401
 49
0.0001
 74
     4
 75
   136
340
206
 46
0.0016
 50
0.0
 44
0.0
 45
0.0
 49
-0.4400000000000003
 74
     0
  0
LTYPE
  5
218
330
5
100
AcDbSymbolTableRecord
100
AcDbLinetypeTableRecord
  2
ACANSTGB
 70
     0
  3
__ . . __ . .
 72
    65
 73
     6
 40
0.35433070866
 49
0.15748031496
 74
     0
 49
-0.03937007874
 74
     0
 49
0.03937007874
 74
     0
 49
-0.03937007874
 74
     0
 49
0.03937007874
 74
     0
 49
-0.03937007874
 74
     0
  0
LTYPE
  5
219
330
5
100
AcDbSymbolTableRecord
100
AcDbLinetypeTableRecord
  2
ACANSTGL
 70
     0
  3
_ _ _ _ _
 72
    65
 73
     2
 40
0.11811023622
 49
0.07874015748
 74
     0
 49
-0.03937007874
 74
     0
  0
LTYPE
  5
895
330
5
100
AcDbSymbolTableRecord
100
AcDbLinetypeTableRecord
  2
AM_ISO02W050
 70
     0
  3
__ __ __ __ __ __ __ __ __ __ __ __ __ __ __
 72
    65
 73
     2
 40
7.5
 49
6.0
 74
     0
 49
-1.5
 74
     0
  0
LTYPE
  5
896
330
5
100
AcDbSymbolTableRecord
100
AcDbLinetypeTableRecord
  2
AM_ISO08W050
 70
     0
  3
____ . ____ . ____ . ____ . ____ . ____ . ____
 72
    65
 73
     4
 40
18.0
 49
12.0
 74
     0
 49
-1.5
 74
     0
 49
3.0
 74
     0
 49
-1.5
 74
     0
  0
LTYPE
  5
897
330
5
100
AcDbSymbolTableRecord
100
AcDbLinetypeTableRecord
  2
AM_ISO09W050
 70
     0
  3
_____ . . _____ . . _____ . . ____ .. ____
 72
    65
 73
     6
 40
22.5
 49
12.0
 74
     0
 49
-1.5
 74
     0
 49
3.0
 74
     0
 49
-1.5
 74
     0
 49
3.0
 74
     0
 49
-1.5
 74
     0
  0
LTYPE
  5
898
330
5
100
AcDbSymbolTableRecord
100
AcDbLinetypeTableRecord
  2
AM_ISO08W050x2
 70
     0
  3
__ . __ . __ . __ . __ . __
 72
    65
 73
     4
 40
9.0
 49
6.0
 74
     0
 49
-0.75
 74
     0
 49
1.5
 74
     0
 49
-0.75
 74
     0
  0
LTYPE
  5
899
330
5
100
AcDbSymbolTableRecord
100
AcDbLinetypeTableRecord
  2
AM_ISO02W050x2
 70
     0
  3
 _ _ _ _ _ _ _ _ _ _ _ _
 72
    65
 73
     2
 40
3.75
 49
3.0
 74
     0
 49
-0.75
 74
     0
  0
LTYPE
  5
89A
330
5
100
AcDbSymbolTableRecord
100
AcDbLinetypeTableRecord
  2
Amzigzag
 70
     0
  3
/\/-/\/-/\/-/\/-/\/-/\/
 72
    65
 73
     2
 40
11.0001
 49
0.0001
 74
     4
 75
   136
340
206
 46
0.04
 50
0.0
 44
0.0
 45
0.0
 49
-11.0
 74
     0
  0
ENDTAB
  0
TABLE
  2
LAYER
  5
2
102
{ACAD_XDICTIONARY
360
18E
102
}
330
0
100
AcDbSymbolTable
 70
     6
  0
LAYER
  5
10
102
{ACAD_XDICTIONARY
360
E6
102
}
330
2
100
AcDbSymbolTableRecord
100
AcDbLayerTableRecord
  2
0
 70
     0
 62
     7
  6
Continuous
370
    -3
390
F
  0
LAYER
  5
229
102
{ACAD_XDICTIONARY
360
22A
102
}
330
2
100
AcDbSymbolTableRecord
100
AcDbLayerTableRecord
  2
Text
 70
     0
 62
     3
  6
Continuous
370
    -3
390
F
1001
RAK
1000
{ACET-LAYISO
1070
     0
1070
     3
1000
Continuous
1071
       -3
1071
        1
1005
F
1000
ACET-LAYISO}
  0
LAYER
  5
22B
102
{ACAD_XDICTIONARY
360
22C
102
}
330
2
100
AcDbSymbolTableRecord
100
AcDbLayerTableRecord
  2
PCB_TOP
 70
     0
 62
     5
  6
Continuous
370
    -3
390
F
1001
RAK
1000
{ACET-LAYISO
1070
     0
1070
     5
1000
Continuous
1070
     1
1071
       -3
1071
        1
1005
F
1000
ACET-LAYISO}
  0
LAYER
  5
22D
102
{ACAD_XDICTIONARY
360
22E
102
}
330
2
100
AcDbSymbolTableRecord
100
AcDbLayerTableRecord
  2
PCB_BOT
 70
     0
 62
     1
  6
Continuous
370
    -3
390
F
1001
RAK
1000
{ACET-LAYISO
1070
     0
1070
     1
1000
Continuous
1071
       -3
1071
        1
1005
F
1000
ACET-LAYISO}
  0
LAYER
  5
22F
102
{ACAD_XDICTIONARY
360
230
102
}
330
2
100
AcDbSymbolTableRecord
100
AcDbLayerTableRecord
  2
PCB_OUTLINE
 70
     0
 62
   142
  6
Continuous
370
    -3
390
F
1001
RAK
1000
{ACET-LAYISO
1070
     0
1070
   142
1000
Continuous
1071
       -3
1071
        1
1005
F
1000
ACET-LAYISO}
  0
LAYER
  5
231
330
2
100
AcDbSymbolTableRecord
100
AcDbLayerTableRecord
  2
Part
 70
     0
 62
     1
  6
Continuous
370
    -3
390
F
1001
AcAecLayerStandard
1000

1000

  0
ENDTAB
  0
TABLE
  2
STYLE
  5
3
330
0
100
AcDbSymbolTable
 70
     6
  0
STYLE
  5
11
330
3
100
AcDbSymbolTableRecord
100
AcDbTextStyleTableRecord
  2
Standard
 70
     0
 40
0.0
 41
1.0
 50
0.0
 71
     0
 42
0.2
  3
ARIAL.TTF
  4

1001
ACAD
1000
Arial
1071
       34
  0
STYLE
  5
206
330
3
100
AcDbSymbolTableRecord
100
AcDbTextStyleTableRecord
  2

 70
     1
 40
0.0
 41
1.0
 50
0.0
 71
     0
 42
0.2
  3
genltshp.shx
  4

  0
STYLE
  5
217
330
3
100
AcDbSymbolTableRecord
100
AcDbTextStyleTableRecord
  2
ACANSGDT
 70
     0
 40
0.0
 41
1.0
 50
0.0
 71
     0
 42
0.2
  3
amgdt.shx
  4

  0
STYLE
  5
232
330
3
100
AcDbSymbolTableRecord
100
AcDbTextStyleTableRecord
  2
ROMANS
 70
     0
 40
0.0
 41
1.0
 50
0.0
 71
     0
 42
0.1
  3
C:\ACADWIN\FONTS\AU100S00.SHX
  4

  0
STYLE
  5
233
330
3
100
AcDbSymbolTableRecord
100
AcDbTextStyleTableRecord
  2
ARIAL
 70
     0
 40
0.0
 41
1.0
 50
0.0
 71
     0
 42
0.2452744685283672
  3
arial.ttf
  4

1001
ACAD
1000
Arial
1071
       34
  0
STYLE
  5
89C
330
3
100
AcDbSymbolTableRecord
100
AcDbTextStyleTableRecord
  2
ACANSTS
 70
     0
 40
1.0
 41
1.0
 50
0.0
 71
     0
 42
0.2
  3
romans.shx
  4

  0
ENDTAB
  0
TABLE
  2
VIEW
  5
6
330
0
100
AcDbSymbolTable
 70
     0
  0
ENDTAB
  0
TABLE
  2
UCS
  5
7
330
0
100
AcDbSymbolTable
 70
     0
  0
ENDTAB
  0
TABLE
  2
APPID
  5
9
330
0
100
AcDbSymbolTable
 70
    20
  0
APPID
  5
12
330
9
100
AcDbSymbolTableRecord
100
AcDbRegAppTableRecord
  2
ACAD
 70
     0
  0
APPID
  5
DD
330
9
100
AcDbSymbolTableRecord
100
AcDbRegAppTableRecord
  2
AcadAnnoPO
 70
     0
  0
APPID
  5
DE
330
9
100
AcDbSymbolTableRecord
100
AcDbRegAppTableRecord
  2
AcadAnnotative
 70
     0
  0
APPID
  5
DF
330
9
100
AcDbSymbolTableRecord
100
AcDbRegAppTableRecord
  2
ACAD_DSTYLE_DIMJAG
 70
     0
  0
APPID
  5
E0
330
9
100
AcDbSymbolTableRecord
100
AcDbRegAppTableRecord
  2
ACAD_DSTYLE_DIMTALN
 70
     0
  0
APPID
  5
107
330
9
100
AcDbSymbolTableRecord
100
AcDbRegAppTableRecord
  2
ACAD_MLEADERVER
 70
     0
  0
APPID
  5
1A6
330
9
100
AcDbSymbolTableRecord
100
AcDbRegAppTableRecord
  2
ACAD_NAV_VCDISPLAY
 70
     0
  0
APPID
  5
1C3
330
9
100
AcDbSymbolTableRecord
100
AcDbRegAppTableRecord
  2
MCAD_NO_VIS
 70
     0
  0
APPID
  5
1C4
330
9
100
AcDbSymbolTableRecord
100
AcDbRegAppTableRecord
  2
ACAD_TEMP_GRAPHIC
 70
     0
  0
APPID
  5
1D0
330
9
100
AcDbSymbolTableRecord
100
AcDbRegAppTableRecord
  2
ACATTRIBSERVICES
 70
     0
  0
APPID
  5
1E8
330
9
100
AcDbSymbolTableRecord
100
AcDbRegAppTableRecord
  2
DESIGNERASSEMBLIES
 70
     0
  0
APPID
  5
1FD
330
9
100
AcDbSymbolTableRecord
100
AcDbRegAppTableRecord
  2
ACAD_DSTYLE_DIMBREAK
 70
     0
  0
APPID
  5
235
330
9
100
AcDbSymbolTableRecord
100
AcDbRegAppTableRecord
  2
RAK
 70
     0
  0
APPID
  5
236
330
9
100
AcDbSymbolTableRecord
100
AcDbRegAppTableRecord
  2
AcAecLayerStandard
 70
     0
  0
APPID
  5
237
330
9
100
AcDbSymbolTableRecord
100
AcDbRegAppTableRecord
  2
ACAD_PSEXT
 70
     0
  0
APPID
  5
84D
330
9
100
AcDbSymbolTableRecord
100
AcDbRegAppTableRecord
  2
ACAD_DSTYLE_DIMARC_LENGTH_SYMBOL
 70
     0
  0
APPID
  5
84E
330
9
100
AcDbSymbolTableRecord
100
AcDbRegAppTableRecord
  2
ACAD_DSTYLE_DIM_LINETYPE
 70
     0
  0
APPID
  5
84F
330
9
100
AcDbSymbolTableRecord
100
AcDbRegAppTableRecord
  2
ACAD_DSTYLE_DIM_EXT1_LINETYPE
 70
     0
  0
APPID
  5
850
330
9
100
AcDbSymbolTableRecord
100
AcDbRegAppTableRecord
  2
ACAD_DSTYLE_DIM_EXT2_LINETYPE
 70
     0
  0
APPID
  5
8A4
330
9
100
AcDbSymbolTableRecord
100
AcDbRegAppTableRecord
  2
ACAD_EXEMPT_FROM_CAD_STANDARDS
 70
     0
  0
ENDTAB
  0
TABLE
  2
DIMSTYLE
  5
A
330
0
100
AcDbSymbolTable
 70
     7
100
AcDbDimStyleTable
 71
     2
340
1FC
340
27
  0
DIMSTYLE
105
27
330
A
100
AcDbSymbolTableRecord
100
AcDbDimStyleTableRecord
  2
Standard
 70
     0
340
11
  0
DIMSTYLE
105
1FC
102
{ACAD_REACTORS
330
9A8
102
}
330
A
100
AcDbSymbolTableRecord
100
AcDbDimStyleTableRecord
  2
AM_ANSI
 70
     0
  4
mm
 41
0.12
 42
0.05
 43
0.5
 44
0.1
 47
0.1
 48
0.1
 78
     7
 79
     2
140
0.12
141
0.0
146
0.71
147
0.06
176
   256
177
   256
178
     2
274
     4
284
     7
340
11
371
    -1
372
    -1
1001
ACAD_DSTYLE_DIMJAG
1070
   388
1040
1.5
1001
ACAD_DSTYLE_DIMBREAK
1070
   391
1040
0.125
1001
ACAD_DSTYLE_DIMARC_LENGTH_SYMBOL
1070
   379
1070
     1
1001
ACAD_DSTYLE_DIM_LINETYPE
1070
   380
1005
14
1001
ACAD_DSTYLE_DIM_EXT1_LINETYPE
1070
   381
1005
14
1001
ACAD_DSTYLE_DIM_EXT2_LINETYPE
1070
   382
1005
14
  0
DIMSTYLE
105
20B
330
A
100
AcDbSymbolTableRecord
100
AcDbDimStyleTableRecord
  2
AM_ANSI$3
 70
     0
  4
mm
 41
0.12
 42
0.05
 43
0.5
 44
0.1
 47
0.1
 48
0.1
 78
     7
 79
     2
140
0.12
141
0.0
146
0.71
147
0.06
176
   256
177
   256
178
     2
274
     4
284
     7
288
     1
289
     0
340
11
371
    -1
372
    -1
1001
ACAD_DSTYLE_DIMBREAK
1070
   391
1040
0.125
1001
ACAD_DSTYLE_DIMJAG
1070
   388
1040
1.5
1001
ACAD_DSTYLE_DIMARC_LENGTH_SYMBOL
1070
   379
1070
     1
1001
ACAD_DSTYLE_DIM_LINETYPE
1070
   380
1005
14
1001
ACAD_DSTYLE_DIM_EXT1_LINETYPE
1070
   381
1005
14
1001
ACAD_DSTYLE_DIM_EXT2_LINETYPE
1070
   382
1005
14
  0
DIMSTYLE
105
20C
330
A
100
AcDbSymbolTableRecord
100
AcDbDimStyleTableRecord
  2
AM_ANSI$4
 70
     0
  4
mm
 41
0.12
 42
0.05
 43
0.5
 44
0.1
 47
0.1
 48
0.1
 78
     7
 79
     2
140
0.12
141
0.0
146
0.71
147
0.06
176
   256
177
   256
178
     2
274
     4
284
     7
288
     1
289
     0
340
11
371
    -1
372
    -1
1001
ACAD_DSTYLE_DIMBREAK
1070
   391
1040
0.125
1001
ACAD_DSTYLE_DIMJAG
1070
   388
1040
1.5
1001
ACAD_DSTYLE_DIMARC_LENGTH_SYMBOL
1070
   379
1070
     1
1001
ACAD_DSTYLE_DIM_LINETYPE
1070
   380
1005
14
1001
ACAD_DSTYLE_DIM_EXT1_LINETYPE
1070
   381
1005
14
1001
ACAD_DSTYLE_DIM_EXT2_LINETYPE
1070
   382
1005
14
  0
DIMSTYLE
105
20D
330
A
100
AcDbSymbolTableRecord
100
AcDbDimStyleTableRecord
  2
AM_ANSI$7
 70
     0
  4
mm
 41
0.12
 42
0.05
 43
0.5
 44
0.1
 47
0.1
 48
0.1
 78
     7
 79
     2
140
0.12
141
0.0
146
0.71
147
0.06
176
   256
177
   256
178
     2
274
     4
284
     7
340
11
371
    -1
372
    -1
1001
ACAD_DSTYLE_DIMBREAK
1070
   391
1040
0.125
1001
ACAD_DSTYLE_DIMJAG
1070
   388
1040
1.5
1001
ACAD_DSTYLE_DIMARC_LENGTH_SYMBOL
1070
   379
1070
     1
1001
ACAD_DSTYLE_DIM_LINETYPE
1070
   380
1005
14
1001
ACAD_DSTYLE_DIM_EXT1_LINETYPE
1070
   381
1005
14
1001
ACAD_DSTYLE_DIM_EXT2_LINETYPE
1070
   382
1005
14
  0
DIMSTYLE
105
20E
330
A
100
AcDbSymbolTableRecord
100
AcDbDimStyleTableRecord
  2
AM_ANSI$SF
 70
     0
  4
mm
 41
0.12
 42
0.05
 43
0.5
 44
0.1
 47
0.1
 48
0.1
 75
     1
 76
     1
 78
     7
 79
     2
140
0.12
141
0.0
146
0.71
147
0.06
176
   256
177
   256
178
     2
274
     4
284
     7
340
11
371
    -1
372
    -1
1001
ACAD_DSTYLE_DIMBREAK
1070
   391
1040
0.125
1001
ACAD_DSTYLE_DIMJAG
1070
   388
1040
1.5
1001
ACAD_DSTYLE_DIMARC_LENGTH_SYMBOL
1070
   379
1070
     1
1001
ACAD_DSTYLE_DIM_LINETYPE
1070
   380
1005
14
1001
ACAD_DSTYLE_DIM_EXT1_LINETYPE
1070
   381
1005
14
1001
ACAD_DSTYLE_DIM_EXT2_LINETYPE
1070
   382
1005
14
  0
DIMSTYLE
105
213
330
A
100
AcDbSymbolTableRecord
100
AcDbDimStyleTableRecord
  2
AM_ANSI$SH
 70
     0
  4
mm
 41
0.12
 42
0.05
 43
0.5
 44
0.1
 47
0.1
 48
0.1
 75
     1
 76
     1
 78
     7
 79
     2
140
0.12
141
0.0
146
0.71
147
0.06
173
     1
176
   256
177
   256
178
     2
274
     4
284
     7
340
11
343
20F
371
    -1
372
    -1
1001
ACAD_DSTYLE_DIMBREAK
1070
   391
1040
0.125
1001
ACAD_DSTYLE_DIMJAG
1070
   388
1040
1.5
1001
ACAD_DSTYLE_DIMARC_LENGTH_SYMBOL
1070
   379
1070
     1
1001
ACAD_DSTYLE_DIM_LINETYPE
1070
   380
1005
14
1001
ACAD_DSTYLE_DIM_EXT1_LINETYPE
1070
   381
1005
14
1001
ACAD_DSTYLE_DIM_EXT2_LINETYPE
1070
   382
1005
14
  0
ENDTAB
  0
TABLE
  2
BLOCK_RECORD
  5
1
330
0
100
AcDbSymbolTable
 70
     3
  0
BLOCK_RECORD
  5
1F
102
{ACAD_XDICTIONARY
360
15D
102
}
330
1
100
AcDbSymbolTableRecord
100
AcDbBlockTableRecord
  2
*Model_Space
340
22
  0
BLOCK_RECORD
  5
58
330
1
100
AcDbSymbolTableRecord
100
AcDbBlockTableRecord
  2
*Paper_Space
340
59
  0
BLOCK_RECORD
  5
5D
330
1
100
AcDbSymbolTableRecord
100
AcDbBlockTableRecord
  2
*Paper_Space0
340
5E
  0
BLOCK_RECORD
  5
20F
330
1
100
AcDbSymbolTableRecord
100
AcDbBlockTableRecord
  2
GENAXEH
340
0
  0
ENDTAB
  0
ENDSEC
  0
SECTION
  2
BLOCKS
  0
BLOCK
  5
20
330
1F
100
AcDbEntity
  8
0
100
AcDbBlockBegin
  2
*Model_Space
 70
     0
 10
0.0
 20
0.0
 30
0.0
  3
*Model_Space
  1

  0
ENDBLK
  5
21
330
1F
100
AcDbEntity
  8
0
100
AcDbBlockEnd
  0
BLOCK
  5
5A
330
58
100
AcDbEntity
 67
     1
  8
0
100
AcDbBlockBegin
  2
*Paper_Space
 70
     0
 10
0.0
 20
0.0
 30
0.0
  3
*Paper_Space
  1

  0
ENDBLK
  5
5B
330
58
100
AcDbEntity
 67
     1
  8
0
100
AcDbBlockEnd
  0
BLOCK
  5
5F
330
5D
100
AcDbEntity
 67
     1
  8
0
100
AcDbBlockBegin
  2
*Paper_Space0
 70
     0
 10
0.0
 20
0.0
 30
0.0
  3
*Paper_Space0
  1

  0
ENDBLK
  5
60
330
5D
100
AcDbEntity
 67
     1
  8
0
100
AcDbBlockEnd
  0
BLOCK
  5
211
330
20F
100
AcDbEntity
  8
0
100
AcDbBlockBegin
  2
GENAXEH
 70
     0
 10
0.0
 20
0.0
 30
0.0
  3
GENAXEH
  1

  0
LINE
  5
210
330
20F
100
AcDbEntity
  8
0
100
AcDbLine
 10
-1.0
 20
0.0
 30
0.0
 11
1.0
 21
0.0
 31
0.0
  0
ENDBLK
  5
212
330
20F
100
AcDbEntity
  8
0
100
AcDbBlockEnd
  0
ENDSEC
  0
SECTION
  2
ENTITIES
  0
MTEXT
  5
523
330
1F
100
AcDbEntity
  8
Text
100
AcDbMText
 10
22.64215718844391
 20
13.06606910930853
 30
0.0
 40
0.05
 41
1.317781835861389
 71
     2
 72
     5
  1
Er=3.55, 2oz. cu, Both Sides (.032" THK.)
  7
ARIAL
 73
     1
 44
1.0
1001
ACAD
1000
MTEXTBEGIN
1070
    73
1070
     1
1070
    44
1040
1.0
1070
    74
1070
     0
1000
MTEXTEND
  0
TEXT
  5
524
330
1F
100
AcDbEntity
  8
Text
100
AcDbText
 10
21.83550450576108
 20
15.13362057010349
 30
-0.062
 40
0.06
  1
%%UTOP & BOTTOM ARTWORK SCALE 1:1
  7
ROMANS
 72
     1
 11
22.68650450576108
 21
15.13362057010349
 31
-0.062
100
AcDbText
  0
TEXT
  5
525
330
1F
100
AcDbEntity
  8
Text
100
AcDbText
 10
21.65936164861822
 20
14.95366876595304
 30
-0.062
 40
0.06
  1
VIEW: LOOKING THRU FROM TOP TO BOTTOM
  7
ROMANS
 72
     1
 11
22.68650450576108
 21
14.95366876595304
 31
-0.062
100
AcDbText
  0
TEXT
  5
526
330
1F
100
AcDbEntity
  8
PCB_OUTLINE
100
AcDbText
 10
24.1340325107145
 20
13.68761568096763
 30
0.0
 40
0.0299327383810564
  1
PCB_OUTLINE
  7
ROMANS
100
AcDbText
  0
HATCH
  5
527
330
1F
100
AcDbEntity
  8
PCB_BOT
100
AcDbHatch
 10
0.0
 20
0.0
 30
0.0
210
0.0
220
0.0
230
1.0
  2
SOLID
 70
     1
 71
     0
 91
        3
 92
        7
 72
     1
 73
     1
 93
        3
 10
24.23482737550243
 20
13.95977236815951
 42
0.0
 10
24.23482737550243
 20
13.88750194258728
 42
0.1989123673796551
 10
24.28593028350379
 20
13.90866946015816
 42
0.0
 97
        0
 92
        7
 72
     1
 73
     1
 93
        3
 10
24.30709780107466
 20
13.95977236815951
 42
0.0
 10
24.23482737550243
 20
13.95977236815951
 42
0.0
 10
24.28593028350379
 20
13.90866946015815
 42
0.1989123673796482
 97
        0
 92
        7
 72
     1
 73
     1
 93
        3
 10
24.28593028350379
 20
14.01087527616087
 42
0.0
 10
24.23482737550243
 20
13.95977236815951
 42
0.0
 10
24.30709780107466
 20
13.95977236815951
 42
0.1989123673796509
 97
        0
 75
     0
 76
     1
 47
0.0001896584045076
 98
        3
 10
24.25827686447256
 20
13.91897858469482
 10
24.28371140724965
 20
13.93490991891699
 10
24.28181333600169
 20
13.96335870084725
  0
LINE
  5
528
330
1F
100
AcDbEntity
  8
PCB_BOT
100
AcDbLine
 10
24.1624461637435
 20
13.88739115640058
 30
0.0
 11
24.30720858726137
 21
14.03215357991845
 31
0.0
  0
LINE
  5
529
330
1F
100
AcDbEntity
  8
PCB_BOT
100
AcDbLine
 10
24.1624461637435
 20
14.03215357991845
 30
0.0
 11
24.30720858726137
 21
13.88739115640057
 31
0.0
  0
HATCH
  5
52A
330
1F
100
AcDbEntity
  8
PCB_OUTLINE
100
AcDbHatch
 10
0.0
 20
0.0
 30
0.0
210
0.0
220
0.0
230
1.0
  2
SOLID
 70
     1
 71
     0
 91
        2
 92
        7
 72
     1
 73
     1
 93
        3
 10
24.23482737550245
 20
13.95977236815952
 42
0.0
 10
24.18372446750106
 20
13.90866946015815
 42
0.1989123673796946
 10
24.23482737550243
 20
13.88750194258728
 42
0.0
 97
        0
 92
        7
 72
     1
 73
     1
 93
        3
 10
24.23482737550243
 20
13.95977236815951
 42
0.0
 10
24.1625569499302
 20
13.95977236815951
 42
0.1989123673796509
 10
24.18372446750106
 20
13.90866946015815
 42
0.0
 97
        0
 75
     0
 76
     1
 47
0.0001896584045076
 98
        2
 10
24.22221302569328
 20
13.9075990991581
 10
24.18690831839958
 20
13.93415127746942
  0
LINE
  5
52B
330
1F
100
AcDbEntity
  8
PCB_OUTLINE
100
AcDbLine
 10
24.1624461637435
 20
13.88739115640059
 30
0.0
 11
24.30720858726138
 21
14.03215357991845
 31
0.0
  0
LINE
  5
52C
330
1F
100
AcDbEntity
  8
PCB_OUTLINE
100
AcDbLine
 10
24.16244616374351
 20
14.03215357991845
 30
0.0
 11
24.30720858726138
 21
13.88739115640058
 31
0.0
  0
LINE
  5
52D
330
1F
100
AcDbEntity
  8
PCB_TOP
100
AcDbLine
 10
24.16244616374351
 20
14.03215357991845
 30
0.0
 11
24.30720858726138
 21
13.88739115640058
 31
0.0
  0
LINE
  5
52E
330
1F
100
AcDbEntity
  8
PCB_TOP
100
AcDbLine
 10
24.1624461637435
 20
13.88739115640059
 30
0.0
 11
24.30720858726138
 21
14.03215357991845
 31
0.0
  0
CIRCLE
  5
52F
330
1F
100
AcDbEntity
  8
PCB_BOT
100
AcDbCircle
 10
24.23482737550245
 20
13.9597723681595
 30
0.0
 40
0.0722704255722269
  0
CIRCLE
  5
530
330
1F
100
AcDbEntity
  8
PCB_OUTLINE
100
AcDbCircle
 10
24.23482737550245
 20
13.9597723681595
 30
0.0
 40
0.0722704255722269
  0
CIRCLE
  5
531
330
1F
100
AcDbEntity
  8
PCB_TOP
100
AcDbCircle
 10
24.23482737550245
 20
13.9597723681595
 30
0.0
 40
0.0722704255722269
  0
LINE
  5
532
330
1F
100
AcDbEntity
  8
PCB_BOT
100
AcDbLine
 10
24.23482737550243
 20
14.06213485949
 30
0.0
 11
24.23482737550243
 21
13.85740987682902
 31
0.0
  0
LINE
  5
533
330
1F
100
AcDbEntity
  8
PCB_OUTLINE
100
AcDbLine
 10
24.23482737550245
 20
14.06213485949001
 30
0.0
 11
24.23482737550245
 21
13.85740987682902
 31
0.0
  0
LINE
  5
534
330
1F
100
AcDbEntity
  8
PCB_TOP
100
AcDbLine
 10
24.23482737550245
 20
14.06213485949001
 30
0.0
 11
24.23482737550245
 21
13.85740987682902
 31
0.0
  0
TEXT
  5
535
330
1F
100
AcDbEntity
  8
PCB_TOP
100
AcDbText
 10
24.1340325107145
 20
13.74442912318343
 30
0.0
 40
0.0299327383810564
  1
PCB_TOP
  7
ROMANS
100
AcDbText
  0
TEXT
  5
536
330
1F
100
AcDbEntity
  8
PCB_BOT
100
AcDbText
 10
24.1340325107145
 20
13.62833365909934
 30
0.0
 40
0.0299327383810564
  1
PCB_BOT
  7
ROMANS
100
AcDbText
  0
LINE
  5
537
330
1F
100
AcDbEntity
  8
PCB_BOT
100
AcDbLine
 10
24.33718986683293
 20
13.95977236815951
 30
0.0
 11
24.13246488417195
 21
13.95977236815951
 31
0.0
  0
HATCH
  5
538
330
1F
100
AcDbEntity
  8
PCB_TOP
100
AcDbHatch
 10
0.0
 20
0.0
 30
0.0
210
0.0
220
0.0
230
1.0
  2
SOLID
 70
     1
 71
     0
 91
        3
 92
        7
 72
     1
 73
     1
 93
        3
 10
24.23482737550243
 20
14.03204279373174
 42
0.1989123673796765
 10
24.18372446750107
 20
14.01087527616087
 42
0.0
 10
24.23482737550243
 20
13.95977236815951
 42
0.0
 97
        0
 92
        7
 72
     1
 73
     1
 93
        3
 10
24.18372446750107
 20
14.01087527616087
 42
0.1989123673796716
 10
24.1625569499302
 20
13.95977236815951
 42
0.0
 10
24.23482737550243
 20
13.95977236815951
 42
0.0
 97
        0
 92
        7
 72
     1
 73
     1
 93
        3
 10
24.28593028350379
 20
14.01087527616087
 42
0.1989123673796498
 10
24.23482737550243
 20
14.03204279373174
 42
0.0
 10
24.23482737550243
 20
13.95977236815952
 42
0.0
 97
        0
 75
     0
 76
     1
 47
0.0001896584045076
 98
        3
 10
24.21879644894014
 20
14.0084973903588
 10
24.19563954315381
 20
13.98915223771099
 10
24.25106414522351
 20
13.99408333903178
  0
LINE
  5
539
330
1F
100
AcDbEntity
  8
PCB_OUTLINE
100
AcDbLine
 10
24.33718986683293
 20
13.95977236815952
 30
0.0
 11
24.13246488417196
 21
13.95977236815952
 31
0.0
  0
LINE
  5
53A
330
1F
100
AcDbEntity
  8
PCB_TOP
100
AcDbLine
 10
24.33718986683293
 20
13.95977236815952
 30
0.0
 11
24.13246488417196
 21
13.95977236815952
 31
0.0
  0
HATCH
  5
53B
330
1F
100
AcDbEntity
  8
PCB_BOT
100
AcDbHatch
 10
0.0
 20
0.0
 30
0.0
210
0.0
220
0.0
230
1.0
  2
SOLID
 70
     1
 71
     0
 91
        3
 92
        7
 72
     1
 73
     1
 93
        3
 10
21.0905392931128
 20
13.95977236815951
 42
0.0
 10
21.0905392931128
 20
13.88750194258728
 42
0.1989123673796551
 10
21.14164220111415
 20
13.90866946015816
 42
0.0
 97
        0
 92
        7
 72
     1
 73
     1
 93
        3
 10
21.16280971868503
 20
13.95977236815951
 42
0.0
 10
21.0905392931128
 20
13.95977236815951
 42
0.0
 10
21.14164220111415
 20
13.90866946015815
 42
0.1989123673796482
 97
        0
 92
        7
 72
     1
 73
     1
 93
        3
 10
21.14164220111415
 20
14.01087527616087
 42
0.0
 10
21.0905392931128
 20
13.95977236815951
 42
0.0
 10
21.16280971868503
 20
13.95977236815951
 42
0.1989123673796509
 97
        0
 75
     0
 76
     1
 47
0.0001896584045076
 98
        3
 10
21.11398878208293
 20
13.91897858469482
 10
21.13942332486002
 20
13.93490991891699
 10
21.13752525361206
 20
13.96335870084725
  0
LINE
  5
53C
330
1F
100
AcDbEntity
  8
PCB_BOT
100
AcDbLine
 10
21.01815808135386
 20
13.88739115640058
 30
0.0
 11
21.16292050487174
 21
14.03215357991845
 31
0.0
  0
LINE
  5
53D
330
1F
100
AcDbEntity
  8
PCB_BOT
100
AcDbLine
 10
21.01815808135386
 20
14.03215357991845
 30
0.0
 11
21.16292050487174
 21
13.88739115640057
 31
0.0
  0
HATCH
  5
53E
330
1F
100
AcDbEntity
  8
PCB_OUTLINE
100
AcDbHatch
 10
0.0
 20
0.0
 30
0.0
210
0.0
220
0.0
230
1.0
  2
SOLID
 70
     1
 71
     0
 91
        2
 92
        7
 72
     1
 73
     1
 93
        3
 10
21.09053929311281
 20
13.95977236815952
 42
0.0
 10
21.03943638511143
 20
13.90866946015815
 42
0.1989123673796946
 10
21.0905392931128
 20
13.88750194258728
 42
0.0
 97
        0
 92
        7
 72
     1
 73
     1
 93
        3
 10
21.09053929311279
 20
13.95977236815951
 42
0.0
 10
21.01826886754057
 20
13.95977236815951
 42
0.1989123673796509
 10
21.03943638511143
 20
13.90866946015815
 42
0.0
 97
        0
 75
     0
 76
     1
 47
0.0001896584045076
 98
        2
 10
21.07792494330364
 20
13.9075990991581
 10
21.04262023600994
 20
13.93415127746942
  0
LINE
  5
53F
330
1F
100
AcDbEntity
  8
PCB_OUTLINE
100
AcDbLine
 10
21.01815808135386
 20
13.88739115640059
 30
0.0
 11
21.16292050487175
 21
14.03215357991845
 31
0.0
  0
LINE
  5
540
330
1F
100
AcDbEntity
  8
PCB_OUTLINE
100
AcDbLine
 10
21.01815808135388
 20
14.03215357991845
 30
0.0
 11
21.16292050487175
 21
13.88739115640058
 31
0.0
  0
LINE
  5
541
330
1F
100
AcDbEntity
  8
PCB_TOP
100
AcDbLine
 10
21.01815808135388
 20
14.03215357991845
 30
0.0
 11
21.16292050487175
 21
13.88739115640058
 31
0.0
  0
LINE
  5
542
330
1F
100
AcDbEntity
  8
PCB_TOP
100
AcDbLine
 10
21.01815808135386
 20
13.88739115640059
 30
0.0
 11
21.16292050487175
 21
14.03215357991845
 31
0.0
  0
CIRCLE
  5
543
330
1F
100
AcDbEntity
  8
PCB_BOT
100
AcDbCircle
 10
21.09053929311281
 20
13.9597723681595
 30
0.0
 40
0.0722704255722269
  0
CIRCLE
  5
544
330
1F
100
AcDbEntity
  8
PCB_OUTLINE
100
AcDbCircle
 10
21.09053929311281
 20
13.9597723681595
 30
0.0
 40
0.0722704255722269
  0
CIRCLE
  5
545
330
1F
100
AcDbEntity
  8
PCB_TOP
100
AcDbCircle
 10
21.09053929311281
 20
13.9597723681595
 30
0.0
 40
0.0722704255722269
  0
LINE
  5
546
330
1F
100
AcDbEntity
  8
PCB_BOT
100
AcDbLine
 10
21.0905392931128
 20
14.06213485949
 30
0.0
 11
21.0905392931128
 21
13.85740987682902
 31
0.0
  0
LINE
  5
547
330
1F
100
AcDbEntity
  8
PCB_OUTLINE
100
AcDbLine
 10
21.09053929311281
 20
14.06213485949001
 30
0.0
 11
21.09053929311281
 21
13.85740987682902
 31
0.0
  0
LINE
  5
548
330
1F
100
AcDbEntity
  8
PCB_TOP
100
AcDbLine
 10
21.09053929311281
 20
14.06213485949001
 30
0.0
 11
21.09053929311281
 21
13.85740987682902
 31
0.0
  0
LINE
  5
549
330
1F
100
AcDbEntity
  8
PCB_BOT
100
AcDbLine
 10
21.1929017844433
 20
13.95977236815951
 30
0.0
 11
20.98817680178232
 21
13.95977236815951
 31
0.0
  0
HATCH
  5
54A
330
1F
100
AcDbEntity
  8
PCB_TOP
100
AcDbHatch
 10
0.0
 20
0.0
 30
0.0
210
0.0
220
0.0
230
1.0
  2
SOLID
 70
     1
 71
     0
 91
        3
 92
        7
 72
     1
 73
     1
 93
        3
 10
21.0905392931128
 20
14.03204279373174
 42
0.1989123673796765
 10
21.03943638511144
 20
14.01087527616087
 42
0.0
 10
21.0905392931128
 20
13.95977236815951
 42
0.0
 97
        0
 92
        7
 72
     1
 73
     1
 93
        3
 10
21.03943638511144
 20
14.01087527616087
 42
0.1989123673796716
 10
21.01826886754057
 20
13.95977236815951
 42
0.0
 10
21.0905392931128
 20
13.95977236815951
 42
0.0
 97
        0
 92
        7
 72
     1
 73
     1
 93
        3
 10
21.14164220111415
 20
14.01087527616087
 42
0.1989123673796498
 10
21.0905392931128
 20
14.03204279373174
 42
0.0
 10
21.0905392931128
 20
13.95977236815952
 42
0.0
 97
        0
 75
     0
 76
     1
 47
0.0001896584045076
 98
        3
 10
21.07450836655051
 20
14.0084973903588
 10
21.05135146076417
 20
13.98915223771099
 10
21.10677606283388
 20
13.99408333903178
  0
LINE
  5
54B
330
1F
100
AcDbEntity
  8
PCB_OUTLINE
100
AcDbLine
 10
21.1929017844433
 20
13.95977236815952
 30
0.0
 11
20.98817680178234
 21
13.95977236815952
 31
0.0
  0
LINE
  5
54C
330
1F
100
AcDbEntity
  8
PCB_TOP
100
AcDbLine
 10
21.1929017844433
 20
13.95977236815952
 30
0.0
 11
20.98817680178234
 21
13.95977236815952
 31
0.0
  0
LWPOLYLINE
  5
54D
330
1F
100
AcDbEntity
  8
PCB_BOT
100
AcDbPolyline
 90
        4
 70
     1
 43
0.0
 10
21.26268320641358
 20
14.75483356258879
 10
24.06268326651017
 20
14.75483363058556
 10
24.06268326651017
 20
13.16471124172692
 10
21.26268378718872
 20
13.16471124677812
  0
LWPOLYLINE
  5
54E
330
1F
100
AcDbEntity
  8
PCB_OUTLINE
100
AcDbPolyline
 90
        4
 70
     1
 43
0.0
 10
21.26268320641358
 20
14.75483356258879
 10
24.06268326651017
 20
14.75483363058556
 10
24.06268326651017
 20
13.16471124172692
 10
21.26268378718872
 20
13.16471124677812
  0
LWPOLYLINE
  5
54F
330
1F
100
AcDbEntity
  8
PCB_TOP
100
AcDbPolyline
 90
        6
 70
     1
 43
0.0
 10
21.73868314871835
 20
14.33484312809894
 10
21.73868314871835
 20
14.7498335418012
 10
21.66768314871835
 20
14.7498335418012
 10
21.66768314871835
 20
14.2548335418012
 10
21.74268314871834
 20
14.2548335418012
 10
21.74268314871834
 20
14.3348444407399
  0
LWPOLYLINE
  5
550
330
1F
100
AcDbEntity
  8
PCB_TOP
100
AcDbPolyline
 90
        6
 70
     1
 43
0.0
 10
23.58668343061809
 20
14.3348432011469
 10
23.58668343061809
 20
14.74983361484916
 10
23.6576834306181
 20
14.74983361484916
 10
23.6576834306181
 20
14.25483361484916
 10
23.58268343061809
 20
14.25483361484916
 10
23.58268343061809
 20
14.33484451378786
  0
LWPOLYLINE
  5
551
330
1F
100
AcDbEntity
  8
PCB_TOP
100
AcDbPolyline
 90
        6
 70
     1
 43
0.0
 10
21.74268314871843
 20
13.66471115294257
 10
21.74268314871843
 20
13.58470025400387
 10
21.73868314871844
 20
13.58470156664483
 10
21.73868314871844
 20
13.16971115294257
 10
21.66768314871843
 20
13.16971115294257
 10
21.66768314871843
 20
13.66471115294257
  0
LWPOLYLINE
  5
552
330
1F
100
AcDbEntity
  8
PCB_TOP
100
AcDbPolyline
 90
        6
 70
     1
 43
0.0
 10
23.58668343061818
 20
13.58470163969279
 10
23.58668343061818
 20
13.16971122599053
 10
23.65768343061819
 20
13.16971122599053
 10
23.65768343061819
 20
13.66471122599054
 10
23.58268343061818
 20
13.66471122599054
 10
23.58268343061818
 20
13.58470032705183
  0
LWPOLYLINE
  5
553
330
1F
100
AcDbEntity
  8
PCB_TOP
100
AcDbPolyline
 90
       29
 70
     0
 43
0.0
 10
21.26268333430753
 20
14.75483356258879
 10
21.56768314871835
 20
14.7548335418012
 10
21.56768314871835
 20
14.21483354180119
 10
21.78268314871835
 20
14.2148335418012
 10
21.78268314871834
 20
14.3228335418012
 10
21.83868314871836
 20
14.3228335418012
 10
21.83868314871836
 20
14.75483334018919
 10
23.48668343061809
 20
14.75483334018919
 10
23.48668343061809
 20
14.32283361484916
 10
23.54268343061809
 20
14.32283361484916
 10
23.54268343061809
 20
14.21483361484916
 10
23.75768343061809
 20
14.21483361484916
 10
23.75768343061809
 20
14.75483361484916
 10
24.06268327421103
 20
14.75483363058556
 10
24.06268326651017
 20
13.16471124172692
 10
23.75768343061819
 20
13.16471122599053
 10
23.75768343061818
 20
13.70471122599054
 10
23.54268343061818
 20
13.70471122599054
 10
23.54268343061819
 20
13.59671122599053
 10
23.48668343061818
 20
13.59671122599053
 10
23.48668343061818
 20
13.16471122599053
 10
21.83868314871844
 20
13.16471122599053
 10
21.83868314871844
 20
13.59671115294257
 10
21.78268314871843
 20
13.59671115294257
 10
21.78268314871843
 20
13.70471115294257
 10
21.56768314871843
 20
13.70471115294258
 10
21.56768314871841
 20
13.16471115294257
 10
21.26268333430762
 20
13.16471117373016
 10
21.26268320641358
 20
14.75483356258879
  0
CIRCLE
  5
554
330
1F
100
AcDbEntity
  8
PCB_OUTLINE
100
AcDbCircle
 10
21.45268325662847
 20
13.1997723661148
 30
0.0
 40
0.015
  0
CIRCLE
  5
555
330
1F
100
AcDbEntity
  8
PCB_OUTLINE
100
AcDbCircle
 10
21.53268325662847
 20
13.1997723661148
 30
0.0
 40
0.015
  0
CIRCLE
  5
556
330
1F
100
AcDbEntity
  8
PCB_OUTLINE
100
AcDbCircle
 10
21.37268325662848
 20
13.1997723661148
 30
0.0
 40
0.015
  0
CIRCLE
  5
557
330
1F
100
AcDbEntity
  8
PCB_OUTLINE
100
AcDbCircle
 10
21.29268325662847
 20
13.1997723661148
 30
0.0
 40
0.015
  0
CIRCLE
  5
558
330
1F
100
AcDbEntity
  8
PCB_OUTLINE
100
AcDbCircle
 10
21.45268325662847
 20
13.2797723661148
 30
0.0
 40
0.015
  0
CIRCLE
  5
559
330
1F
100
AcDbEntity
  8
PCB_OUTLINE
100
AcDbCircle
 10
21.53268325662847
 20
13.2797723661148
 30
0.0
 40
0.015
  0
CIRCLE
  5
55A
330
1F
100
AcDbEntity
  8
PCB_OUTLINE
100
AcDbCircle
 10
21.37268325662848
 20
13.2797723661148
 30
0.0
 40
0.015
  0
CIRCLE
  5
55B
330
1F
100
AcDbEntity
  8
PCB_OUTLINE
100
AcDbCircle
 10
21.29268325662847
 20
13.2797723661148
 30
0.0
 40
0.015
  0
CIRCLE
  5
55C
330
1F
100
AcDbEntity
  8
PCB_OUTLINE
100
AcDbCircle
 10
21.45268325662847
 20
13.3597723661148
 30
0.0
 40
0.015
  0
CIRCLE
  5
55D
330
1F
100
AcDbEntity
  8
PCB_OUTLINE
100
AcDbCircle
 10
21.53268325662847
 20
13.3597723661148
 30
0.0
 40
0.015
  0
CIRCLE
  5
55E
330
1F
100
AcDbEntity
  8
PCB_OUTLINE
100
AcDbCircle
 10
21.37268325662848
 20
13.3597723661148
 30
0.0
 40
0.015
  0
CIRCLE
  5
55F
330
1F
100
AcDbEntity
  8
PCB_OUTLINE
100
AcDbCircle
 10
21.29268325662847
 20
13.3597723661148
 30
0.0
 40
0.015
  0
CIRCLE
  5
560
330
1F
100
AcDbEntity
  8
PCB_OUTLINE
100
AcDbCircle
 10
21.45268325662847
 20
13.4397723661148
 30
0.0
 40
0.015
  0
CIRCLE
  5
561
330
1F
100
AcDbEntity
  8
PCB_OUTLINE
100
AcDbCircle
 10
21.53268325662847
 20
13.4397723661148
 30
0.0
 40
0.015
  0
CIRCLE
  5
562
330
1F
100
AcDbEntity
  8
PCB_OUTLINE
100
AcDbCircle
 10
21.37268325662848
 20
13.4397723661148
 30
0.0
 40
0.015
  0
CIRCLE
  5
563
330
1F
100
AcDbEntity
  8
PCB_OUTLINE
100
AcDbCircle
 10
21.29268325662847
 20
13.4397723661148
 30
0.0
 40
0.015
  0
CIRCLE
  5
564
330
1F
100
AcDbEntity
  8
PCB_OUTLINE
100
AcDbCircle
 10
21.45268325662847
 20
13.5197723661148
 30
0.0
 40
0.015
  0
CIRCLE
  5
565
330
1F
100
AcDbEntity
  8
PCB_OUTLINE
100
AcDbCircle
 10
21.53268325662847
 20
13.5197723661148
 30
0.0
 40
0.015
  0
CIRCLE
  5
566
330
1F
100
AcDbEntity
  8
PCB_OUTLINE
100
AcDbCircle
 10
21.37268325662848
 20
13.5197723661148
 30
0.0
 40
0.015
  0
CIRCLE
  5
567
330
1F
100
AcDbEntity
  8
PCB_OUTLINE
100
AcDbCircle
 10
21.29268325662847
 20
13.5197723661148
 30
0.0
 40
0.015
  0
CIRCLE
  5
568
330
1F
100
AcDbEntity
  8
PCB_OUTLINE
100
AcDbCircle
 10
21.45268325662847
 20
13.5997723661148
 30
0.0
 40
0.015
  0
CIRCLE
  5
569
330
1F
100
AcDbEntity
  8
PCB_OUTLINE
100
AcDbCircle
 10
21.53268325662847
 20
13.5997723661148
 30
0.0
 40
0.015
  0
CIRCLE
  5
56A
330
1F
100
AcDbEntity
  8
PCB_OUTLINE
100
AcDbCircle
 10
21.37268325662848
 20
13.5997723661148
 30
0.0
 40
0.015
  0
CIRCLE
  5
56B
330
1F
100
AcDbEntity
  8
PCB_OUTLINE
100
AcDbCircle
 10
21.29268325662847
 20
13.5997723661148
 30
0.0
 40
0.015
  0
CIRCLE
  5
56C
330
1F
100
AcDbEntity
  8
PCB_OUTLINE
100
AcDbCircle
 10
21.45268325662847
 20
13.6797723661148
 30
0.0
 40
0.015
  0
CIRCLE
  5
56D
330
1F
100
AcDbEntity
  8
PCB_OUTLINE
100
AcDbCircle
 10
21.53268325662847
 20
13.6797723661148
 30
0.0
 40
0.015
  0
CIRCLE
  5
56E
330
1F
100
AcDbEntity
  8
PCB_OUTLINE
100
AcDbCircle
 10
21.37268325662848
 20
13.6797723661148
 30
0.0
 40
0.015
  0
CIRCLE
  5
56F
330
1F
100
AcDbEntity
  8
PCB_OUTLINE
100
AcDbCircle
 10
21.29268325662847
 20
13.6797723661148
 30
0.0
 40
0.015
  0
CIRCLE
  5
570
330
1F
100
AcDbEntity
  8
PCB_OUTLINE
100
AcDbCircle
 10
21.45268325662847
 20
13.7597723661148
 30
0.0
 40
0.015
  0
CIRCLE
  5
571
330
1F
100
AcDbEntity
  8
PCB_OUTLINE
100
AcDbCircle
 10
21.53268325662847
 20
13.7597723661148
 30
0.0
 40
0.015
  0
CIRCLE
  5
572
330
1F
100
AcDbEntity
  8
PCB_OUTLINE
100
AcDbCircle
 10
21.37268325662848
 20
13.7597723661148
 30
0.0
 40
0.015
  0
CIRCLE
  5
573
330
1F
100
AcDbEntity
  8
PCB_OUTLINE
100
AcDbCircle
 10
21.29268325662847
 20
13.7597723661148
 30
0.0
 40
0.015
  0
CIRCLE
  5
574
330
1F
100
AcDbEntity
  8
PCB_OUTLINE
100
AcDbCircle
 10
21.45268325662847
 20
13.8397723661148
 30
0.0
 40
0.015
  0
CIRCLE
  5
575
330
1F
100
AcDbEntity
  8
PCB_OUTLINE
100
AcDbCircle
 10
21.53268325662847
 20
13.8397723661148
 30
0.0
 40
0.015
  0
CIRCLE
  5
576
330
1F
100
AcDbEntity
  8
PCB_OUTLINE
100
AcDbCircle
 10
21.37268325662848
 20
13.8397723661148
 30
0.0
 40
0.015
  0
CIRCLE
  5
577
330
1F
100
AcDbEntity
  8
PCB_OUTLINE
100
AcDbCircle
 10
21.29268325662847
 20
13.8397723661148
 30
0.0
 40
0.015
  0
CIRCLE
  5
578
330
1F
100
AcDbEntity
  8
PCB_OUTLINE
100
AcDbCircle
 10
21.45268325662847
 20
13.9197723661148
 30
0.0
 40
0.015
  0
CIRCLE
  5
579
330
1F
100
AcDbEntity
  8
PCB_OUTLINE
100
AcDbCircle
 10
21.53268325662847
 20
13.9197723661148
 30
0.0
 40
0.015
  0
CIRCLE
  5
57A
330
1F
100
AcDbEntity
  8
PCB_OUTLINE
100
AcDbCircle
 10
21.37268325662848
 20
13.9197723661148
 30
0.0
 40
0.015
  0
CIRCLE
  5
57B
330
1F
100
AcDbEntity
  8
PCB_OUTLINE
100
AcDbCircle
 10
21.29268325662847
 20
13.9197723661148
 30
0.0
 40
0.015
  0
CIRCLE
  5
57C
330
1F
100
AcDbEntity
  8
PCB_OUTLINE
100
AcDbCircle
 10
21.45268325662847
 20
13.9997723661148
 30
0.0
 40
0.015
  0
CIRCLE
  5
57D
330
1F
100
AcDbEntity
  8
PCB_OUTLINE
100
AcDbCircle
 10
21.53268325662847
 20
13.9997723661148
 30
0.0
 40
0.015
  0
CIRCLE
  5
57E
330
1F
100
AcDbEntity
  8
PCB_OUTLINE
100
AcDbCircle
 10
21.37268325662848
 20
13.9997723661148
 30
0.0
 40
0.015
  0
CIRCLE
  5
57F
330
1F
100
AcDbEntity
  8
PCB_OUTLINE
100
AcDbCircle
 10
21.29268325662847
 20
13.9997723661148
 30
0.0
 40
0.015
  0
CIRCLE
  5
580
330
1F
100
AcDbEntity
  8
PCB_OUTLINE
100
AcDbCircle
 10
21.45268325662847
 20
14.0797723661148
 30
0.0
 40
0.015
  0
CIRCLE
  5
581
330
1F
100
AcDbEntity
  8
PCB_OUTLINE
100
AcDbCircle
 10
21.53268325662847
 20
14.0797723661148
 30
0.0
 40
0.015
  0
CIRCLE
  5
582
330
1F
100
AcDbEntity
  8
PCB_OUTLINE
100
AcDbCircle
 10
21.37268325662848
 20
14.0797723661148
 30
0.0
 40
0.015
  0
CIRCLE
  5
583
330
1F
100
AcDbEntity
  8
PCB_OUTLINE
100
AcDbCircle
 10
21.29268325662847
 20
14.0797723661148
 30
0.0
 40
0.015
  0
CIRCLE
  5
584
330
1F
100
AcDbEntity
  8
PCB_OUTLINE
100
AcDbCircle
 10
21.45268325662847
 20
14.1597723661148
 30
0.0
 40
0.015
  0
CIRCLE
  5
585
330
1F
100
AcDbEntity
  8
PCB_OUTLINE
100
AcDbCircle
 10
21.53268325662847
 20
14.1597723661148
 30
0.0
 40
0.015
  0
CIRCLE
  5
586
330
1F
100
AcDbEntity
  8
PCB_OUTLINE
100
AcDbCircle
 10
21.37268325662848
 20
14.1597723661148
 30
0.0
 40
0.015
  0
CIRCLE
  5
587
330
1F
100
AcDbEntity
  8
PCB_OUTLINE
100
AcDbCircle
 10
21.29268325662847
 20
14.1597723661148
 30
0.0
 40
0.015
  0
CIRCLE
  5
588
330
1F
100
AcDbEntity
  8
PCB_OUTLINE
100
AcDbCircle
 10
21.45268325662847
 20
14.2397723661148
 30
0.0
 40
0.015
  0
CIRCLE
  5
589
330
1F
100
AcDbEntity
  8
PCB_OUTLINE
100
AcDbCircle
 10
21.53268325662847
 20
14.2397723661148
 30
0.0
 40
0.015
  0
CIRCLE
  5
58A
330
1F
100
AcDbEntity
  8
PCB_OUTLINE
100
AcDbCircle
 10
21.37268325662848
 20
14.2397723661148
 30
0.0
 40
0.015
  0
CIRCLE
  5
58B
330
1F
100
AcDbEntity
  8
PCB_OUTLINE
100
AcDbCircle
 10
21.29268325662847
 20
14.2397723661148
 30
0.0
 40
0.015
  0
CIRCLE
  5
58C
330
1F
100
AcDbEntity
  8
PCB_OUTLINE
100
AcDbCircle
 10
21.45268325662847
 20
14.3197723661148
 30
0.0
 40
0.015
  0
CIRCLE
  5
58D
330
1F
100
AcDbEntity
  8
PCB_OUTLINE
100
AcDbCircle
 10
21.53268325662847
 20
14.3197723661148
 30
0.0
 40
0.015
  0
CIRCLE
  5
58E
330
1F
100
AcDbEntity
  8
PCB_OUTLINE
100
AcDbCircle
 10
21.37268325662848
 20
14.3197723661148
 30
0.0
 40
0.015
  0
CIRCLE
  5
58F
330
1F
100
AcDbEntity
  8
PCB_OUTLINE
100
AcDbCircle
 10
21.29268325662847
 20
14.3197723661148
 30
0.0
 40
0.015
  0
CIRCLE
  5
590
330
1F
100
AcDbEntity
  8
PCB_OUTLINE
100
AcDbCircle
 10
21.45268325662847
 20
14.3997723661148
 30
0.0
 40
0.015
  0
CIRCLE
  5
591
330
1F
100
AcDbEntity
  8
PCB_OUTLINE
100
AcDbCircle
 10
21.53268325662847
 20
14.3997723661148
 30
0.0
 40
0.015
  0
CIRCLE
  5
592
330
1F
100
AcDbEntity
  8
PCB_OUTLINE
100
AcDbCircle
 10
21.37268325662848
 20
14.3997723661148
 30
0.0
 40
0.015
  0
CIRCLE
  5
593
330
1F
100
AcDbEntity
  8
PCB_OUTLINE
100
AcDbCircle
 10
21.29268325662847
 20
14.3997723661148
 30
0.0
 40
0.015
  0
CIRCLE
  5
594
330
1F
100
AcDbEntity
  8
PCB_OUTLINE
100
AcDbCircle
 10
21.45268325662847
 20
14.4797723661148
 30
0.0
 40
0.015
  0
CIRCLE
  5
595
330
1F
100
AcDbEntity
  8
PCB_OUTLINE
100
AcDbCircle
 10
21.53268325662847
 20
14.4797723661148
 30
0.0
 40
0.015
  0
CIRCLE
  5
596
330
1F
100
AcDbEntity
  8
PCB_OUTLINE
100
AcDbCircle
 10
21.37268325662848
 20
14.4797723661148
 30
0.0
 40
0.015
  0
CIRCLE
  5
597
330
1F
100
AcDbEntity
  8
PCB_OUTLINE
100
AcDbCircle
 10
21.29268325662847
 20
14.4797723661148
 30
0.0
 40
0.015
  0
CIRCLE
  5
598
330
1F
100
AcDbEntity
  8
PCB_OUTLINE
100
AcDbCircle
 10
21.45268325662847
 20
14.5597723661148
 30
0.0
 40
0.015
  0
CIRCLE
  5
599
330
1F
100
AcDbEntity
  8
PCB_OUTLINE
100
AcDbCircle
 10
21.53268325662847
 20
14.5597723661148
 30
0.0
 40
0.015
  0
CIRCLE
  5
59A
330
1F
100
AcDbEntity
  8
PCB_OUTLINE
100
AcDbCircle
 10
21.37268325662848
 20
14.5597723661148
 30
0.0
 40
0.015
  0
CIRCLE
  5
59B
330
1F
100
AcDbEntity
  8
PCB_OUTLINE
100
AcDbCircle
 10
21.29268325662847
 20
14.5597723661148
 30
0.0
 40
0.015
  0
CIRCLE
  5
59C
330
1F
100
AcDbEntity
  8
PCB_OUTLINE
100
AcDbCircle
 10
21.45268325662847
 20
14.6397723661148
 30
0.0
 40
0.015
  0
CIRCLE
  5
59D
330
1F
100
AcDbEntity
  8
PCB_OUTLINE
100
AcDbCircle
 10
21.53268325662847
 20
14.6397723661148
 30
0.0
 40
0.015
  0
CIRCLE
  5
59E
330
1F
100
AcDbEntity
  8
PCB_OUTLINE
100
AcDbCircle
 10
21.37268325662848
 20
14.6397723661148
 30
0.0
 40
0.015
  0
CIRCLE
  5
59F
330
1F
100
AcDbEntity
  8
PCB_OUTLINE
100
AcDbCircle
 10
21.29268325662847
 20
14.6397723661148
 30
0.0
 40
0.015
  0
CIRCLE
  5
5A0
330
1F
100
AcDbEntity
  8
PCB_OUTLINE
100
AcDbCircle
 10
21.45268325662847
 20
14.7197723661148
 30
0.0
 40
0.015
  0
CIRCLE
  5
5A1
330
1F
100
AcDbEntity
  8
PCB_OUTLINE
100
AcDbCircle
 10
21.53268325662847
 20
14.7197723661148
 30
0.0
 40
0.015
  0
CIRCLE
  5
5A2
330
1F
100
AcDbEntity
  8
PCB_OUTLINE
100
AcDbCircle
 10
21.37268325662848
 20
14.7197723661148
 30
0.0
 40
0.015
  0
CIRCLE
  5
5A3
330
1F
100
AcDbEntity
  8
PCB_OUTLINE
100
AcDbCircle
 10
21.29268325662847
 20
14.7197723661148
 30
0.0
 40
0.015
  0
CIRCLE
  5
5A4
330
1F
100
AcDbEntity
  8
PCB_OUTLINE
100
AcDbCircle
 10
23.87268332270815
 20
13.1997723661148
 30
0.0
 40
0.015
  0
CIRCLE
  5
5A5
330
1F
100
AcDbEntity
  8
PCB_OUTLINE
100
AcDbCircle
 10
23.79268332270815
 20
13.1997723661148
 30
0.0
 40
0.015
  0
CIRCLE
  5
5A6
330
1F
100
AcDbEntity
  8
PCB_OUTLINE
100
AcDbCircle
 10
23.95268332270815
 20
13.1997723661148
 30
0.0
 40
0.015
  0
CIRCLE
  5
5A7
330
1F
100
AcDbEntity
  8
PCB_OUTLINE
100
AcDbCircle
 10
24.03268332270815
 20
13.1997723661148
 30
0.0
 40
0.015
  0
CIRCLE
  5
5A8
330
1F
100
AcDbEntity
  8
PCB_OUTLINE
100
AcDbCircle
 10
23.87268332270815
 20
13.2797723661148
 30
0.0
 40
0.015
  0
CIRCLE
  5
5A9
330
1F
100
AcDbEntity
  8
PCB_OUTLINE
100
AcDbCircle
 10
23.79268332270815
 20
13.2797723661148
 30
0.0
 40
0.015
  0
CIRCLE
  5
5AA
330
1F
100
AcDbEntity
  8
PCB_OUTLINE
100
AcDbCircle
 10
23.95268332270815
 20
13.2797723661148
 30
0.0
 40
0.015
  0
CIRCLE
  5
5AB
330
1F
100
AcDbEntity
  8
PCB_OUTLINE
100
AcDbCircle
 10
24.03268332270815
 20
13.2797723661148
 30
0.0
 40
0.015
  0
CIRCLE
  5
5AC
330
1F
100
AcDbEntity
  8
PCB_OUTLINE
100
AcDbCircle
 10
23.87268332270815
 20
13.3597723661148
 30
0.0
 40
0.015
  0
CIRCLE
  5
5AD
330
1F
100
AcDbEntity
  8
PCB_OUTLINE
100
AcDbCircle
 10
23.79268332270815
 20
13.3597723661148
 30
0.0
 40
0.015
  0
CIRCLE
  5
5AE
330
1F
100
AcDbEntity
  8
PCB_OUTLINE
100
AcDbCircle
 10
23.95268332270815
 20
13.3597723661148
 30
0.0
 40
0.015
  0
CIRCLE
  5
5AF
330
1F
100
AcDbEntity
  8
PCB_OUTLINE
100
AcDbCircle
 10
24.03268332270815
 20
13.3597723661148
 30
0.0
 40
0.015
  0
CIRCLE
  5
5B0
330
1F
100
AcDbEntity
  8
PCB_OUTLINE
100
AcDbCircle
 10
23.87268332270815
 20
13.4397723661148
 30
0.0
 40
0.015
  0
CIRCLE
  5
5B1
330
1F
100
AcDbEntity
  8
PCB_OUTLINE
100
AcDbCircle
 10
23.79268332270815
 20
13.4397723661148
 30
0.0
 40
0.015
  0
CIRCLE
  5
5B2
330
1F
100
AcDbEntity
  8
PCB_OUTLINE
100
AcDbCircle
 10
23.95268332270815
 20
13.4397723661148
 30
0.0
 40
0.015
  0
CIRCLE
  5
5B3
330
1F
100
AcDbEntity
  8
PCB_OUTLINE
100
AcDbCircle
 10
24.03268332270815
 20
13.4397723661148
 30
0.0
 40
0.015
  0
CIRCLE
  5
5B4
330
1F
100
AcDbEntity
  8
PCB_OUTLINE
100
AcDbCircle
 10
23.87268332270815
 20
13.5197723661148
 30
0.0
 40
0.015
  0
CIRCLE
  5
5B5
330
1F
100
AcDbEntity
  8
PCB_OUTLINE
100
AcDbCircle
 10
23.79268332270815
 20
13.5197723661148
 30
0.0
 40
0.015
  0
CIRCLE
  5
5B6
330
1F
100
AcDbEntity
  8
PCB_OUTLINE
100
AcDbCircle
 10
23.95268332270815
 20
13.5197723661148
 30
0.0
 40
0.015
  0
CIRCLE
  5
5B7
330
1F
100
AcDbEntity
  8
PCB_OUTLINE
100
AcDbCircle
 10
24.03268332270815
 20
13.5197723661148
 30
0.0
 40
0.015
  0
CIRCLE
  5
5B8
330
1F
100
AcDbEntity
  8
PCB_OUTLINE
100
AcDbCircle
 10
23.87268332270815
 20
13.5997723661148
 30
0.0
 40
0.015
  0
CIRCLE
  5
5B9
330
1F
100
AcDbEntity
  8
PCB_OUTLINE
100
AcDbCircle
 10
23.79268332270815
 20
13.5997723661148
 30
0.0
 40
0.015
  0
CIRCLE
  5
5BA
330
1F
100
AcDbEntity
  8
PCB_OUTLINE
100
AcDbCircle
 10
23.95268332270815
 20
13.5997723661148
 30
0.0
 40
0.015
  0
CIRCLE
  5
5BB
330
1F
100
AcDbEntity
  8
PCB_OUTLINE
100
AcDbCircle
 10
24.03268332270815
 20
13.5997723661148
 30
0.0
 40
0.015
  0
CIRCLE
  5
5BC
330
1F
100
AcDbEntity
  8
PCB_OUTLINE
100
AcDbCircle
 10
23.87268332270815
 20
13.6797723661148
 30
0.0
 40
0.015
  0
CIRCLE
  5
5BD
330
1F
100
AcDbEntity
  8
PCB_OUTLINE
100
AcDbCircle
 10
23.79268332270815
 20
13.6797723661148
 30
0.0
 40
0.015
  0
CIRCLE
  5
5BE
330
1F
100
AcDbEntity
  8
PCB_OUTLINE
100
AcDbCircle
 10
23.95268332270815
 20
13.6797723661148
 30
0.0
 40
0.015
  0
CIRCLE
  5
5BF
330
1F
100
AcDbEntity
  8
PCB_OUTLINE
100
AcDbCircle
 10
24.03268332270815
 20
13.6797723661148
 30
0.0
 40
0.015
  0
CIRCLE
  5
5C0
330
1F
100
AcDbEntity
  8
PCB_OUTLINE
100
AcDbCircle
 10
23.87268332270815
 20
13.7597723661148
 30
0.0
 40
0.015
  0
CIRCLE
  5
5C1
330
1F
100
AcDbEntity
  8
PCB_OUTLINE
100
AcDbCircle
 10
23.79268332270815
 20
13.7597723661148
 30
0.0
 40
0.015
  0
CIRCLE
  5
5C2
330
1F
100
AcDbEntity
  8
PCB_OUTLINE
100
AcDbCircle
 10
23.95268332270815
 20
13.7597723661148
 30
0.0
 40
0.015
  0
CIRCLE
  5
5C3
330
1F
100
AcDbEntity
  8
PCB_OUTLINE
100
AcDbCircle
 10
24.03268332270815
 20
13.7597723661148
 30
0.0
 40
0.015
  0
CIRCLE
  5
5C4
330
1F
100
AcDbEntity
  8
PCB_OUTLINE
100
AcDbCircle
 10
23.87268332270815
 20
13.8397723661148
 30
0.0
 40
0.015
  0
CIRCLE
  5
5C5
330
1F
100
AcDbEntity
  8
PCB_OUTLINE
100
AcDbCircle
 10
23.79268332270815
 20
13.8397723661148
 30
0.0
 40
0.015
  0
CIRCLE
  5
5C6
330
1F
100
AcDbEntity
  8
PCB_OUTLINE
100
AcDbCircle
 10
23.95268332270815
 20
13.8397723661148
 30
0.0
 40
0.015
  0
CIRCLE
  5
5C7
330
1F
100
AcDbEntity
  8
PCB_OUTLINE
100
AcDbCircle
 10
23.87268332270815
 20
13.9197723661148
 30
0.0
 40
0.015
  0
CIRCLE
  5
5C8
330
1F
100
AcDbEntity
  8
PCB_OUTLINE
100
AcDbCircle
 10
23.79268332270815
 20
13.9197723661148
 30
0.0
 40
0.015
  0
CIRCLE
  5
5C9
330
1F
100
AcDbEntity
  8
PCB_OUTLINE
100
AcDbCircle
 10
23.95268332270815
 20
13.9197723661148
 30
0.0
 40
0.015
  0
CIRCLE
  5
5CA
330
1F
100
AcDbEntity
  8
PCB_OUTLINE
100
AcDbCircle
 10
23.87268332270815
 20
13.9997723661148
 30
0.0
 40
0.015
  0
CIRCLE
  5
5CB
330
1F
100
AcDbEntity
  8
PCB_OUTLINE
100
AcDbCircle
 10
23.79268332270815
 20
13.9997723661148
 30
0.0
 40
0.015
  0
CIRCLE
  5
5CC
330
1F
100
AcDbEntity
  8
PCB_OUTLINE
100
AcDbCircle
 10
23.95268332270815
 20
13.9997723661148
 30
0.0
 40
0.015
  0
CIRCLE
  5
5CD
330
1F
100
AcDbEntity
  8
PCB_OUTLINE
100
AcDbCircle
 10
23.87268332270815
 20
14.0797723661148
 30
0.0
 40
0.015
  0
CIRCLE
  5
5CE
330
1F
100
AcDbEntity
  8
PCB_OUTLINE
100
AcDbCircle
 10
23.79268332270815
 20
14.0797723661148
 30
0.0
 40
0.015
  0
CIRCLE
  5
5CF
330
1F
100
AcDbEntity
  8
PCB_OUTLINE
100
AcDbCircle
 10
23.95268332270815
 20
14.0797723661148
 30
0.0
 40
0.015
  0
CIRCLE
  5
5D0
330
1F
100
AcDbEntity
  8
PCB_OUTLINE
100
AcDbCircle
 10
23.87268332270815
 20
14.1597723661148
 30
0.0
 40
0.015
  0
CIRCLE
  5
5D1
330
1F
100
AcDbEntity
  8
PCB_OUTLINE
100
AcDbCircle
 10
23.79268332270815
 20
14.1597723661148
 30
0.0
 40
0.015
  0
CIRCLE
  5
5D2
330
1F
100
AcDbEntity
  8
PCB_OUTLINE
100
AcDbCircle
 10
23.95268332270815
 20
14.1597723661148
 30
0.0
 40
0.015
  0
CIRCLE
  5
5D3
330
1F
100
AcDbEntity
  8
PCB_OUTLINE
100
AcDbCircle
 10
23.87268332270815
 20
14.2397723661148
 30
0.0
 40
0.015
  0
CIRCLE
  5
5D4
330
1F
100
AcDbEntity
  8
PCB_OUTLINE
100
AcDbCircle
 10
23.79268332270815
 20
14.2397723661148
 30
0.0
 40
0.015
  0
CIRCLE
  5
5D5
330
1F
100
AcDbEntity
  8
PCB_OUTLINE
100
AcDbCircle
 10
23.95268332270815
 20
14.2397723661148
 30
0.0
 40
0.015
  0
CIRCLE
  5
5D6
330
1F
100
AcDbEntity
  8
PCB_OUTLINE
100
AcDbCircle
 10
24.03268332270815
 20
14.2397723661148
 30
0.0
 40
0.015
  0
CIRCLE
  5
5D7
330
1F
100
AcDbEntity
  8
PCB_OUTLINE
100
AcDbCircle
 10
23.87268332270815
 20
14.3197723661148
 30
0.0
 40
0.015
  0
CIRCLE
  5
5D8
330
1F
100
AcDbEntity
  8
PCB_OUTLINE
100
AcDbCircle
 10
23.79268332270815
 20
14.3197723661148
 30
0.0
 40
0.015
  0
CIRCLE
  5
5D9
330
1F
100
AcDbEntity
  8
PCB_OUTLINE
100
AcDbCircle
 10
23.95268332270815
 20
14.3197723661148
 30
0.0
 40
0.015
  0
CIRCLE
  5
5DA
330
1F
100
AcDbEntity
  8
PCB_OUTLINE
100
AcDbCircle
 10
24.03268332270815
 20
14.3197723661148
 30
0.0
 40
0.015
  0
CIRCLE
  5
5DB
330
1F
100
AcDbEntity
  8
PCB_OUTLINE
100
AcDbCircle
 10
23.87268332270815
 20
14.3997723661148
 30
0.0
 40
0.015
  0
CIRCLE
  5
5DC
330
1F
100
AcDbEntity
  8
PCB_OUTLINE
100
AcDbCircle
 10
23.79268332270815
 20
14.3997723661148
 30
0.0
 40
0.015
  0
CIRCLE
  5
5DD
330
1F
100
AcDbEntity
  8
PCB_OUTLINE
100
AcDbCircle
 10
23.95268332270815
 20
14.3997723661148
 30
0.0
 40
0.015
  0
CIRCLE
  5
5DE
330
1F
100
AcDbEntity
  8
PCB_OUTLINE
100
AcDbCircle
 10
24.03268332270815
 20
14.3997723661148
 30
0.0
 40
0.015
  0
CIRCLE
  5
5DF
330
1F
100
AcDbEntity
  8
PCB_OUTLINE
100
AcDbCircle
 10
23.87268332270815
 20
14.4797723661148
 30
0.0
 40
0.015
  0
CIRCLE
  5
5E0
330
1F
100
AcDbEntity
  8
PCB_OUTLINE
100
AcDbCircle
 10
23.79268332270815
 20
14.4797723661148
 30
0.0
 40
0.015
  0
CIRCLE
  5
5E1
330
1F
100
AcDbEntity
  8
PCB_OUTLINE
100
AcDbCircle
 10
23.95268332270815
 20
14.4797723661148
 30
0.0
 40
0.015
  0
CIRCLE
  5
5E2
330
1F
100
AcDbEntity
  8
PCB_OUTLINE
100
AcDbCircle
 10
24.03268332270815
 20
14.4797723661148
 30
0.0
 40
0.015
  0
CIRCLE
  5
5E3
330
1F
100
AcDbEntity
  8
PCB_OUTLINE
100
AcDbCircle
 10
23.87268332270815
 20
14.5597723661148
 30
0.0
 40
0.015
  0
CIRCLE
  5
5E4
330
1F
100
AcDbEntity
  8
PCB_OUTLINE
100
AcDbCircle
 10
23.79268332270815
 20
14.5597723661148
 30
0.0
 40
0.015
  0
CIRCLE
  5
5E5
330
1F
100
AcDbEntity
  8
PCB_OUTLINE
100
AcDbCircle
 10
23.95268332270815
 20
14.5597723661148
 30
0.0
 40
0.015
  0
CIRCLE
  5
5E6
330
1F
100
AcDbEntity
  8
PCB_OUTLINE
100
AcDbCircle
 10
24.03268332270815
 20
14.5597723661148
 30
0.0
 40
0.015
  0
CIRCLE
  5
5E7
330
1F
100
AcDbEntity
  8
PCB_OUTLINE
100
AcDbCircle
 10
23.87268332270815
 20
14.6397723661148
 30
0.0
 40
0.015
  0
CIRCLE
  5
5E8
330
1F
100
AcDbEntity
  8
PCB_OUTLINE
100
AcDbCircle
 10
23.79268332270815
 20
14.6397723661148
 30
0.0
 40
0.015
  0
CIRCLE
  5
5E9
330
1F
100
AcDbEntity
  8
PCB_OUTLINE
100
AcDbCircle
 10
23.95268332270815
 20
14.6397723661148
 30
0.0
 40
0.015
  0
CIRCLE
  5
5EA
330
1F
100
AcDbEntity
  8
PCB_OUTLINE
100
AcDbCircle
 10
24.03268332270815
 20
14.6397723661148
 30
0.0
 40
0.015
  0
CIRCLE
  5
5EB
330
1F
100
AcDbEntity
  8
PCB_OUTLINE
100
AcDbCircle
 10
23.87268332270815
 20
14.7197723661148
 30
0.0
 40
0.015
  0
CIRCLE
  5
5EC
330
1F
100
AcDbEntity
  8
PCB_OUTLINE
100
AcDbCircle
 10
23.79268332270815
 20
14.7197723661148
 30
0.0
 40
0.015
  0
CIRCLE
  5
5ED
330
1F
100
AcDbEntity
  8
PCB_OUTLINE
100
AcDbCircle
 10
23.95268332270815
 20
14.7197723661148
 30
0.0
 40
0.015
  0
CIRCLE
  5
5EE
330
1F
100
AcDbEntity
  8
PCB_OUTLINE
100
AcDbCircle
 10
24.03268332270815
 20
14.7197723661148
 30
0.0
 40
0.015
  0
CIRCLE
  5
5EF
330
1F
100
AcDbEntity
  8
PCB_OUTLINE
100
AcDbCircle
 10
21.98268324286475
 20
14.39977237141081
 30
0.0
 40
0.015
  0
CIRCLE
  5
5F0
330
1F
100
AcDbEntity
  8
PCB_OUTLINE
100
AcDbCircle
 10
21.90268324286475
 20
14.39977237141081
 30
0.0
 40
0.015
  0
CIRCLE
  5
5F1
330
1F
100
AcDbEntity
  8
PCB_OUTLINE
100
AcDbCircle
 10
22.06268324286475
 20
14.39977237141081
 30
0.0
 40
0.015
  0
CIRCLE
  5
5F2
330
1F
100
AcDbEntity
  8
PCB_OUTLINE
100
AcDbCircle
 10
22.14268324286475
 20
14.39977237141081
 30
0.0
 40
0.015
  0
CIRCLE
  5
5F3
330
1F
100
AcDbEntity
  8
PCB_OUTLINE
100
AcDbCircle
 10
21.98268324286475
 20
14.47977237141081
 30
0.0
 40
0.015
  0
CIRCLE
  5
5F4
330
1F
100
AcDbEntity
  8
PCB_OUTLINE
100
AcDbCircle
 10
21.90268324286475
 20
14.47977237141081
 30
0.0
 40
0.015
  0
CIRCLE
  5
5F5
330
1F
100
AcDbEntity
  8
PCB_OUTLINE
100
AcDbCircle
 10
22.06268324286475
 20
14.47977237141081
 30
0.0
 40
0.015
  0
CIRCLE
  5
5F6
330
1F
100
AcDbEntity
  8
PCB_OUTLINE
100
AcDbCircle
 10
22.14268324286475
 20
14.47977237141081
 30
0.0
 40
0.015
  0
CIRCLE
  5
5F7
330
1F
100
AcDbEntity
  8
PCB_OUTLINE
100
AcDbCircle
 10
21.98268324286475
 20
14.55977237141081
 30
0.0
 40
0.015
  0
CIRCLE
  5
5F8
330
1F
100
AcDbEntity
  8
PCB_OUTLINE
100
AcDbCircle
 10
21.90268324286475
 20
14.55977237141081
 30
0.0
 40
0.015
  0
CIRCLE
  5
5F9
330
1F
100
AcDbEntity
  8
PCB_OUTLINE
100
AcDbCircle
 10
22.06268324286475
 20
14.55977237141081
 30
0.0
 40
0.015
  0
CIRCLE
  5
5FA
330
1F
100
AcDbEntity
  8
PCB_OUTLINE
100
AcDbCircle
 10
22.14268324286475
 20
14.55977237141081
 30
0.0
 40
0.015
  0
CIRCLE
  5
5FB
330
1F
100
AcDbEntity
  8
PCB_OUTLINE
100
AcDbCircle
 10
21.98268324286475
 20
14.63977237141081
 30
0.0
 40
0.015
  0
CIRCLE
  5
5FC
330
1F
100
AcDbEntity
  8
PCB_OUTLINE
100
AcDbCircle
 10
21.90268324286475
 20
14.63977237141081
 30
0.0
 40
0.015
  0
CIRCLE
  5
5FD
330
1F
100
AcDbEntity
  8
PCB_OUTLINE
100
AcDbCircle
 10
22.06268324286475
 20
14.63977237141081
 30
0.0
 40
0.015
  0
CIRCLE
  5
5FE
330
1F
100
AcDbEntity
  8
PCB_OUTLINE
100
AcDbCircle
 10
22.14268324286475
 20
14.63977237141081
 30
0.0
 40
0.015
  0
CIRCLE
  5
5FF
330
1F
100
AcDbEntity
  8
PCB_OUTLINE
100
AcDbCircle
 10
21.98268324286475
 20
14.71977237141081
 30
0.0
 40
0.015
  0
CIRCLE
  5
600
330
1F
100
AcDbEntity
  8
PCB_OUTLINE
100
AcDbCircle
 10
21.90268324286475
 20
14.71977237141081
 30
0.0
 40
0.015
  0
CIRCLE
  5
601
330
1F
100
AcDbEntity
  8
PCB_OUTLINE
100
AcDbCircle
 10
22.06268324286475
 20
14.71977237141081
 30
0.0
 40
0.015
  0
CIRCLE
  5
602
330
1F
100
AcDbEntity
  8
PCB_OUTLINE
100
AcDbCircle
 10
22.14268324286475
 20
14.71977237141081
 30
0.0
 40
0.015
  0
CIRCLE
  5
603
330
1F
100
AcDbEntity
  8
PCB_OUTLINE
100
AcDbCircle
 10
22.22268324286475
 20
14.31977237141081
 30
0.0
 40
0.015
  0
CIRCLE
  5
604
330
1F
100
AcDbEntity
  8
PCB_OUTLINE
100
AcDbCircle
 10
22.30268324286475
 20
14.31977237141081
 30
0.0
 40
0.015
  0
CIRCLE
  5
605
330
1F
100
AcDbEntity
  8
PCB_OUTLINE
100
AcDbCircle
 10
22.38268324286475
 20
14.31977237141081
 30
0.0
 40
0.015
  0
CIRCLE
  5
606
330
1F
100
AcDbEntity
  8
PCB_OUTLINE
100
AcDbCircle
 10
22.22268324286475
 20
14.39977237141081
 30
0.0
 40
0.015
  0
CIRCLE
  5
607
330
1F
100
AcDbEntity
  8
PCB_OUTLINE
100
AcDbCircle
 10
22.30268324286475
 20
14.39977237141081
 30
0.0
 40
0.015
  0
CIRCLE
  5
608
330
1F
100
AcDbEntity
  8
PCB_OUTLINE
100
AcDbCircle
 10
22.38268324286475
 20
14.39977237141081
 30
0.0
 40
0.015
  0
CIRCLE
  5
609
330
1F
100
AcDbEntity
  8
PCB_OUTLINE
100
AcDbCircle
 10
22.22268324286475
 20
14.47977237141081
 30
0.0
 40
0.015
  0
CIRCLE
  5
60A
330
1F
100
AcDbEntity
  8
PCB_OUTLINE
100
AcDbCircle
 10
22.30268324286475
 20
14.47977237141081
 30
0.0
 40
0.015
  0
CIRCLE
  5
60B
330
1F
100
AcDbEntity
  8
PCB_OUTLINE
100
AcDbCircle
 10
22.38268324286475
 20
14.47977237141081
 30
0.0
 40
0.015
  0
CIRCLE
  5
60C
330
1F
100
AcDbEntity
  8
PCB_OUTLINE
100
AcDbCircle
 10
22.22268324286475
 20
14.55977237141081
 30
0.0
 40
0.015
  0
CIRCLE
  5
60D
330
1F
100
AcDbEntity
  8
PCB_OUTLINE
100
AcDbCircle
 10
22.30268324286475
 20
14.55977237141081
 30
0.0
 40
0.015
  0
CIRCLE
  5
60E
330
1F
100
AcDbEntity
  8
PCB_OUTLINE
100
AcDbCircle
 10
22.38268324286475
 20
14.55977237141081
 30
0.0
 40
0.015
  0
CIRCLE
  5
60F
330
1F
100
AcDbEntity
  8
PCB_OUTLINE
100
AcDbCircle
 10
22.22268324286475
 20
14.63977237141081
 30
0.0
 40
0.015
  0
CIRCLE
  5
610
330
1F
100
AcDbEntity
  8
PCB_OUTLINE
100
AcDbCircle
 10
22.30268324286475
 20
14.63977237141081
 30
0.0
 40
0.015
  0
CIRCLE
  5
611
330
1F
100
AcDbEntity
  8
PCB_OUTLINE
100
AcDbCircle
 10
22.38268324286475
 20
14.63977237141081
 30
0.0
 40
0.015
  0
CIRCLE
  5
612
330
1F
100
AcDbEntity
  8
PCB_OUTLINE
100
AcDbCircle
 10
22.22268324286475
 20
14.71977237141081
 30
0.0
 40
0.015
  0
CIRCLE
  5
613
330
1F
100
AcDbEntity
  8
PCB_OUTLINE
100
AcDbCircle
 10
22.30268324286475
 20
14.71977237141081
 30
0.0
 40
0.015
  0
CIRCLE
  5
614
330
1F
100
AcDbEntity
  8
PCB_OUTLINE
100
AcDbCircle
 10
22.38268324286475
 20
14.71977237141081
 30
0.0
 40
0.015
  0
CIRCLE
  5
615
330
1F
100
AcDbEntity
  8
PCB_OUTLINE
100
AcDbCircle
 10
22.46268324286475
 20
14.31977237141081
 30
0.0
 40
0.015
  0
CIRCLE
  5
616
330
1F
100
AcDbEntity
  8
PCB_OUTLINE
100
AcDbCircle
 10
22.54268324286474
 20
14.31977237141081
 30
0.0
 40
0.015
  0
CIRCLE
  5
617
330
1F
100
AcDbEntity
  8
PCB_OUTLINE
100
AcDbCircle
 10
22.62268324286475
 20
14.31977237141081
 30
0.0
 40
0.015
  0
CIRCLE
  5
618
330
1F
100
AcDbEntity
  8
PCB_OUTLINE
100
AcDbCircle
 10
22.46268324286475
 20
14.39977237141081
 30
0.0
 40
0.015
  0
CIRCLE
  5
619
330
1F
100
AcDbEntity
  8
PCB_OUTLINE
100
AcDbCircle
 10
22.54268324286474
 20
14.39977237141081
 30
0.0
 40
0.015
  0
CIRCLE
  5
61A
330
1F
100
AcDbEntity
  8
PCB_OUTLINE
100
AcDbCircle
 10
22.62268324286475
 20
14.39977237141081
 30
0.0
 40
0.015
  0
CIRCLE
  5
61B
330
1F
100
AcDbEntity
  8
PCB_OUTLINE
100
AcDbCircle
 10
22.46268324286475
 20
14.47977237141081
 30
0.0
 40
0.015
  0
CIRCLE
  5
61C
330
1F
100
AcDbEntity
  8
PCB_OUTLINE
100
AcDbCircle
 10
22.54268324286474
 20
14.47977237141081
 30
0.0
 40
0.015
  0
CIRCLE
  5
61D
330
1F
100
AcDbEntity
  8
PCB_OUTLINE
100
AcDbCircle
 10
22.62268324286475
 20
14.47977237141081
 30
0.0
 40
0.015
  0
CIRCLE
  5
61E
330
1F
100
AcDbEntity
  8
PCB_OUTLINE
100
AcDbCircle
 10
22.46268324286475
 20
14.55977237141081
 30
0.0
 40
0.015
  0
CIRCLE
  5
61F
330
1F
100
AcDbEntity
  8
PCB_OUTLINE
100
AcDbCircle
 10
22.54268324286474
 20
14.55977237141081
 30
0.0
 40
0.015
  0
CIRCLE
  5
620
330
1F
100
AcDbEntity
  8
PCB_OUTLINE
100
AcDbCircle
 10
22.62268324286475
 20
14.55977237141081
 30
0.0
 40
0.015
  0
CIRCLE
  5
621
330
1F
100
AcDbEntity
  8
PCB_OUTLINE
100
AcDbCircle
 10
22.46268324286475
 20
14.63977237141081
 30
0.0
 40
0.015
  0
CIRCLE
  5
622
330
1F
100
AcDbEntity
  8
PCB_OUTLINE
100
AcDbCircle
 10
22.54268324286474
 20
14.63977237141081
 30
0.0
 40
0.015
  0
CIRCLE
  5
623
330
1F
100
AcDbEntity
  8
PCB_OUTLINE
100
AcDbCircle
 10
22.62268324286475
 20
14.63977237141081
 30
0.0
 40
0.015
  0
CIRCLE
  5
624
330
1F
100
AcDbEntity
  8
PCB_OUTLINE
100
AcDbCircle
 10
22.46268324286475
 20
14.71977237141081
 30
0.0
 40
0.015
  0
CIRCLE
  5
625
330
1F
100
AcDbEntity
  8
PCB_OUTLINE
100
AcDbCircle
 10
22.54268324286474
 20
14.71977237141081
 30
0.0
 40
0.015
  0
CIRCLE
  5
626
330
1F
100
AcDbEntity
  8
PCB_OUTLINE
100
AcDbCircle
 10
22.62268324286475
 20
14.71977237141081
 30
0.0
 40
0.015
  0
CIRCLE
  5
627
330
1F
100
AcDbEntity
  8
PCB_OUTLINE
100
AcDbCircle
 10
22.70268324286474
 20
14.31977237141081
 30
0.0
 40
0.015
  0
CIRCLE
  5
628
330
1F
100
AcDbEntity
  8
PCB_OUTLINE
100
AcDbCircle
 10
22.78268324286474
 20
14.31977237141081
 30
0.0
 40
0.015
  0
CIRCLE
  5
629
330
1F
100
AcDbEntity
  8
PCB_OUTLINE
100
AcDbCircle
 10
22.86268324286474
 20
14.31977237141081
 30
0.0
 40
0.015
  0
CIRCLE
  5
62A
330
1F
100
AcDbEntity
  8
PCB_OUTLINE
100
AcDbCircle
 10
22.70268324286474
 20
14.39977237141081
 30
0.0
 40
0.015
  0
CIRCLE
  5
62B
330
1F
100
AcDbEntity
  8
PCB_OUTLINE
100
AcDbCircle
 10
22.78268324286474
 20
14.39977237141081
 30
0.0
 40
0.015
  0
CIRCLE
  5
62C
330
1F
100
AcDbEntity
  8
PCB_OUTLINE
100
AcDbCircle
 10
22.86268324286474
 20
14.39977237141081
 30
0.0
 40
0.015
  0
CIRCLE
  5
62D
330
1F
100
AcDbEntity
  8
PCB_OUTLINE
100
AcDbCircle
 10
22.70268324286474
 20
14.47977237141081
 30
0.0
 40
0.015
  0
CIRCLE
  5
62E
330
1F
100
AcDbEntity
  8
PCB_OUTLINE
100
AcDbCircle
 10
22.78268324286474
 20
14.47977237141081
 30
0.0
 40
0.015
  0
CIRCLE
  5
62F
330
1F
100
AcDbEntity
  8
PCB_OUTLINE
100
AcDbCircle
 10
22.86268324286474
 20
14.47977237141081
 30
0.0
 40
0.015
  0
CIRCLE
  5
630
330
1F
100
AcDbEntity
  8
PCB_OUTLINE
100
AcDbCircle
 10
22.70268324286474
 20
14.55977237141081
 30
0.0
 40
0.015
  0
CIRCLE
  5
631
330
1F
100
AcDbEntity
  8
PCB_OUTLINE
100
AcDbCircle
 10
22.78268324286474
 20
14.55977237141081
 30
0.0
 40
0.015
  0
CIRCLE
  5
632
330
1F
100
AcDbEntity
  8
PCB_OUTLINE
100
AcDbCircle
 10
22.86268324286474
 20
14.55977237141081
 30
0.0
 40
0.015
  0
CIRCLE
  5
633
330
1F
100
AcDbEntity
  8
PCB_OUTLINE
100
AcDbCircle
 10
22.70268324286474
 20
14.63977237141081
 30
0.0
 40
0.015
  0
CIRCLE
  5
634
330
1F
100
AcDbEntity
  8
PCB_OUTLINE
100
AcDbCircle
 10
22.78268324286474
 20
14.63977237141081
 30
0.0
 40
0.015
  0
CIRCLE
  5
635
330
1F
100
AcDbEntity
  8
PCB_OUTLINE
100
AcDbCircle
 10
22.86268324286474
 20
14.63977237141081
 30
0.0
 40
0.015
  0
CIRCLE
  5
636
330
1F
100
AcDbEntity
  8
PCB_OUTLINE
100
AcDbCircle
 10
22.70268324286474
 20
14.71977237141081
 30
0.0
 40
0.015
  0
CIRCLE
  5
637
330
1F
100
AcDbEntity
  8
PCB_OUTLINE
100
AcDbCircle
 10
22.78268324286474
 20
14.71977237141081
 30
0.0
 40
0.015
  0
CIRCLE
  5
638
330
1F
100
AcDbEntity
  8
PCB_OUTLINE
100
AcDbCircle
 10
22.86268324286474
 20
14.71977237141081
 30
0.0
 40
0.015
  0
CIRCLE
  5
639
330
1F
100
AcDbEntity
  8
PCB_OUTLINE
100
AcDbCircle
 10
22.94268324286474
 20
14.31977237141081
 30
0.0
 40
0.015
  0
CIRCLE
  5
63A
330
1F
100
AcDbEntity
  8
PCB_OUTLINE
100
AcDbCircle
 10
23.02268324286474
 20
14.31977237141081
 30
0.0
 40
0.015
  0
CIRCLE
  5
63B
330
1F
100
AcDbEntity
  8
PCB_OUTLINE
100
AcDbCircle
 10
23.10268324286474
 20
14.31977237141081
 30
0.0
 40
0.015
  0
CIRCLE
  5
63C
330
1F
100
AcDbEntity
  8
PCB_OUTLINE
100
AcDbCircle
 10
22.94268324286474
 20
14.39977237141081
 30
0.0
 40
0.015
  0
CIRCLE
  5
63D
330
1F
100
AcDbEntity
  8
PCB_OUTLINE
100
AcDbCircle
 10
23.02268324286474
 20
14.39977237141081
 30
0.0
 40
0.015
  0
CIRCLE
  5
63E
330
1F
100
AcDbEntity
  8
PCB_OUTLINE
100
AcDbCircle
 10
23.10268324286474
 20
14.39977237141081
 30
0.0
 40
0.015
  0
CIRCLE
  5
63F
330
1F
100
AcDbEntity
  8
PCB_OUTLINE
100
AcDbCircle
 10
22.94268324286474
 20
14.47977237141081
 30
0.0
 40
0.015
  0
CIRCLE
  5
640
330
1F
100
AcDbEntity
  8
PCB_OUTLINE
100
AcDbCircle
 10
23.02268324286474
 20
14.47977237141081
 30
0.0
 40
0.015
  0
CIRCLE
  5
641
330
1F
100
AcDbEntity
  8
PCB_OUTLINE
100
AcDbCircle
 10
23.10268324286474
 20
14.47977237141081
 30
0.0
 40
0.015
  0
CIRCLE
  5
642
330
1F
100
AcDbEntity
  8
PCB_OUTLINE
100
AcDbCircle
 10
22.94268324286474
 20
14.55977237141081
 30
0.0
 40
0.015
  0
CIRCLE
  5
643
330
1F
100
AcDbEntity
  8
PCB_OUTLINE
100
AcDbCircle
 10
23.02268324286474
 20
14.55977237141081
 30
0.0
 40
0.015
  0
CIRCLE
  5
644
330
1F
100
AcDbEntity
  8
PCB_OUTLINE
100
AcDbCircle
 10
23.10268324286474
 20
14.55977237141081
 30
0.0
 40
0.015
  0
CIRCLE
  5
645
330
1F
100
AcDbEntity
  8
PCB_OUTLINE
100
AcDbCircle
 10
22.94268324286474
 20
14.63977237141081
 30
0.0
 40
0.015
  0
CIRCLE
  5
646
330
1F
100
AcDbEntity
  8
PCB_OUTLINE
100
AcDbCircle
 10
23.02268324286474
 20
14.63977237141081
 30
0.0
 40
0.015
  0
CIRCLE
  5
647
330
1F
100
AcDbEntity
  8
PCB_OUTLINE
100
AcDbCircle
 10
23.10268324286474
 20
14.63977237141081
 30
0.0
 40
0.015
  0
CIRCLE
  5
648
330
1F
100
AcDbEntity
  8
PCB_OUTLINE
100
AcDbCircle
 10
22.94268324286474
 20
14.71977237141081
 30
0.0
 40
0.015
  0
CIRCLE
  5
649
330
1F
100
AcDbEntity
  8
PCB_OUTLINE
100
AcDbCircle
 10
23.02268324286474
 20
14.71977237141081
 30
0.0
 40
0.015
  0
CIRCLE
  5
64A
330
1F
100
AcDbEntity
  8
PCB_OUTLINE
100
AcDbCircle
 10
23.10268324286474
 20
14.71977237141081
 30
0.0
 40
0.015
  0
CIRCLE
  5
64B
330
1F
100
AcDbEntity
  8
PCB_OUTLINE
100
AcDbCircle
 10
23.18268324286474
 20
14.31977237141081
 30
0.0
 40
0.015
  0
CIRCLE
  5
64C
330
1F
100
AcDbEntity
  8
PCB_OUTLINE
100
AcDbCircle
 10
23.26268324286474
 20
14.31977237141081
 30
0.0
 40
0.015
  0
CIRCLE
  5
64D
330
1F
100
AcDbEntity
  8
PCB_OUTLINE
100
AcDbCircle
 10
23.34268324286474
 20
14.31977237141081
 30
0.0
 40
0.015
  0
CIRCLE
  5
64E
330
1F
100
AcDbEntity
  8
PCB_OUTLINE
100
AcDbCircle
 10
23.18268324286474
 20
14.39977237141081
 30
0.0
 40
0.015
  0
CIRCLE
  5
64F
330
1F
100
AcDbEntity
  8
PCB_OUTLINE
100
AcDbCircle
 10
23.26268324286474
 20
14.39977237141081
 30
0.0
 40
0.015
  0
CIRCLE
  5
650
330
1F
100
AcDbEntity
  8
PCB_OUTLINE
100
AcDbCircle
 10
23.34268324286474
 20
14.39977237141081
 30
0.0
 40
0.015
  0
CIRCLE
  5
651
330
1F
100
AcDbEntity
  8
PCB_OUTLINE
100
AcDbCircle
 10
23.18268324286474
 20
14.47977237141081
 30
0.0
 40
0.015
  0
CIRCLE
  5
652
330
1F
100
AcDbEntity
  8
PCB_OUTLINE
100
AcDbCircle
 10
23.26268324286474
 20
14.47977237141081
 30
0.0
 40
0.015
  0
CIRCLE
  5
653
330
1F
100
AcDbEntity
  8
PCB_OUTLINE
100
AcDbCircle
 10
23.34268324286474
 20
14.47977237141081
 30
0.0
 40
0.015
  0
CIRCLE
  5
654
330
1F
100
AcDbEntity
  8
PCB_OUTLINE
100
AcDbCircle
 10
23.18268324286474
 20
14.55977237141081
 30
0.0
 40
0.015
  0
CIRCLE
  5
655
330
1F
100
AcDbEntity
  8
PCB_OUTLINE
100
AcDbCircle
 10
23.26268324286474
 20
14.55977237141081
 30
0.0
 40
0.015
  0
CIRCLE
  5
656
330
1F
100
AcDbEntity
  8
PCB_OUTLINE
100
AcDbCircle
 10
23.34268324286474
 20
14.55977237141081
 30
0.0
 40
0.015
  0
CIRCLE
  5
657
330
1F
100
AcDbEntity
  8
PCB_OUTLINE
100
AcDbCircle
 10
23.18268324286474
 20
14.63977237141081
 30
0.0
 40
0.015
  0
CIRCLE
  5
658
330
1F
100
AcDbEntity
  8
PCB_OUTLINE
100
AcDbCircle
 10
23.26268324286474
 20
14.63977237141081
 30
0.0
 40
0.015
  0
CIRCLE
  5
659
330
1F
100
AcDbEntity
  8
PCB_OUTLINE
100
AcDbCircle
 10
23.34268324286474
 20
14.63977237141081
 30
0.0
 40
0.015
  0
CIRCLE
  5
65A
330
1F
100
AcDbEntity
  8
PCB_OUTLINE
100
AcDbCircle
 10
23.18268324286474
 20
14.71977237141081
 30
0.0
 40
0.015
  0
CIRCLE
  5
65B
330
1F
100
AcDbEntity
  8
PCB_OUTLINE
100
AcDbCircle
 10
23.26268324286474
 20
14.71977237141081
 30
0.0
 40
0.015
  0
CIRCLE
  5
65C
330
1F
100
AcDbEntity
  8
PCB_OUTLINE
100
AcDbCircle
 10
23.34268324286474
 20
14.71977237141081
 30
0.0
 40
0.015
  0
CIRCLE
  5
65D
330
1F
100
AcDbEntity
  8
PCB_OUTLINE
100
AcDbCircle
 10
23.42268324286474
 20
14.31977237141081
 30
0.0
 40
0.015
  0
CIRCLE
  5
65E
330
1F
100
AcDbEntity
  8
PCB_OUTLINE
100
AcDbCircle
 10
23.42268324286474
 20
14.39977237141081
 30
0.0
 40
0.015
  0
CIRCLE
  5
65F
330
1F
100
AcDbEntity
  8
PCB_OUTLINE
100
AcDbCircle
 10
23.42268324286474
 20
14.47977237141081
 30
0.0
 40
0.015
  0
CIRCLE
  5
660
330
1F
100
AcDbEntity
  8
PCB_OUTLINE
100
AcDbCircle
 10
23.42268324286474
 20
14.55977237141081
 30
0.0
 40
0.015
  0
CIRCLE
  5
661
330
1F
100
AcDbEntity
  8
PCB_OUTLINE
100
AcDbCircle
 10
23.42268324286474
 20
14.63977237141081
 30
0.0
 40
0.015
  0
CIRCLE
  5
662
330
1F
100
AcDbEntity
  8
PCB_OUTLINE
100
AcDbCircle
 10
23.42268324286474
 20
14.71977237141081
 30
0.0
 40
0.015
  0
CIRCLE
  5
663
330
1F
100
AcDbEntity
  8
PCB_OUTLINE
100
AcDbCircle
 10
21.98268324286475
 20
13.91977237141081
 30
0.0
 40
0.015
  0
CIRCLE
  5
664
330
1F
100
AcDbEntity
  8
PCB_OUTLINE
100
AcDbCircle
 10
21.90268324286475
 20
13.91977237141081
 30
0.0
 40
0.015
  0
CIRCLE
  5
665
330
1F
100
AcDbEntity
  8
PCB_OUTLINE
100
AcDbCircle
 10
22.06268324286475
 20
13.91977237141081
 30
0.0
 40
0.015
  0
CIRCLE
  5
666
330
1F
100
AcDbEntity
  8
PCB_OUTLINE
100
AcDbCircle
 10
22.14268324286475
 20
13.91977237141081
 30
0.0
 40
0.015
  0
CIRCLE
  5
667
330
1F
100
AcDbEntity
  8
PCB_OUTLINE
100
AcDbCircle
 10
21.98268324286475
 20
13.99977237141081
 30
0.0
 40
0.015
  0
CIRCLE
  5
668
330
1F
100
AcDbEntity
  8
PCB_OUTLINE
100
AcDbCircle
 10
21.90268324286475
 20
13.99977237141081
 30
0.0
 40
0.015
  0
CIRCLE
  5
669
330
1F
100
AcDbEntity
  8
PCB_OUTLINE
100
AcDbCircle
 10
22.06268324286475
 20
13.99977237141081
 30
0.0
 40
0.015
  0
CIRCLE
  5
66A
330
1F
100
AcDbEntity
  8
PCB_OUTLINE
100
AcDbCircle
 10
22.14268324286475
 20
13.99977237141081
 30
0.0
 40
0.015
  0
CIRCLE
  5
66B
330
1F
100
AcDbEntity
  8
PCB_OUTLINE
100
AcDbCircle
 10
21.98268324286475
 20
14.07977237141081
 30
0.0
 40
0.015
  0
CIRCLE
  5
66C
330
1F
100
AcDbEntity
  8
PCB_OUTLINE
100
AcDbCircle
 10
21.90268324286475
 20
14.07977237141081
 30
0.0
 40
0.015
  0
CIRCLE
  5
66D
330
1F
100
AcDbEntity
  8
PCB_OUTLINE
100
AcDbCircle
 10
22.06268324286475
 20
14.07977237141081
 30
0.0
 40
0.015
  0
CIRCLE
  5
66E
330
1F
100
AcDbEntity
  8
PCB_OUTLINE
100
AcDbCircle
 10
22.14268324286475
 20
14.07977237141081
 30
0.0
 40
0.015
  0
CIRCLE
  5
66F
330
1F
100
AcDbEntity
  8
PCB_OUTLINE
100
AcDbCircle
 10
21.98268324286475
 20
14.1597723714108
 30
0.0
 40
0.015
  0
CIRCLE
  5
670
330
1F
100
AcDbEntity
  8
PCB_OUTLINE
100
AcDbCircle
 10
21.90268324286475
 20
14.1597723714108
 30
0.0
 40
0.015
  0
CIRCLE
  5
671
330
1F
100
AcDbEntity
  8
PCB_OUTLINE
100
AcDbCircle
 10
22.06268324286475
 20
14.1597723714108
 30
0.0
 40
0.015
  0
CIRCLE
  5
672
330
1F
100
AcDbEntity
  8
PCB_OUTLINE
100
AcDbCircle
 10
22.14268324286475
 20
14.1597723714108
 30
0.0
 40
0.015
  0
CIRCLE
  5
673
330
1F
100
AcDbEntity
  8
PCB_OUTLINE
100
AcDbCircle
 10
22.22268324286475
 20
13.91977237141081
 30
0.0
 40
0.015
  0
CIRCLE
  5
674
330
1F
100
AcDbEntity
  8
PCB_OUTLINE
100
AcDbCircle
 10
22.30268324286475
 20
13.91977237141081
 30
0.0
 40
0.015
  0
CIRCLE
  5
675
330
1F
100
AcDbEntity
  8
PCB_OUTLINE
100
AcDbCircle
 10
22.38268324286475
 20
13.91977237141081
 30
0.0
 40
0.015
  0
CIRCLE
  5
676
330
1F
100
AcDbEntity
  8
PCB_OUTLINE
100
AcDbCircle
 10
22.22268324286475
 20
13.99977237141081
 30
0.0
 40
0.015
  0
CIRCLE
  5
677
330
1F
100
AcDbEntity
  8
PCB_OUTLINE
100
AcDbCircle
 10
22.30268324286475
 20
13.99977237141081
 30
0.0
 40
0.015
  0
CIRCLE
  5
678
330
1F
100
AcDbEntity
  8
PCB_OUTLINE
100
AcDbCircle
 10
22.38268324286475
 20
13.99977237141081
 30
0.0
 40
0.015
  0
CIRCLE
  5
679
330
1F
100
AcDbEntity
  8
PCB_OUTLINE
100
AcDbCircle
 10
22.22268324286475
 20
14.07977237141081
 30
0.0
 40
0.015
  0
CIRCLE
  5
67A
330
1F
100
AcDbEntity
  8
PCB_OUTLINE
100
AcDbCircle
 10
22.30268324286475
 20
14.07977237141081
 30
0.0
 40
0.015
  0
CIRCLE
  5
67B
330
1F
100
AcDbEntity
  8
PCB_OUTLINE
100
AcDbCircle
 10
22.38268324286475
 20
14.07977237141081
 30
0.0
 40
0.015
  0
CIRCLE
  5
67C
330
1F
100
AcDbEntity
  8
PCB_OUTLINE
100
AcDbCircle
 10
22.22268324286475
 20
14.1597723714108
 30
0.0
 40
0.015
  0
CIRCLE
  5
67D
330
1F
100
AcDbEntity
  8
PCB_OUTLINE
100
AcDbCircle
 10
22.30268324286475
 20
14.1597723714108
 30
0.0
 40
0.015
  0
CIRCLE
  5
67E
330
1F
100
AcDbEntity
  8
PCB_OUTLINE
100
AcDbCircle
 10
22.38268324286475
 20
14.1597723714108
 30
0.0
 40
0.015
  0
CIRCLE
  5
67F
330
1F
100
AcDbEntity
  8
PCB_OUTLINE
100
AcDbCircle
 10
22.22268324286475
 20
14.23977237141081
 30
0.0
 40
0.015
  0
CIRCLE
  5
680
330
1F
100
AcDbEntity
  8
PCB_OUTLINE
100
AcDbCircle
 10
22.30268324286475
 20
14.23977237141081
 30
0.0
 40
0.015
  0
CIRCLE
  5
681
330
1F
100
AcDbEntity
  8
PCB_OUTLINE
100
AcDbCircle
 10
22.38268324286475
 20
14.23977237141081
 30
0.0
 40
0.015
  0
CIRCLE
  5
682
330
1F
100
AcDbEntity
  8
PCB_OUTLINE
100
AcDbCircle
 10
22.46268324286475
 20
13.91977237141081
 30
0.0
 40
0.015
  0
CIRCLE
  5
683
330
1F
100
AcDbEntity
  8
PCB_OUTLINE
100
AcDbCircle
 10
22.54268324286474
 20
13.91977237141081
 30
0.0
 40
0.015
  0
CIRCLE
  5
684
330
1F
100
AcDbEntity
  8
PCB_OUTLINE
100
AcDbCircle
 10
22.62268324286475
 20
13.91977237141081
 30
0.0
 40
0.015
  0
CIRCLE
  5
685
330
1F
100
AcDbEntity
  8
PCB_OUTLINE
100
AcDbCircle
 10
22.46268324286475
 20
13.99977237141081
 30
0.0
 40
0.015
  0
CIRCLE
  5
686
330
1F
100
AcDbEntity
  8
PCB_OUTLINE
100
AcDbCircle
 10
22.54268324286474
 20
13.99977237141081
 30
0.0
 40
0.015
  0
CIRCLE
  5
687
330
1F
100
AcDbEntity
  8
PCB_OUTLINE
100
AcDbCircle
 10
22.62268324286475
 20
13.99977237141081
 30
0.0
 40
0.015
  0
CIRCLE
  5
688
330
1F
100
AcDbEntity
  8
PCB_OUTLINE
100
AcDbCircle
 10
22.46268324286475
 20
14.07977237141081
 30
0.0
 40
0.015
  0
CIRCLE
  5
689
330
1F
100
AcDbEntity
  8
PCB_OUTLINE
100
AcDbCircle
 10
22.54268324286474
 20
14.07977237141081
 30
0.0
 40
0.015
  0
CIRCLE
  5
68A
330
1F
100
AcDbEntity
  8
PCB_OUTLINE
100
AcDbCircle
 10
22.62268324286475
 20
14.07977237141081
 30
0.0
 40
0.015
  0
CIRCLE
  5
68B
330
1F
100
AcDbEntity
  8
PCB_OUTLINE
100
AcDbCircle
 10
22.46268324286475
 20
14.1597723714108
 30
0.0
 40
0.015
  0
CIRCLE
  5
68C
330
1F
100
AcDbEntity
  8
PCB_OUTLINE
100
AcDbCircle
 10
22.54268324286474
 20
14.1597723714108
 30
0.0
 40
0.015
  0
CIRCLE
  5
68D
330
1F
100
AcDbEntity
  8
PCB_OUTLINE
100
AcDbCircle
 10
22.62268324286475
 20
14.1597723714108
 30
0.0
 40
0.015
  0
CIRCLE
  5
68E
330
1F
100
AcDbEntity
  8
PCB_OUTLINE
100
AcDbCircle
 10
22.46268324286475
 20
14.23977237141081
 30
0.0
 40
0.015
  0
CIRCLE
  5
68F
330
1F
100
AcDbEntity
  8
PCB_OUTLINE
100
AcDbCircle
 10
22.54268324286474
 20
14.23977237141081
 30
0.0
 40
0.015
  0
CIRCLE
  5
690
330
1F
100
AcDbEntity
  8
PCB_OUTLINE
100
AcDbCircle
 10
22.62268324286475
 20
14.23977237141081
 30
0.0
 40
0.015
  0
CIRCLE
  5
691
330
1F
100
AcDbEntity
  8
PCB_OUTLINE
100
AcDbCircle
 10
22.70268324286474
 20
13.91977237141081
 30
0.0
 40
0.015
  0
CIRCLE
  5
692
330
1F
100
AcDbEntity
  8
PCB_OUTLINE
100
AcDbCircle
 10
22.78268324286474
 20
13.91977237141081
 30
0.0
 40
0.015
  0
CIRCLE
  5
693
330
1F
100
AcDbEntity
  8
PCB_OUTLINE
100
AcDbCircle
 10
22.86268324286474
 20
13.91977237141081
 30
0.0
 40
0.015
  0
CIRCLE
  5
694
330
1F
100
AcDbEntity
  8
PCB_OUTLINE
100
AcDbCircle
 10
22.70268324286474
 20
13.99977237141081
 30
0.0
 40
0.015
  0
CIRCLE
  5
695
330
1F
100
AcDbEntity
  8
PCB_OUTLINE
100
AcDbCircle
 10
22.78268324286474
 20
13.99977237141081
 30
0.0
 40
0.015
  0
CIRCLE
  5
696
330
1F
100
AcDbEntity
  8
PCB_OUTLINE
100
AcDbCircle
 10
22.86268324286474
 20
13.99977237141081
 30
0.0
 40
0.015
  0
CIRCLE
  5
697
330
1F
100
AcDbEntity
  8
PCB_OUTLINE
100
AcDbCircle
 10
22.70268324286474
 20
14.07977237141081
 30
0.0
 40
0.015
  0
CIRCLE
  5
698
330
1F
100
AcDbEntity
  8
PCB_OUTLINE
100
AcDbCircle
 10
22.78268324286474
 20
14.07977237141081
 30
0.0
 40
0.015
  0
CIRCLE
  5
699
330
1F
100
AcDbEntity
  8
PCB_OUTLINE
100
AcDbCircle
 10
22.86268324286474
 20
14.07977237141081
 30
0.0
 40
0.015
  0
CIRCLE
  5
69A
330
1F
100
AcDbEntity
  8
PCB_OUTLINE
100
AcDbCircle
 10
22.70268324286474
 20
14.1597723714108
 30
0.0
 40
0.015
  0
CIRCLE
  5
69B
330
1F
100
AcDbEntity
  8
PCB_OUTLINE
100
AcDbCircle
 10
22.78268324286474
 20
14.1597723714108
 30
0.0
 40
0.015
  0
CIRCLE
  5
69C
330
1F
100
AcDbEntity
  8
PCB_OUTLINE
100
AcDbCircle
 10
22.86268324286474
 20
14.1597723714108
 30
0.0
 40
0.015
  0
CIRCLE
  5
69D
330
1F
100
AcDbEntity
  8
PCB_OUTLINE
100
AcDbCircle
 10
22.70268324286474
 20
14.23977237141081
 30
0.0
 40
0.015
  0
CIRCLE
  5
69E
330
1F
100
AcDbEntity
  8
PCB_OUTLINE
100
AcDbCircle
 10
22.78268324286474
 20
14.23977237141081
 30
0.0
 40
0.015
  0
CIRCLE
  5
69F
330
1F
100
AcDbEntity
  8
PCB_OUTLINE
100
AcDbCircle
 10
22.86268324286474
 20
14.23977237141081
 30
0.0
 40
0.015
  0
CIRCLE
  5
6A0
330
1F
100
AcDbEntity
  8
PCB_OUTLINE
100
AcDbCircle
 10
22.94268324286474
 20
13.91977237141081
 30
0.0
 40
0.015
  0
CIRCLE
  5
6A1
330
1F
100
AcDbEntity
  8
PCB_OUTLINE
100
AcDbCircle
 10
23.02268324286474
 20
13.91977237141081
 30
0.0
 40
0.015
  0
CIRCLE
  5
6A2
330
1F
100
AcDbEntity
  8
PCB_OUTLINE
100
AcDbCircle
 10
23.10268324286474
 20
13.91977237141081
 30
0.0
 40
0.015
  0
CIRCLE
  5
6A3
330
1F
100
AcDbEntity
  8
PCB_OUTLINE
100
AcDbCircle
 10
22.94268324286474
 20
13.99977237141081
 30
0.0
 40
0.015
  0
CIRCLE
  5
6A4
330
1F
100
AcDbEntity
  8
PCB_OUTLINE
100
AcDbCircle
 10
23.02268324286474
 20
13.99977237141081
 30
0.0
 40
0.015
  0
CIRCLE
  5
6A5
330
1F
100
AcDbEntity
  8
PCB_OUTLINE
100
AcDbCircle
 10
23.10268324286474
 20
13.99977237141081
 30
0.0
 40
0.015
  0
CIRCLE
  5
6A6
330
1F
100
AcDbEntity
  8
PCB_OUTLINE
100
AcDbCircle
 10
22.94268324286474
 20
14.07977237141081
 30
0.0
 40
0.015
  0
CIRCLE
  5
6A7
330
1F
100
AcDbEntity
  8
PCB_OUTLINE
100
AcDbCircle
 10
23.02268324286474
 20
14.07977237141081
 30
0.0
 40
0.015
  0
CIRCLE
  5
6A8
330
1F
100
AcDbEntity
  8
PCB_OUTLINE
100
AcDbCircle
 10
23.10268324286474
 20
14.07977237141081
 30
0.0
 40
0.015
  0
CIRCLE
  5
6A9
330
1F
100
AcDbEntity
  8
PCB_OUTLINE
100
AcDbCircle
 10
22.94268324286474
 20
14.1597723714108
 30
0.0
 40
0.015
  0
CIRCLE
  5
6AA
330
1F
100
AcDbEntity
  8
PCB_OUTLINE
100
AcDbCircle
 10
23.02268324286474
 20
14.1597723714108
 30
0.0
 40
0.015
  0
CIRCLE
  5
6AB
330
1F
100
AcDbEntity
  8
PCB_OUTLINE
100
AcDbCircle
 10
23.10268324286474
 20
14.1597723714108
 30
0.0
 40
0.015
  0
CIRCLE
  5
6AC
330
1F
100
AcDbEntity
  8
PCB_OUTLINE
100
AcDbCircle
 10
22.94268324286474
 20
14.23977237141081
 30
0.0
 40
0.015
  0
CIRCLE
  5
6AD
330
1F
100
AcDbEntity
  8
PCB_OUTLINE
100
AcDbCircle
 10
23.02268324286474
 20
14.23977237141081
 30
0.0
 40
0.015
  0
CIRCLE
  5
6AE
330
1F
100
AcDbEntity
  8
PCB_OUTLINE
100
AcDbCircle
 10
23.10268324286474
 20
14.23977237141081
 30
0.0
 40
0.015
  0
CIRCLE
  5
6AF
330
1F
100
AcDbEntity
  8
PCB_OUTLINE
100
AcDbCircle
 10
23.18268324286474
 20
13.91977237141081
 30
0.0
 40
0.015
  0
CIRCLE
  5
6B0
330
1F
100
AcDbEntity
  8
PCB_OUTLINE
100
AcDbCircle
 10
23.26268324286474
 20
13.91977237141081
 30
0.0
 40
0.015
  0
CIRCLE
  5
6B1
330
1F
100
AcDbEntity
  8
PCB_OUTLINE
100
AcDbCircle
 10
23.34268324286474
 20
13.91977237141081
 30
0.0
 40
0.015
  0
CIRCLE
  5
6B2
330
1F
100
AcDbEntity
  8
PCB_OUTLINE
100
AcDbCircle
 10
23.18268324286474
 20
13.99977237141081
 30
0.0
 40
0.015
  0
CIRCLE
  5
6B3
330
1F
100
AcDbEntity
  8
PCB_OUTLINE
100
AcDbCircle
 10
23.26268324286474
 20
13.99977237141081
 30
0.0
 40
0.015
  0
CIRCLE
  5
6B4
330
1F
100
AcDbEntity
  8
PCB_OUTLINE
100
AcDbCircle
 10
23.34268324286474
 20
13.99977237141081
 30
0.0
 40
0.015
  0
CIRCLE
  5
6B5
330
1F
100
AcDbEntity
  8
PCB_OUTLINE
100
AcDbCircle
 10
23.18268324286474
 20
14.07977237141081
 30
0.0
 40
0.015
  0
CIRCLE
  5
6B6
330
1F
100
AcDbEntity
  8
PCB_OUTLINE
100
AcDbCircle
 10
23.26268324286474
 20
14.07977237141081
 30
0.0
 40
0.015
  0
CIRCLE
  5
6B7
330
1F
100
AcDbEntity
  8
PCB_OUTLINE
100
AcDbCircle
 10
23.34268324286474
 20
14.07977237141081
 30
0.0
 40
0.015
  0
CIRCLE
  5
6B8
330
1F
100
AcDbEntity
  8
PCB_OUTLINE
100
AcDbCircle
 10
23.18268324286474
 20
14.1597723714108
 30
0.0
 40
0.015
  0
CIRCLE
  5
6B9
330
1F
100
AcDbEntity
  8
PCB_OUTLINE
100
AcDbCircle
 10
23.26268324286474
 20
14.1597723714108
 30
0.0
 40
0.015
  0
CIRCLE
  5
6BA
330
1F
100
AcDbEntity
  8
PCB_OUTLINE
100
AcDbCircle
 10
23.34268324286474
 20
14.1597723714108
 30
0.0
 40
0.015
  0
CIRCLE
  5
6BB
330
1F
100
AcDbEntity
  8
PCB_OUTLINE
100
AcDbCircle
 10
23.18268324286474
 20
14.23977237141081
 30
0.0
 40
0.015
  0
CIRCLE
  5
6BC
330
1F
100
AcDbEntity
  8
PCB_OUTLINE
100
AcDbCircle
 10
23.26268324286474
 20
14.23977237141081
 30
0.0
 40
0.015
  0
CIRCLE
  5
6BD
330
1F
100
AcDbEntity
  8
PCB_OUTLINE
100
AcDbCircle
 10
23.34268324286474
 20
14.23977237141081
 30
0.0
 40
0.015
  0
CIRCLE
  5
6BE
330
1F
100
AcDbEntity
  8
PCB_OUTLINE
100
AcDbCircle
 10
23.42268324286474
 20
13.91977237141081
 30
0.0
 40
0.015
  0
CIRCLE
  5
6BF
330
1F
100
AcDbEntity
  8
PCB_OUTLINE
100
AcDbCircle
 10
23.42268324286474
 20
13.99977237141081
 30
0.0
 40
0.015
  0
CIRCLE
  5
6C0
330
1F
100
AcDbEntity
  8
PCB_OUTLINE
100
AcDbCircle
 10
23.42268324286474
 20
14.07977237141081
 30
0.0
 40
0.015
  0
CIRCLE
  5
6C1
330
1F
100
AcDbEntity
  8
PCB_OUTLINE
100
AcDbCircle
 10
23.42268324286474
 20
14.1597723714108
 30
0.0
 40
0.015
  0
CIRCLE
  5
6C2
330
1F
100
AcDbEntity
  8
PCB_OUTLINE
100
AcDbCircle
 10
23.42268324286474
 20
14.23977237141081
 30
0.0
 40
0.015
  0
CIRCLE
  5
6C3
330
1F
100
AcDbEntity
  8
PCB_OUTLINE
100
AcDbCircle
 10
21.98268324286475
 20
13.51977237141081
 30
0.0
 40
0.015
  0
CIRCLE
  5
6C4
330
1F
100
AcDbEntity
  8
PCB_OUTLINE
100
AcDbCircle
 10
21.90268324286475
 20
13.51977237141081
 30
0.0
 40
0.015
  0
CIRCLE
  5
6C5
330
1F
100
AcDbEntity
  8
PCB_OUTLINE
100
AcDbCircle
 10
22.06268324286475
 20
13.51977237141081
 30
0.0
 40
0.015
  0
CIRCLE
  5
6C6
330
1F
100
AcDbEntity
  8
PCB_OUTLINE
100
AcDbCircle
 10
22.14268324286475
 20
13.51977237141081
 30
0.0
 40
0.015
  0
CIRCLE
  5
6C7
330
1F
100
AcDbEntity
  8
PCB_OUTLINE
100
AcDbCircle
 10
21.98268324286475
 20
13.5997723714108
 30
0.0
 40
0.015
  0
CIRCLE
  5
6C8
330
1F
100
AcDbEntity
  8
PCB_OUTLINE
100
AcDbCircle
 10
21.90268324286475
 20
13.5997723714108
 30
0.0
 40
0.015
  0
CIRCLE
  5
6C9
330
1F
100
AcDbEntity
  8
PCB_OUTLINE
100
AcDbCircle
 10
22.06268324286475
 20
13.5997723714108
 30
0.0
 40
0.015
  0
CIRCLE
  5
6CA
330
1F
100
AcDbEntity
  8
PCB_OUTLINE
100
AcDbCircle
 10
22.14268324286475
 20
13.5997723714108
 30
0.0
 40
0.015
  0
CIRCLE
  5
6CB
330
1F
100
AcDbEntity
  8
PCB_OUTLINE
100
AcDbCircle
 10
21.98268324286475
 20
13.67977237141081
 30
0.0
 40
0.015
  0
CIRCLE
  5
6CC
330
1F
100
AcDbEntity
  8
PCB_OUTLINE
100
AcDbCircle
 10
21.90268324286475
 20
13.67977237141081
 30
0.0
 40
0.015
  0
CIRCLE
  5
6CD
330
1F
100
AcDbEntity
  8
PCB_OUTLINE
100
AcDbCircle
 10
22.06268324286475
 20
13.67977237141081
 30
0.0
 40
0.015
  0
CIRCLE
  5
6CE
330
1F
100
AcDbEntity
  8
PCB_OUTLINE
100
AcDbCircle
 10
22.14268324286475
 20
13.67977237141081
 30
0.0
 40
0.015
  0
CIRCLE
  5
6CF
330
1F
100
AcDbEntity
  8
PCB_OUTLINE
100
AcDbCircle
 10
21.98268324286475
 20
13.7597723714108
 30
0.0
 40
0.015
  0
CIRCLE
  5
6D0
330
1F
100
AcDbEntity
  8
PCB_OUTLINE
100
AcDbCircle
 10
21.90268324286475
 20
13.7597723714108
 30
0.0
 40
0.015
  0
CIRCLE
  5
6D1
330
1F
100
AcDbEntity
  8
PCB_OUTLINE
100
AcDbCircle
 10
22.06268324286475
 20
13.7597723714108
 30
0.0
 40
0.015
  0
CIRCLE
  5
6D2
330
1F
100
AcDbEntity
  8
PCB_OUTLINE
100
AcDbCircle
 10
22.14268324286475
 20
13.7597723714108
 30
0.0
 40
0.015
  0
CIRCLE
  5
6D3
330
1F
100
AcDbEntity
  8
PCB_OUTLINE
100
AcDbCircle
 10
21.98268324286475
 20
13.8397723714108
 30
0.0
 40
0.015
  0
CIRCLE
  5
6D4
330
1F
100
AcDbEntity
  8
PCB_OUTLINE
100
AcDbCircle
 10
21.90268324286475
 20
13.8397723714108
 30
0.0
 40
0.015
  0
CIRCLE
  5
6D5
330
1F
100
AcDbEntity
  8
PCB_OUTLINE
100
AcDbCircle
 10
22.06268324286475
 20
13.8397723714108
 30
0.0
 40
0.015
  0
CIRCLE
  5
6D6
330
1F
100
AcDbEntity
  8
PCB_OUTLINE
100
AcDbCircle
 10
22.14268324286475
 20
13.8397723714108
 30
0.0
 40
0.015
  0
CIRCLE
  5
6D7
330
1F
100
AcDbEntity
  8
PCB_OUTLINE
100
AcDbCircle
 10
22.22268324286475
 20
13.51977237141081
 30
0.0
 40
0.015
  0
CIRCLE
  5
6D8
330
1F
100
AcDbEntity
  8
PCB_OUTLINE
100
AcDbCircle
 10
22.30268324286475
 20
13.51977237141081
 30
0.0
 40
0.015
  0
CIRCLE
  5
6D9
330
1F
100
AcDbEntity
  8
PCB_OUTLINE
100
AcDbCircle
 10
22.38268324286475
 20
13.51977237141081
 30
0.0
 40
0.015
  0
CIRCLE
  5
6DA
330
1F
100
AcDbEntity
  8
PCB_OUTLINE
100
AcDbCircle
 10
22.22268324286475
 20
13.5997723714108
 30
0.0
 40
0.015
  0
CIRCLE
  5
6DB
330
1F
100
AcDbEntity
  8
PCB_OUTLINE
100
AcDbCircle
 10
22.30268324286475
 20
13.5997723714108
 30
0.0
 40
0.015
  0
CIRCLE
  5
6DC
330
1F
100
AcDbEntity
  8
PCB_OUTLINE
100
AcDbCircle
 10
22.38268324286475
 20
13.5997723714108
 30
0.0
 40
0.015
  0
CIRCLE
  5
6DD
330
1F
100
AcDbEntity
  8
PCB_OUTLINE
100
AcDbCircle
 10
22.22268324286475
 20
13.67977237141081
 30
0.0
 40
0.015
  0
CIRCLE
  5
6DE
330
1F
100
AcDbEntity
  8
PCB_OUTLINE
100
AcDbCircle
 10
22.30268324286475
 20
13.67977237141081
 30
0.0
 40
0.015
  0
CIRCLE
  5
6DF
330
1F
100
AcDbEntity
  8
PCB_OUTLINE
100
AcDbCircle
 10
22.38268324286475
 20
13.67977237141081
 30
0.0
 40
0.015
  0
CIRCLE
  5
6E0
330
1F
100
AcDbEntity
  8
PCB_OUTLINE
100
AcDbCircle
 10
22.22268324286475
 20
13.7597723714108
 30
0.0
 40
0.015
  0
CIRCLE
  5
6E1
330
1F
100
AcDbEntity
  8
PCB_OUTLINE
100
AcDbCircle
 10
22.30268324286475
 20
13.7597723714108
 30
0.0
 40
0.015
  0
CIRCLE
  5
6E2
330
1F
100
AcDbEntity
  8
PCB_OUTLINE
100
AcDbCircle
 10
22.38268324286475
 20
13.7597723714108
 30
0.0
 40
0.015
  0
CIRCLE
  5
6E3
330
1F
100
AcDbEntity
  8
PCB_OUTLINE
100
AcDbCircle
 10
22.22268324286475
 20
13.8397723714108
 30
0.0
 40
0.015
  0
CIRCLE
  5
6E4
330
1F
100
AcDbEntity
  8
PCB_OUTLINE
100
AcDbCircle
 10
22.30268324286475
 20
13.8397723714108
 30
0.0
 40
0.015
  0
CIRCLE
  5
6E5
330
1F
100
AcDbEntity
  8
PCB_OUTLINE
100
AcDbCircle
 10
22.38268324286475
 20
13.8397723714108
 30
0.0
 40
0.015
  0
CIRCLE
  5
6E6
330
1F
100
AcDbEntity
  8
PCB_OUTLINE
100
AcDbCircle
 10
22.46268324286475
 20
13.51977237141081
 30
0.0
 40
0.015
  0
CIRCLE
  5
6E7
330
1F
100
AcDbEntity
  8
PCB_OUTLINE
100
AcDbCircle
 10
22.54268324286474
 20
13.51977237141081
 30
0.0
 40
0.015
  0
CIRCLE
  5
6E8
330
1F
100
AcDbEntity
  8
PCB_OUTLINE
100
AcDbCircle
 10
22.62268324286475
 20
13.51977237141081
 30
0.0
 40
0.015
  0
CIRCLE
  5
6E9
330
1F
100
AcDbEntity
  8
PCB_OUTLINE
100
AcDbCircle
 10
22.46268324286475
 20
13.5997723714108
 30
0.0
 40
0.015
  0
CIRCLE
  5
6EA
330
1F
100
AcDbEntity
  8
PCB_OUTLINE
100
AcDbCircle
 10
22.54268324286474
 20
13.5997723714108
 30
0.0
 40
0.015
  0
CIRCLE
  5
6EB
330
1F
100
AcDbEntity
  8
PCB_OUTLINE
100
AcDbCircle
 10
22.62268324286475
 20
13.5997723714108
 30
0.0
 40
0.015
  0
CIRCLE
  5
6EC
330
1F
100
AcDbEntity
  8
PCB_OUTLINE
100
AcDbCircle
 10
22.46268324286475
 20
13.67977237141081
 30
0.0
 40
0.015
  0
CIRCLE
  5
6ED
330
1F
100
AcDbEntity
  8
PCB_OUTLINE
100
AcDbCircle
 10
22.54268324286474
 20
13.67977237141081
 30
0.0
 40
0.015
  0
CIRCLE
  5
6EE
330
1F
100
AcDbEntity
  8
PCB_OUTLINE
100
AcDbCircle
 10
22.62268324286475
 20
13.67977237141081
 30
0.0
 40
0.015
  0
CIRCLE
  5
6EF
330
1F
100
AcDbEntity
  8
PCB_OUTLINE
100
AcDbCircle
 10
22.46268324286475
 20
13.7597723714108
 30
0.0
 40
0.015
  0
CIRCLE
  5
6F0
330
1F
100
AcDbEntity
  8
PCB_OUTLINE
100
AcDbCircle
 10
22.54268324286474
 20
13.7597723714108
 30
0.0
 40
0.015
  0
CIRCLE
  5
6F1
330
1F
100
AcDbEntity
  8
PCB_OUTLINE
100
AcDbCircle
 10
22.62268324286475
 20
13.7597723714108
 30
0.0
 40
0.015
  0
CIRCLE
  5
6F2
330
1F
100
AcDbEntity
  8
PCB_OUTLINE
100
AcDbCircle
 10
22.46268324286475
 20
13.8397723714108
 30
0.0
 40
0.015
  0
CIRCLE
  5
6F3
330
1F
100
AcDbEntity
  8
PCB_OUTLINE
100
AcDbCircle
 10
22.54268324286474
 20
13.8397723714108
 30
0.0
 40
0.015
  0
CIRCLE
  5
6F4
330
1F
100
AcDbEntity
  8
PCB_OUTLINE
100
AcDbCircle
 10
22.62268324286475
 20
13.8397723714108
 30
0.0
 40
0.015
  0
CIRCLE
  5
6F5
330
1F
100
AcDbEntity
  8
PCB_OUTLINE
100
AcDbCircle
 10
22.70268324286474
 20
13.51977237141081
 30
0.0
 40
0.015
  0
CIRCLE
  5
6F6
330
1F
100
AcDbEntity
  8
PCB_OUTLINE
100
AcDbCircle
 10
22.78268324286474
 20
13.51977237141081
 30
0.0
 40
0.015
  0
CIRCLE
  5
6F7
330
1F
100
AcDbEntity
  8
PCB_OUTLINE
100
AcDbCircle
 10
22.86268324286474
 20
13.51977237141081
 30
0.0
 40
0.015
  0
CIRCLE
  5
6F8
330
1F
100
AcDbEntity
  8
PCB_OUTLINE
100
AcDbCircle
 10
22.70268324286474
 20
13.5997723714108
 30
0.0
 40
0.015
  0
CIRCLE
  5
6F9
330
1F
100
AcDbEntity
  8
PCB_OUTLINE
100
AcDbCircle
 10
22.78268324286474
 20
13.5997723714108
 30
0.0
 40
0.015
  0
CIRCLE
  5
6FA
330
1F
100
AcDbEntity
  8
PCB_OUTLINE
100
AcDbCircle
 10
22.86268324286474
 20
13.5997723714108
 30
0.0
 40
0.015
  0
CIRCLE
  5
6FB
330
1F
100
AcDbEntity
  8
PCB_OUTLINE
100
AcDbCircle
 10
22.70268324286474
 20
13.67977237141081
 30
0.0
 40
0.015
  0
CIRCLE
  5
6FC
330
1F
100
AcDbEntity
  8
PCB_OUTLINE
100
AcDbCircle
 10
22.78268324286474
 20
13.67977237141081
 30
0.0
 40
0.015
  0
CIRCLE
  5
6FD
330
1F
100
AcDbEntity
  8
PCB_OUTLINE
100
AcDbCircle
 10
22.86268324286474
 20
13.67977237141081
 30
0.0
 40
0.015
  0
CIRCLE
  5
6FE
330
1F
100
AcDbEntity
  8
PCB_OUTLINE
100
AcDbCircle
 10
22.70268324286474
 20
13.7597723714108
 30
0.0
 40
0.015
  0
CIRCLE
  5
6FF
330
1F
100
AcDbEntity
  8
PCB_OUTLINE
100
AcDbCircle
 10
22.78268324286474
 20
13.7597723714108
 30
0.0
 40
0.015
  0
CIRCLE
  5
700
330
1F
100
AcDbEntity
  8
PCB_OUTLINE
100
AcDbCircle
 10
22.86268324286474
 20
13.7597723714108
 30
0.0
 40
0.015
  0
CIRCLE
  5
701
330
1F
100
AcDbEntity
  8
PCB_OUTLINE
100
AcDbCircle
 10
22.70268324286474
 20
13.8397723714108
 30
0.0
 40
0.015
  0
CIRCLE
  5
702
330
1F
100
AcDbEntity
  8
PCB_OUTLINE
100
AcDbCircle
 10
22.78268324286474
 20
13.8397723714108
 30
0.0
 40
0.015
  0
CIRCLE
  5
703
330
1F
100
AcDbEntity
  8
PCB_OUTLINE
100
AcDbCircle
 10
22.86268324286474
 20
13.8397723714108
 30
0.0
 40
0.015
  0
CIRCLE
  5
704
330
1F
100
AcDbEntity
  8
PCB_OUTLINE
100
AcDbCircle
 10
22.94268324286474
 20
13.51977237141081
 30
0.0
 40
0.015
  0
CIRCLE
  5
705
330
1F
100
AcDbEntity
  8
PCB_OUTLINE
100
AcDbCircle
 10
23.02268324286474
 20
13.51977237141081
 30
0.0
 40
0.015
  0
CIRCLE
  5
706
330
1F
100
AcDbEntity
  8
PCB_OUTLINE
100
AcDbCircle
 10
23.10268324286474
 20
13.51977237141081
 30
0.0
 40
0.015
  0
CIRCLE
  5
707
330
1F
100
AcDbEntity
  8
PCB_OUTLINE
100
AcDbCircle
 10
22.94268324286474
 20
13.5997723714108
 30
0.0
 40
0.015
  0
CIRCLE
  5
708
330
1F
100
AcDbEntity
  8
PCB_OUTLINE
100
AcDbCircle
 10
23.02268324286474
 20
13.5997723714108
 30
0.0
 40
0.015
  0
CIRCLE
  5
709
330
1F
100
AcDbEntity
  8
PCB_OUTLINE
100
AcDbCircle
 10
23.10268324286474
 20
13.5997723714108
 30
0.0
 40
0.015
  0
CIRCLE
  5
70A
330
1F
100
AcDbEntity
  8
PCB_OUTLINE
100
AcDbCircle
 10
22.94268324286474
 20
13.67977237141081
 30
0.0
 40
0.015
  0
CIRCLE
  5
70B
330
1F
100
AcDbEntity
  8
PCB_OUTLINE
100
AcDbCircle
 10
23.02268324286474
 20
13.67977237141081
 30
0.0
 40
0.015
  0
CIRCLE
  5
70C
330
1F
100
AcDbEntity
  8
PCB_OUTLINE
100
AcDbCircle
 10
23.10268324286474
 20
13.67977237141081
 30
0.0
 40
0.015
  0
CIRCLE
  5
70D
330
1F
100
AcDbEntity
  8
PCB_OUTLINE
100
AcDbCircle
 10
22.94268324286474
 20
13.7597723714108
 30
0.0
 40
0.015
  0
CIRCLE
  5
70E
330
1F
100
AcDbEntity
  8
PCB_OUTLINE
100
AcDbCircle
 10
23.02268324286474
 20
13.7597723714108
 30
0.0
 40
0.015
  0
CIRCLE
  5
70F
330
1F
100
AcDbEntity
  8
PCB_OUTLINE
100
AcDbCircle
 10
23.10268324286474
 20
13.7597723714108
 30
0.0
 40
0.015
  0
CIRCLE
  5
710
330
1F
100
AcDbEntity
  8
PCB_OUTLINE
100
AcDbCircle
 10
22.94268324286474
 20
13.8397723714108
 30
0.0
 40
0.015
  0
CIRCLE
  5
711
330
1F
100
AcDbEntity
  8
PCB_OUTLINE
100
AcDbCircle
 10
23.02268324286474
 20
13.8397723714108
 30
0.0
 40
0.015
  0
CIRCLE
  5
712
330
1F
100
AcDbEntity
  8
PCB_OUTLINE
100
AcDbCircle
 10
23.10268324286474
 20
13.8397723714108
 30
0.0
 40
0.015
  0
CIRCLE
  5
713
330
1F
100
AcDbEntity
  8
PCB_OUTLINE
100
AcDbCircle
 10
23.18268324286474
 20
13.51977237141081
 30
0.0
 40
0.015
  0
CIRCLE
  5
714
330
1F
100
AcDbEntity
  8
PCB_OUTLINE
100
AcDbCircle
 10
23.26268324286474
 20
13.51977237141081
 30
0.0
 40
0.015
  0
CIRCLE
  5
715
330
1F
100
AcDbEntity
  8
PCB_OUTLINE
100
AcDbCircle
 10
23.34268324286474
 20
13.51977237141081
 30
0.0
 40
0.015
  0
CIRCLE
  5
716
330
1F
100
AcDbEntity
  8
PCB_OUTLINE
100
AcDbCircle
 10
23.18268324286474
 20
13.7597723714108
 30
0.0
 40
0.015
  0
CIRCLE
  5
717
330
1F
100
AcDbEntity
  8
PCB_OUTLINE
100
AcDbCircle
 10
23.26268324286474
 20
13.7597723714108
 30
0.0
 40
0.015
  0
CIRCLE
  5
718
330
1F
100
AcDbEntity
  8
PCB_OUTLINE
100
AcDbCircle
 10
23.34268324286474
 20
13.7597723714108
 30
0.0
 40
0.015
  0
CIRCLE
  5
719
330
1F
100
AcDbEntity
  8
PCB_OUTLINE
100
AcDbCircle
 10
23.18268324286474
 20
13.8397723714108
 30
0.0
 40
0.015
  0
CIRCLE
  5
71A
330
1F
100
AcDbEntity
  8
PCB_OUTLINE
100
AcDbCircle
 10
23.26268324286474
 20
13.8397723714108
 30
0.0
 40
0.015
  0
CIRCLE
  5
71B
330
1F
100
AcDbEntity
  8
PCB_OUTLINE
100
AcDbCircle
 10
23.34268324286474
 20
13.8397723714108
 30
0.0
 40
0.015
  0
CIRCLE
  5
71C
330
1F
100
AcDbEntity
  8
PCB_OUTLINE
100
AcDbCircle
 10
23.42268324286474
 20
13.51977237141081
 30
0.0
 40
0.015
  0
CIRCLE
  5
71D
330
1F
100
AcDbEntity
  8
PCB_OUTLINE
100
AcDbCircle
 10
23.42268324286474
 20
13.7597723714108
 30
0.0
 40
0.015
  0
CIRCLE
  5
71E
330
1F
100
AcDbEntity
  8
PCB_OUTLINE
100
AcDbCircle
 10
23.42268324286474
 20
13.8397723714108
 30
0.0
 40
0.015
  0
CIRCLE
  5
71F
330
1F
100
AcDbEntity
  8
PCB_OUTLINE
100
AcDbCircle
 10
21.98268324286475
 20
13.19977237141081
 30
0.0
 40
0.015
  0
CIRCLE
  5
720
330
1F
100
AcDbEntity
  8
PCB_OUTLINE
100
AcDbCircle
 10
21.90268324286475
 20
13.19977237141081
 30
0.0
 40
0.015
  0
CIRCLE
  5
721
330
1F
100
AcDbEntity
  8
PCB_OUTLINE
100
AcDbCircle
 10
22.06268324286475
 20
13.19977237141081
 30
0.0
 40
0.015
  0
CIRCLE
  5
722
330
1F
100
AcDbEntity
  8
PCB_OUTLINE
100
AcDbCircle
 10
22.14268324286475
 20
13.19977237141081
 30
0.0
 40
0.015
  0
CIRCLE
  5
723
330
1F
100
AcDbEntity
  8
PCB_OUTLINE
100
AcDbCircle
 10
21.98268324286475
 20
13.2797723714108
 30
0.0
 40
0.015
  0
CIRCLE
  5
724
330
1F
100
AcDbEntity
  8
PCB_OUTLINE
100
AcDbCircle
 10
21.90268324286475
 20
13.2797723714108
 30
0.0
 40
0.015
  0
CIRCLE
  5
725
330
1F
100
AcDbEntity
  8
PCB_OUTLINE
100
AcDbCircle
 10
22.06268324286475
 20
13.2797723714108
 30
0.0
 40
0.015
  0
CIRCLE
  5
726
330
1F
100
AcDbEntity
  8
PCB_OUTLINE
100
AcDbCircle
 10
22.14268324286475
 20
13.2797723714108
 30
0.0
 40
0.015
  0
CIRCLE
  5
727
330
1F
100
AcDbEntity
  8
PCB_OUTLINE
100
AcDbCircle
 10
21.98268324286475
 20
13.35977237141081
 30
0.0
 40
0.015
  0
CIRCLE
  5
728
330
1F
100
AcDbEntity
  8
PCB_OUTLINE
100
AcDbCircle
 10
21.90268324286475
 20
13.35977237141081
 30
0.0
 40
0.015
  0
CIRCLE
  5
729
330
1F
100
AcDbEntity
  8
PCB_OUTLINE
100
AcDbCircle
 10
22.06268324286475
 20
13.35977237141081
 30
0.0
 40
0.015
  0
CIRCLE
  5
72A
330
1F
100
AcDbEntity
  8
PCB_OUTLINE
100
AcDbCircle
 10
22.14268324286475
 20
13.35977237141081
 30
0.0
 40
0.015
  0
CIRCLE
  5
72B
330
1F
100
AcDbEntity
  8
PCB_OUTLINE
100
AcDbCircle
 10
21.98268324286475
 20
13.4397723714108
 30
0.0
 40
0.015
  0
CIRCLE
  5
72C
330
1F
100
AcDbEntity
  8
PCB_OUTLINE
100
AcDbCircle
 10
21.90268324286475
 20
13.4397723714108
 30
0.0
 40
0.015
  0
CIRCLE
  5
72D
330
1F
100
AcDbEntity
  8
PCB_OUTLINE
100
AcDbCircle
 10
22.06268324286475
 20
13.4397723714108
 30
0.0
 40
0.015
  0
CIRCLE
  5
72E
330
1F
100
AcDbEntity
  8
PCB_OUTLINE
100
AcDbCircle
 10
22.14268324286475
 20
13.4397723714108
 30
0.0
 40
0.015
  0
CIRCLE
  5
72F
330
1F
100
AcDbEntity
  8
PCB_OUTLINE
100
AcDbCircle
 10
22.22268324286475
 20
13.19977237141081
 30
0.0
 40
0.015
  0
CIRCLE
  5
730
330
1F
100
AcDbEntity
  8
PCB_OUTLINE
100
AcDbCircle
 10
22.30268324286475
 20
13.19977237141081
 30
0.0
 40
0.015
  0
CIRCLE
  5
731
330
1F
100
AcDbEntity
  8
PCB_OUTLINE
100
AcDbCircle
 10
22.38268324286475
 20
13.19977237141081
 30
0.0
 40
0.015
  0
CIRCLE
  5
732
330
1F
100
AcDbEntity
  8
PCB_OUTLINE
100
AcDbCircle
 10
22.22268324286475
 20
13.2797723714108
 30
0.0
 40
0.015
  0
CIRCLE
  5
733
330
1F
100
AcDbEntity
  8
PCB_OUTLINE
100
AcDbCircle
 10
22.30268324286475
 20
13.2797723714108
 30
0.0
 40
0.015
  0
CIRCLE
  5
734
330
1F
100
AcDbEntity
  8
PCB_OUTLINE
100
AcDbCircle
 10
22.38268324286475
 20
13.2797723714108
 30
0.0
 40
0.015
  0
CIRCLE
  5
735
330
1F
100
AcDbEntity
  8
PCB_OUTLINE
100
AcDbCircle
 10
22.22268324286475
 20
13.35977237141081
 30
0.0
 40
0.015
  0
CIRCLE
  5
736
330
1F
100
AcDbEntity
  8
PCB_OUTLINE
100
AcDbCircle
 10
22.30268324286475
 20
13.35977237141081
 30
0.0
 40
0.015
  0
CIRCLE
  5
737
330
1F
100
AcDbEntity
  8
PCB_OUTLINE
100
AcDbCircle
 10
22.38268324286475
 20
13.35977237141081
 30
0.0
 40
0.015
  0
CIRCLE
  5
738
330
1F
100
AcDbEntity
  8
PCB_OUTLINE
100
AcDbCircle
 10
22.22268324286475
 20
13.4397723714108
 30
0.0
 40
0.015
  0
CIRCLE
  5
739
330
1F
100
AcDbEntity
  8
PCB_OUTLINE
100
AcDbCircle
 10
22.30268324286475
 20
13.4397723714108
 30
0.0
 40
0.015
  0
CIRCLE
  5
73A
330
1F
100
AcDbEntity
  8
PCB_OUTLINE
100
AcDbCircle
 10
22.38268324286475
 20
13.4397723714108
 30
0.0
 40
0.015
  0
CIRCLE
  5
73B
330
1F
100
AcDbEntity
  8
PCB_OUTLINE
100
AcDbCircle
 10
22.46268324286475
 20
13.19977237141081
 30
0.0
 40
0.015
  0
CIRCLE
  5
73C
330
1F
100
AcDbEntity
  8
PCB_OUTLINE
100
AcDbCircle
 10
22.54268324286474
 20
13.19977237141081
 30
0.0
 40
0.015
  0
CIRCLE
  5
73D
330
1F
100
AcDbEntity
  8
PCB_OUTLINE
100
AcDbCircle
 10
22.62268324286475
 20
13.19977237141081
 30
0.0
 40
0.015
  0
CIRCLE
  5
73E
330
1F
100
AcDbEntity
  8
PCB_OUTLINE
100
AcDbCircle
 10
22.46268324286475
 20
13.2797723714108
 30
0.0
 40
0.015
  0
CIRCLE
  5
73F
330
1F
100
AcDbEntity
  8
PCB_OUTLINE
100
AcDbCircle
 10
22.54268324286474
 20
13.2797723714108
 30
0.0
 40
0.015
  0
CIRCLE
  5
740
330
1F
100
AcDbEntity
  8
PCB_OUTLINE
100
AcDbCircle
 10
22.62268324286475
 20
13.2797723714108
 30
0.0
 40
0.015
  0
CIRCLE
  5
741
330
1F
100
AcDbEntity
  8
PCB_OUTLINE
100
AcDbCircle
 10
22.46268324286475
 20
13.35977237141081
 30
0.0
 40
0.015
  0
CIRCLE
  5
742
330
1F
100
AcDbEntity
  8
PCB_OUTLINE
100
AcDbCircle
 10
22.54268324286474
 20
13.35977237141081
 30
0.0
 40
0.015
  0
CIRCLE
  5
743
330
1F
100
AcDbEntity
  8
PCB_OUTLINE
100
AcDbCircle
 10
22.62268324286475
 20
13.35977237141081
 30
0.0
 40
0.015
  0
CIRCLE
  5
744
330
1F
100
AcDbEntity
  8
PCB_OUTLINE
100
AcDbCircle
 10
22.46268324286475
 20
13.4397723714108
 30
0.0
 40
0.015
  0
CIRCLE
  5
745
330
1F
100
AcDbEntity
  8
PCB_OUTLINE
100
AcDbCircle
 10
22.54268324286474
 20
13.4397723714108
 30
0.0
 40
0.015
  0
CIRCLE
  5
746
330
1F
100
AcDbEntity
  8
PCB_OUTLINE
100
AcDbCircle
 10
22.62268324286475
 20
13.4397723714108
 30
0.0
 40
0.015
  0
CIRCLE
  5
747
330
1F
100
AcDbEntity
  8
PCB_OUTLINE
100
AcDbCircle
 10
22.70268324286474
 20
13.19977237141081
 30
0.0
 40
0.015
  0
CIRCLE
  5
748
330
1F
100
AcDbEntity
  8
PCB_OUTLINE
100
AcDbCircle
 10
22.78268324286474
 20
13.19977237141081
 30
0.0
 40
0.015
  0
CIRCLE
  5
749
330
1F
100
AcDbEntity
  8
PCB_OUTLINE
100
AcDbCircle
 10
22.86268324286474
 20
13.19977237141081
 30
0.0
 40
0.015
  0
CIRCLE
  5
74A
330
1F
100
AcDbEntity
  8
PCB_OUTLINE
100
AcDbCircle
 10
22.70268324286474
 20
13.2797723714108
 30
0.0
 40
0.015
  0
CIRCLE
  5
74B
330
1F
100
AcDbEntity
  8
PCB_OUTLINE
100
AcDbCircle
 10
22.78268324286474
 20
13.2797723714108
 30
0.0
 40
0.015
  0
CIRCLE
  5
74C
330
1F
100
AcDbEntity
  8
PCB_OUTLINE
100
AcDbCircle
 10
22.86268324286474
 20
13.2797723714108
 30
0.0
 40
0.015
  0
CIRCLE
  5
74D
330
1F
100
AcDbEntity
  8
PCB_OUTLINE
100
AcDbCircle
 10
22.70268324286474
 20
13.35977237141081
 30
0.0
 40
0.015
  0
CIRCLE
  5
74E
330
1F
100
AcDbEntity
  8
PCB_OUTLINE
100
AcDbCircle
 10
22.78268324286474
 20
13.35977237141081
 30
0.0
 40
0.015
  0
CIRCLE
  5
74F
330
1F
100
AcDbEntity
  8
PCB_OUTLINE
100
AcDbCircle
 10
22.86268324286474
 20
13.35977237141081
 30
0.0
 40
0.015
  0
CIRCLE
  5
750
330
1F
100
AcDbEntity
  8
PCB_OUTLINE
100
AcDbCircle
 10
22.70268324286474
 20
13.4397723714108
 30
0.0
 40
0.015
  0
CIRCLE
  5
751
330
1F
100
AcDbEntity
  8
PCB_OUTLINE
100
AcDbCircle
 10
22.78268324286474
 20
13.4397723714108
 30
0.0
 40
0.015
  0
CIRCLE
  5
752
330
1F
100
AcDbEntity
  8
PCB_OUTLINE
100
AcDbCircle
 10
22.86268324286474
 20
13.4397723714108
 30
0.0
 40
0.015
  0
CIRCLE
  5
753
330
1F
100
AcDbEntity
  8
PCB_OUTLINE
100
AcDbCircle
 10
22.94268324286474
 20
13.19977237141081
 30
0.0
 40
0.015
  0
CIRCLE
  5
754
330
1F
100
AcDbEntity
  8
PCB_OUTLINE
100
AcDbCircle
 10
23.02268324286474
 20
13.19977237141081
 30
0.0
 40
0.015
  0
CIRCLE
  5
755
330
1F
100
AcDbEntity
  8
PCB_OUTLINE
100
AcDbCircle
 10
23.10268324286474
 20
13.19977237141081
 30
0.0
 40
0.015
  0
CIRCLE
  5
756
330
1F
100
AcDbEntity
  8
PCB_OUTLINE
100
AcDbCircle
 10
22.94268324286474
 20
13.2797723714108
 30
0.0
 40
0.015
  0
CIRCLE
  5
757
330
1F
100
AcDbEntity
  8
PCB_OUTLINE
100
AcDbCircle
 10
23.02268324286474
 20
13.2797723714108
 30
0.0
 40
0.015
  0
CIRCLE
  5
758
330
1F
100
AcDbEntity
  8
PCB_OUTLINE
100
AcDbCircle
 10
23.10268324286474
 20
13.2797723714108
 30
0.0
 40
0.015
  0
CIRCLE
  5
759
330
1F
100
AcDbEntity
  8
PCB_OUTLINE
100
AcDbCircle
 10
22.94268324286474
 20
13.35977237141081
 30
0.0
 40
0.015
  0
CIRCLE
  5
75A
330
1F
100
AcDbEntity
  8
PCB_OUTLINE
100
AcDbCircle
 10
23.02268324286474
 20
13.35977237141081
 30
0.0
 40
0.015
  0
CIRCLE
  5
75B
330
1F
100
AcDbEntity
  8
PCB_OUTLINE
100
AcDbCircle
 10
23.10268324286474
 20
13.35977237141081
 30
0.0
 40
0.015
  0
CIRCLE
  5
75C
330
1F
100
AcDbEntity
  8
PCB_OUTLINE
100
AcDbCircle
 10
22.94268324286474
 20
13.4397723714108
 30
0.0
 40
0.015
  0
CIRCLE
  5
75D
330
1F
100
AcDbEntity
  8
PCB_OUTLINE
100
AcDbCircle
 10
23.02268324286474
 20
13.4397723714108
 30
0.0
 40
0.015
  0
CIRCLE
  5
75E
330
1F
100
AcDbEntity
  8
PCB_OUTLINE
100
AcDbCircle
 10
23.10268324286474
 20
13.4397723714108
 30
0.0
 40
0.015
  0
CIRCLE
  5
75F
330
1F
100
AcDbEntity
  8
PCB_OUTLINE
100
AcDbCircle
 10
23.18268324286474
 20
13.19977237141081
 30
0.0
 40
0.015
  0
CIRCLE
  5
760
330
1F
100
AcDbEntity
  8
PCB_OUTLINE
100
AcDbCircle
 10
23.26268324286474
 20
13.19977237141081
 30
0.0
 40
0.015
  0
CIRCLE
  5
761
330
1F
100
AcDbEntity
  8
PCB_OUTLINE
100
AcDbCircle
 10
23.34268324286474
 20
13.19977237141081
 30
0.0
 40
0.015
  0
CIRCLE
  5
762
330
1F
100
AcDbEntity
  8
PCB_OUTLINE
100
AcDbCircle
 10
23.18268324286474
 20
13.2797723714108
 30
0.0
 40
0.015
  0
CIRCLE
  5
763
330
1F
100
AcDbEntity
  8
PCB_OUTLINE
100
AcDbCircle
 10
23.26268324286474
 20
13.2797723714108
 30
0.0
 40
0.015
  0
CIRCLE
  5
764
330
1F
100
AcDbEntity
  8
PCB_OUTLINE
100
AcDbCircle
 10
23.34268324286474
 20
13.2797723714108
 30
0.0
 40
0.015
  0
CIRCLE
  5
765
330
1F
100
AcDbEntity
  8
PCB_OUTLINE
100
AcDbCircle
 10
23.18268324286474
 20
13.35977237141081
 30
0.0
 40
0.015
  0
CIRCLE
  5
766
330
1F
100
AcDbEntity
  8
PCB_OUTLINE
100
AcDbCircle
 10
23.26268324286474
 20
13.35977237141081
 30
0.0
 40
0.015
  0
CIRCLE
  5
767
330
1F
100
AcDbEntity
  8
PCB_OUTLINE
100
AcDbCircle
 10
23.34268324286474
 20
13.35977237141081
 30
0.0
 40
0.015
  0
CIRCLE
  5
768
330
1F
100
AcDbEntity
  8
PCB_OUTLINE
100
AcDbCircle
 10
23.18268324286474
 20
13.4397723714108
 30
0.0
 40
0.015
  0
CIRCLE
  5
769
330
1F
100
AcDbEntity
  8
PCB_OUTLINE
100
AcDbCircle
 10
23.26268324286474
 20
13.4397723714108
 30
0.0
 40
0.015
  0
CIRCLE
  5
76A
330
1F
100
AcDbEntity
  8
PCB_OUTLINE
100
AcDbCircle
 10
23.34268324286474
 20
13.4397723714108
 30
0.0
 40
0.015
  0
CIRCLE
  5
76B
330
1F
100
AcDbEntity
  8
PCB_OUTLINE
100
AcDbCircle
 10
23.42268324286474
 20
13.19977237141081
 30
0.0
 40
0.015
  0
CIRCLE
  5
76C
330
1F
100
AcDbEntity
  8
PCB_OUTLINE
100
AcDbCircle
 10
23.42268324286474
 20
13.2797723714108
 30
0.0
 40
0.015
  0
CIRCLE
  5
76D
330
1F
100
AcDbEntity
  8
PCB_OUTLINE
100
AcDbCircle
 10
23.42268324286474
 20
13.35977237141081
 30
0.0
 40
0.015
  0
CIRCLE
  5
76E
330
1F
100
AcDbEntity
  8
PCB_OUTLINE
100
AcDbCircle
 10
23.42268324286474
 20
13.4397723714108
 30
0.0
 40
0.015
  0
CIRCLE
  5
770
330
1F
100
AcDbEntity
  8
PCB_OUTLINE
100
AcDbCircle
 10
23.71968328278644
 20
13.7597723687628
 30
0.0
 40
0.015
  0
CIRCLE
  5
771
330
1F
100
AcDbEntity
  8
PCB_OUTLINE
100
AcDbCircle
 10
23.71968328278644
 20
13.8397723687628
 30
0.0
 40
0.015
  0
CIRCLE
  5
772
330
1F
100
AcDbEntity
  8
PCB_OUTLINE
100
AcDbCircle
 10
23.71968328278644
 20
13.9197723687628
 30
0.0
 40
0.015
  0
CIRCLE
  5
773
330
1F
100
AcDbEntity
  8
PCB_OUTLINE
100
AcDbCircle
 10
23.71968328278644
 20
13.9997723687628
 30
0.0
 40
0.015
  0
CIRCLE
  5
774
330
1F
100
AcDbEntity
  8
PCB_OUTLINE
100
AcDbCircle
 10
23.71968328278644
 20
14.0797723687628
 30
0.0
 40
0.015
  0
CIRCLE
  5
775
330
1F
100
AcDbEntity
  8
PCB_OUTLINE
100
AcDbCircle
 10
23.71968328278644
 20
14.1597723687628
 30
0.0
 40
0.015
  0
CIRCLE
  5
776
330
1F
100
AcDbEntity
  8
PCB_OUTLINE
100
AcDbCircle
 10
23.64768328278644
 20
13.7597723687628
 30
0.0
 40
0.015
  0
CIRCLE
  5
777
330
1F
100
AcDbEntity
  8
PCB_OUTLINE
100
AcDbCircle
 10
23.64768328278644
 20
13.8397723687628
 30
0.0
 40
0.015
  0
CIRCLE
  5
778
330
1F
100
AcDbEntity
  8
PCB_OUTLINE
100
AcDbCircle
 10
23.64768328278644
 20
13.9197723687628
 30
0.0
 40
0.015
  0
CIRCLE
  5
779
330
1F
100
AcDbEntity
  8
PCB_OUTLINE
100
AcDbCircle
 10
23.64768328278644
 20
13.9997723687628
 30
0.0
 40
0.015
  0
CIRCLE
  5
77A
330
1F
100
AcDbEntity
  8
PCB_OUTLINE
100
AcDbCircle
 10
23.64768328278644
 20
14.0797723687628
 30
0.0
 40
0.015
  0
CIRCLE
  5
77B
330
1F
100
AcDbEntity
  8
PCB_OUTLINE
100
AcDbCircle
 10
23.64768328278644
 20
14.1597723687628
 30
0.0
 40
0.015
  0
CIRCLE
  5
77C
330
1F
100
AcDbEntity
  8
PCB_OUTLINE
100
AcDbCircle
 10
23.56768328278644
 20
13.7597723687628
 30
0.0
 40
0.015
  0
CIRCLE
  5
77D
330
1F
100
AcDbEntity
  8
PCB_OUTLINE
100
AcDbCircle
 10
23.56768328278644
 20
13.8397723687628
 30
0.0
 40
0.015
  0
CIRCLE
  5
77E
330
1F
100
AcDbEntity
  8
PCB_OUTLINE
100
AcDbCircle
 10
23.56768328278644
 20
13.9197723687628
 30
0.0
 40
0.015
  0
CIRCLE
  5
77F
330
1F
100
AcDbEntity
  8
PCB_OUTLINE
100
AcDbCircle
 10
23.56768328278644
 20
13.9997723687628
 30
0.0
 40
0.015
  0
CIRCLE
  5
780
330
1F
100
AcDbEntity
  8
PCB_OUTLINE
100
AcDbCircle
 10
23.56768328278644
 20
14.0797723687628
 30
0.0
 40
0.015
  0
CIRCLE
  5
781
330
1F
100
AcDbEntity
  8
PCB_OUTLINE
100
AcDbCircle
 10
23.56768328278644
 20
14.1597723687628
 30
0.0
 40
0.015
  0
CIRCLE
  5
782
330
1F
100
AcDbEntity
  8
PCB_OUTLINE
100
AcDbCircle
 10
23.49568328278644
 20
13.6797723687628
 30
0.0
 40
0.015
  0
CIRCLE
  5
783
330
1F
100
AcDbEntity
  8
PCB_OUTLINE
100
AcDbCircle
 10
23.49568328278644
 20
13.7597723687628
 30
0.0
 40
0.015
  0
CIRCLE
  5
784
330
1F
100
AcDbEntity
  8
PCB_OUTLINE
100
AcDbCircle
 10
23.49568328278644
 20
13.9197723687628
 30
0.0
 40
0.015
  0
CIRCLE
  5
785
330
1F
100
AcDbEntity
  8
PCB_OUTLINE
100
AcDbCircle
 10
23.49568328278644
 20
13.9997723687628
 30
0.0
 40
0.015
  0
CIRCLE
  5
786
330
1F
100
AcDbEntity
  8
PCB_OUTLINE
100
AcDbCircle
 10
23.49568328278644
 20
14.0797723687628
 30
0.0
 40
0.015
  0
CIRCLE
  5
787
330
1F
100
AcDbEntity
  8
PCB_OUTLINE
100
AcDbCircle
 10
23.49568328278644
 20
14.2397723687628
 30
0.0
 40
0.015
  0
CIRCLE
  5
788
330
1F
100
AcDbEntity
  8
PCB_OUTLINE
100
AcDbCircle
 10
23.49568328278644
 20
13.8397723687628
 30
0.0
 40
0.015
  0
CIRCLE
  5
789
330
1F
100
AcDbEntity
  8
PCB_OUTLINE
100
AcDbCircle
 10
23.49568328278644
 20
14.1597723687628
 30
0.0
 40
0.015
  0
CIRCLE
  5
78A
330
1F
100
AcDbEntity
  8
PCB_OUTLINE
100
AcDbCircle
 10
21.60568319013731
 20
13.7597723687628
 30
0.0
 40
0.015
  0
CIRCLE
  5
78B
330
1F
100
AcDbEntity
  8
PCB_OUTLINE
100
AcDbCircle
 10
21.60568319013731
 20
13.8397723687628
 30
0.0
 40
0.015
  0
CIRCLE
  5
78C
330
1F
100
AcDbEntity
  8
PCB_OUTLINE
100
AcDbCircle
 10
21.60568319013731
 20
13.9197723687628
 30
0.0
 40
0.015
  0
CIRCLE
  5
78D
330
1F
100
AcDbEntity
  8
PCB_OUTLINE
100
AcDbCircle
 10
21.60568319013731
 20
13.9997723687628
 30
0.0
 40
0.015
  0
CIRCLE
  5
78E
330
1F
100
AcDbEntity
  8
PCB_OUTLINE
100
AcDbCircle
 10
21.60568319013731
 20
14.0797723687628
 30
0.0
 40
0.015
  0
CIRCLE
  5
78F
330
1F
100
AcDbEntity
  8
PCB_OUTLINE
100
AcDbCircle
 10
21.60568319013731
 20
14.1597723687628
 30
0.0
 40
0.015
  0
CIRCLE
  5
790
330
1F
100
AcDbEntity
  8
PCB_OUTLINE
100
AcDbCircle
 10
21.67768319013731
 20
13.7597723687628
 30
0.0
 40
0.015
  0
CIRCLE
  5
791
330
1F
100
AcDbEntity
  8
PCB_OUTLINE
100
AcDbCircle
 10
21.67768319013731
 20
13.8397723687628
 30
0.0
 40
0.015
  0
CIRCLE
  5
792
330
1F
100
AcDbEntity
  8
PCB_OUTLINE
100
AcDbCircle
 10
21.67768319013731
 20
13.9197723687628
 30
0.0
 40
0.015
  0
CIRCLE
  5
793
330
1F
100
AcDbEntity
  8
PCB_OUTLINE
100
AcDbCircle
 10
21.67768319013731
 20
13.9997723687628
 30
0.0
 40
0.015
  0
CIRCLE
  5
794
330
1F
100
AcDbEntity
  8
PCB_OUTLINE
100
AcDbCircle
 10
21.67768319013731
 20
14.0797723687628
 30
0.0
 40
0.015
  0
CIRCLE
  5
795
330
1F
100
AcDbEntity
  8
PCB_OUTLINE
100
AcDbCircle
 10
21.67768319013731
 20
14.1597723687628
 30
0.0
 40
0.015
  0
CIRCLE
  5
796
330
1F
100
AcDbEntity
  8
PCB_OUTLINE
100
AcDbCircle
 10
21.75768319013731
 20
13.7597723687628
 30
0.0
 40
0.015
  0
CIRCLE
  5
797
330
1F
100
AcDbEntity
  8
PCB_OUTLINE
100
AcDbCircle
 10
21.75768319013731
 20
13.8397723687628
 30
0.0
 40
0.015
  0
CIRCLE
  5
798
330
1F
100
AcDbEntity
  8
PCB_OUTLINE
100
AcDbCircle
 10
21.75768319013731
 20
13.9197723687628
 30
0.0
 40
0.015
  0
CIRCLE
  5
799
330
1F
100
AcDbEntity
  8
PCB_OUTLINE
100
AcDbCircle
 10
21.75768319013731
 20
13.9997723687628
 30
0.0
 40
0.015
  0
CIRCLE
  5
79A
330
1F
100
AcDbEntity
  8
PCB_OUTLINE
100
AcDbCircle
 10
21.75768319013731
 20
14.0797723687628
 30
0.0
 40
0.015
  0
CIRCLE
  5
79B
330
1F
100
AcDbEntity
  8
PCB_OUTLINE
100
AcDbCircle
 10
21.75768319013731
 20
14.1597723687628
 30
0.0
 40
0.015
  0
CIRCLE
  5
79C
330
1F
100
AcDbEntity
  8
PCB_OUTLINE
100
AcDbCircle
 10
21.82968319013731
 20
13.6797723687628
 30
0.0
 40
0.015
  0
CIRCLE
  5
79D
330
1F
100
AcDbEntity
  8
PCB_OUTLINE
100
AcDbCircle
 10
21.82968319013731
 20
13.7597723687628
 30
0.0
 40
0.015
  0
CIRCLE
  5
79E
330
1F
100
AcDbEntity
  8
PCB_OUTLINE
100
AcDbCircle
 10
21.82968319013731
 20
13.9197723687628
 30
0.0
 40
0.015
  0
CIRCLE
  5
79F
330
1F
100
AcDbEntity
  8
PCB_OUTLINE
100
AcDbCircle
 10
21.82968319013731
 20
13.9997723687628
 30
0.0
 40
0.015
  0
CIRCLE
  5
7A0
330
1F
100
AcDbEntity
  8
PCB_OUTLINE
100
AcDbCircle
 10
21.82968319013731
 20
14.0797723687628
 30
0.0
 40
0.015
  0
CIRCLE
  5
7A1
330
1F
100
AcDbEntity
  8
PCB_OUTLINE
100
AcDbCircle
 10
21.82968319013731
 20
14.2397723687628
 30
0.0
 40
0.015
  0
CIRCLE
  5
7A2
330
1F
100
AcDbEntity
  8
PCB_OUTLINE
100
AcDbCircle
 10
21.82968319013731
 20
13.8397723687628
 30
0.0
 40
0.015
  0
CIRCLE
  5
7A3
330
1F
100
AcDbEntity
  8
PCB_OUTLINE
100
AcDbCircle
 10
21.82968319013731
 20
14.1597723687628
 30
0.0
 40
0.015
  0
LWPOLYLINE
  5
7A4
330
1F
100
AcDbEntity
  8
PCB_TOP
100
AcDbPolyline
 90
        4
 70
     1
 43
0.0
 10
21.85668296242025
 20
14.21971107431219
 10
22.12668296242025
 20
14.21971107431219
 10
22.12668296242025
 20
14.36471107431219
 10
21.85668296242025
 20
14.36471107431219
  0
LWPOLYLINE
  5
7A5
330
1F
100
AcDbEntity
  8
PCB_TOP
100
AcDbPolyline
 90
        4
 70
     1
 43
0.0
 10
23.19868310514674
 20
13.55471146877859
 10
23.46868310514674
 20
13.55471146877859
 10
23.46868310514674
 20
13.69971146877859
 10
23.19868310514674
 20
13.69971146877859
  0
LINE
  5
7A6
330
1F
100
AcDbEntity
  8
Part
100
AcDbLine
 10
23.51762071412731
 20
14.32279119734161
 30
0.0
 11
22.12668318195739
 21
14.32279119734163
 31
0.0
  0
ARC
  5
7A7
330
1F
100
AcDbEntity
  8
Part
100
AcDbCircle
 10
21.64468336674815
 20
14.19077236111548
 30
0.0
 40
0.0300000000000003
100
AcDbArc
 50
0.0
 51
53.13010235415689
  0
LINE
  5
7A8
330
1F
100
AcDbEntity
  8
Part
100
AcDbLine
 10
21.67468336674815
 20
14.19077236111548
 30
0.0
 11
21.67468333999275
 21
13.72869038680426
 31
0.0
  0
LINE
  5
7A9
330
1F
100
AcDbEntity
  8
Part
100
AcDbLine
 10
21.74268325940935
 20
14.32977235673271
 30
0.0
 11
21.74268325940935
 21
14.25477235673272
 31
0.0
  0
LINE
  5
7AA
330
1F
100
AcDbEntity
  8
Part
100
AcDbLine
 10
21.74268325940935
 20
14.25477235673272
 30
0.0
 11
21.66768325940934
 21
14.25477235673272
 31
0.0
  0
LINE
  5
7AB
330
1F
100
AcDbEntity
  8
Part
100
AcDbLine
 10
21.70278046916862
 20
14.32977235673271
 30
0.0
 11
21.74268325940935
 21
14.32977235673271
 31
0.0
  0
LINE
  5
7AC
330
1F
100
AcDbEntity
  8
Part
100
AcDbLine
 10
21.66768325940934
 20
14.25477235673272
 30
0.0
 11
21.66768325940934
 21
14.29470090568059
 31
0.0
  0
LINE
  5
7AD
330
1F
100
AcDbEntity
  8
Part
100
AcDbLine
 10
21.67468324633998
 20
14.19085735803245
 30
0.0
 11
21.67468345198029
 21
13.72877236682752
 31
0.0
  0
LINE
  5
7AE
330
1F
100
AcDbEntity
  8
Part
100
AcDbLine
 10
21.67151618247815
 20
14.21477235673272
 30
0.0
 11
21.78268320826008
 21
14.21477235673272
 31
0.0
  0
LINE
  5
7AF
330
1F
100
AcDbEntity
  8
Part
100
AcDbLine
 10
23.65068336967402
 20
14.19089512234845
 30
0.0
 11
23.65068333108156
 21
13.72868508636328
 31
0.0
  0
LINE
  5
7B0
330
1F
100
AcDbEntity
  8
Part
100
AcDbLine
 10
21.78268330545896
 20
14.32593956209417
 30
0.0
 11
21.78268320826008
 21
14.21477235673272
 31
0.0
  0
LINE
  5
7B1
330
1F
100
AcDbEntity
  8
Part
100
AcDbLine
 10
23.5426833121452
 20
13.59360583723233
 30
0.0
 11
23.46868332468388
 21
13.59360583723233
 31
0.0
  0
LINE
  5
7B2
330
1F
100
AcDbEntity
  8
Part
100
AcDbLine
 10
23.35368332468388
 20
13.58477265137313
 30
0.0
 11
23.31368332468388
 21
13.58477265259071
 31
0.0
  0
LINE
  5
7B3
330
1F
100
AcDbEntity
  8
Part
100
AcDbLine
 10
23.19868332468387
 20
13.59677291561383
 30
0.0
 11
21.80668344711813
 21
13.5967723988229
 31
0.0
  0
ARC
  5
7B4
330
1F
100
AcDbEntity
  8
Part
100
AcDbCircle
 10
21.64468325940933
 20
14.35281501756403
 30
0.0
 40
0.0625000000000119
100
AcDbArc
 50
291.5923248715828
 51
338.365608909062
  0
LINE
  5
7B5
330
1F
100
AcDbEntity
  8
Part
100
AcDbLine
 10
23.65068336967402
 20
14.19089512234845
 30
0.0
 11
23.65068320199832
 21
13.72877309191816
 31
0.0
  0
LINE
  5
7B6
330
1F
100
AcDbEntity
  8
Part
100
AcDbLine
 10
21.66268337259184
 20
14.21477235673272
 30
0.0
 11
21.66268322756266
 21
14.29292045617809
 31
0.0
  0
CIRCLE
  5
7B7
330
1F
100
AcDbEntity
  8
Part
100
AcDbCircle
 10
21.71768323231518
 20
14.27977237661306
 30
0.0
 40
0.015
  0
ARC
  5
7B8
330
1F
100
AcDbEntity
  8
Part
100
AcDbCircle
 10
21.64468320592854
 20
14.35277235022641
 30
0.0
 40
0.0625
100
AcDbArc
 50
286.7382774715626
 51
343.2617639488116
  0
ARC
  5
7B9
330
1F
100
AcDbEntity
  8
Part
100
AcDbCircle
 10
21.80668345818724
 20
13.56677239882291
 30
0.0
 40
0.0300000000000003
100
AcDbArc
 50
90.00002114043981
 51
143.1301234945974
  0
ARC
  5
7BA
330
1F
100
AcDbEntity
  8
Part
100
AcDbCircle
 10
21.64468345198029
 20
13.72877235575841
 30
0.0
 40
0.0300000000000003
100
AcDbArc
 50
306.8699187862831
 51
0.0000211404398159
  0
LINE
  5
7BB
330
1F
100
AcDbEntity
  8
Part
100
AcDbLine
 10
21.74268339592835
 20
13.58977239630023
 30
0.0
 11
21.74268336825557
 21
13.66477239630023
 31
0.0
  0
LINE
  5
7BC
330
1F
100
AcDbEntity
  8
Part
100
AcDbLine
 10
21.74268336825557
 20
13.66477239630023
 30
0.0
 11
21.66768336825557
 21
13.66477236862746
 31
0.0
  0
LINE
  5
7BD
330
1F
100
AcDbEntity
  8
Part
100
AcDbLine
 10
21.70278060568762
 20
13.58977238157729
 30
0.0
 11
21.74268339592835
 21
13.58977239630023
 31
0.0
  0
LINE
  5
7BE
330
1F
100
AcDbEntity
  8
Part
100
AcDbLine
 10
21.66768336825557
 20
13.66477236862746
 30
0.0
 11
21.66768338298802
 21
13.62484381967959
 31
0.0
  0
LINE
  5
7BF
330
1F
100
AcDbEntity
  8
Part
100
AcDbLine
 10
21.67151627266054
 20
13.70477237004169
 30
0.0
 11
21.78268330234748
 21
13.70477241105902
 31
0.0
  0
LINE
  5
7C0
330
1F
100
AcDbEntity
  8
Part
100
AcDbLine
 10
21.78268343664578
 20
13.59360520960265
 30
0.0
 11
21.78268330234748
 21
13.70477241105902
 31
0.0
  0
ARC
  5
7C1
330
1F
100
AcDbEntity
  8
Part
100
AcDbCircle
 10
21.64468340443039
 20
13.56672969930984
 30
0.0
 40
0.0625000000000119
100
AcDbArc
 50
21.63441223137767
 51
68.40769626885671
  0
LINE
  5
7C2
330
1F
100
AcDbEntity
  8
Part
100
AcDbLine
 10
21.70453524465159
 20
13.58477238938077
 30
0.0
 11
21.78268345154577
 21
13.5847723899676
 31
0.0
  0
LINE
  5
7C3
330
1F
100
AcDbEntity
  8
Part
100
AcDbLine
 10
21.66268346667926
 20
13.70477236678264
 30
0.0
 11
21.6626833504844
 21
13.62662426733722
 31
0.0
  0
CIRCLE
  5
7C4
330
1F
100
AcDbEntity
  8
Part
100
AcDbCircle
 10
21.71768335038567
 20
13.63977236719561
 30
0.0
 40
0.015
  0
ARC
  5
7C5
330
1F
100
AcDbEntity
  8
Part
100
AcDbCircle
 10
21.64468335093385
 20
13.56677236664743
 30
0.0
 40
0.0625
100
AcDbArc
 50
16.73825719162793
 51
73.2617436688773
  0
ARC
  5
7C6
330
1F
100
AcDbEntity
  8
Part
100
AcDbCircle
 10
23.51868317206719
 20
14.35277237782416
 30
0.0
 40
0.0300000000000003
100
AcDbArc
 50
267.9704303920598
 51
323.1301023541574
  0
ARC
  5
7C7
330
1F
100
AcDbEntity
  8
Part
100
AcDbCircle
 10
23.68068311850096
 20
14.19077236111548
 30
0.0
 40
0.0300000000000003
100
AcDbArc
 50
126.8698976458433
 51
180.0
  0
LINE
  5
7C8
330
1F
100
AcDbEntity
  8
Part
100
AcDbLine
 10
23.58268322583978
 20
14.32977235673271
 30
0.0
 11
23.58268322583978
 21
14.25477235673272
 31
0.0
  0
LINE
  5
7C9
330
1F
100
AcDbEntity
  8
Part
100
AcDbLine
 10
23.58268322583978
 20
14.25477235673272
 30
0.0
 11
23.65768322583978
 21
14.25477235673272
 31
0.0
  0
LINE
  5
7CA
330
1F
100
AcDbEntity
  8
Part
100
AcDbLine
 10
23.62258601608051
 20
14.32977235673271
 30
0.0
 11
23.58268322583978
 21
14.32977235673271
 31
0.0
  0
LINE
  5
7CB
330
1F
100
AcDbEntity
  8
Part
100
AcDbLine
 10
23.65768322583978
 20
14.25477235673272
 30
0.0
 11
23.65768322583978
 21
14.29470090568059
 31
0.0
  0
LINE
  5
7CC
330
1F
100
AcDbEntity
  8
Part
100
AcDbLine
 10
23.65385030277097
 20
14.21477235673272
 30
0.0
 11
23.54268327698905
 21
14.21477235673272
 31
0.0
  0
LINE
  5
7CD
330
1F
100
AcDbEntity
  8
Part
100
AcDbLine
 10
23.54268317979016
 20
14.32593956209417
 30
0.0
 11
23.54268327698905
 21
14.21477235673272
 31
0.0
  0
ARC
  5
7CE
330
1F
100
AcDbEntity
  8
Part
100
AcDbCircle
 10
23.6806832258398
 20
14.35281501756403
 30
0.0
 40
0.0625000000000119
100
AcDbArc
 50
201.6343910909376
 51
248.407675128417
  0
LINE
  5
7CF
330
1F
100
AcDbEntity
  8
Part
100
AcDbLine
 10
23.62083137896138
 20
14.33477234957664
 30
0.0
 11
23.54268317206719
 21
14.33477237782416
 31
0.0
  0
LINE
  5
7D0
330
1F
100
AcDbEntity
  8
Part
100
AcDbLine
 10
23.66268311265728
 20
14.21477235673272
 30
0.0
 11
23.66268325768646
 21
14.29292045617809
 31
0.0
  0
CIRCLE
  5
7D1
330
1F
100
AcDbEntity
  8
Part
100
AcDbCircle
 10
23.60768325293394
 20
14.27977237661306
 30
0.0
 40
0.015
  0
ARC
  5
7D2
330
1F
100
AcDbEntity
  8
Part
100
AcDbCircle
 10
23.68068327932058
 20
14.35277235022641
 30
0.0
 40
0.0625
100
AcDbArc
 50
196.738236051188
 51
253.2617225284376
  0
ARC
  5
7D3
330
1F
100
AcDbEntity
  8
Part
100
AcDbCircle
 10
23.68068320199832
 20
13.72877309191816
 30
0.0
 40
0.0300000000000003
100
AcDbArc
 50
180.000020710189
 51
233.1301230643456
  0
LINE
  5
7D4
330
1F
100
AcDbEntity
  8
Part
100
AcDbLine
 10
23.58268335958022
 20
13.5897730608778
 30
0.0
 11
23.58268333247064
 21
13.66477306087779
 31
0.0
  0
LINE
  5
7D5
330
1F
100
AcDbEntity
  8
Part
100
AcDbLine
 10
23.58268333247064
 20
13.66477306087779
 30
0.0
 11
23.65768333247062
 21
13.66477308798736
 31
0.0
  0
LINE
  5
7D6
330
1F
100
AcDbEntity
  8
Part
100
AcDbLine
 10
23.62258614982095
 20
13.5897730753011
 30
0.0
 11
23.58268335958022
 21
13.5897730608778
 31
0.0
  0
LINE
  5
7D7
330
1F
100
AcDbEntity
  8
Part
100
AcDbLine
 10
23.65768333247062
 20
13.66477308798736
 30
0.0
 11
23.65768334690325
 21
13.62484453903949
 31
0.0
  0
LINE
  5
7D8
330
1F
100
AcDbEntity
  8
Part
100
AcDbLine
 10
23.65385039111783
 20
13.70477308545714
 30
0.0
 11
23.54268336916147
 21
13.70477304641936
 31
0.0
  0
LINE
  5
7D9
330
1F
100
AcDbEntity
  8
Part
100
AcDbLine
 10
23.54268331366517
 20
13.59360583723233
 30
0.0
 11
23.54268336916147
 21
13.70477304641936
 31
0.0
  0
ARC
  5
7DA
330
1F
100
AcDbEntity
  8
Part
100
AcDbCircle
 10
23.68068336790924
 20
13.56673043546966
 30
0.0
 40
0.0625000000000119
100
AcDbArc
 50
111.592345581772
 51
158.3656296192512
  0
LINE
  5
7DB
330
1F
100
AcDbEntity
  8
Part
100
AcDbLine
 10
23.6626832048297
 20
13.70477308979462
 30
0.0
 11
23.66268337810637
 21
13.62662499034931
 31
0.0
  0
CIRCLE
  5
7DC
330
1F
100
AcDbEntity
  8
Part
100
AcDbCircle
 10
23.60768336860134
 20
13.63977305003397
 30
0.0
 40
0.015
  0
ARC
  5
7DD
330
1F
100
AcDbEntity
  8
Part
100
AcDbCircle
 10
23.68068342137462
 20
13.5667731028073
 30
0.0
 40
0.0625
100
AcDbArc
 50
106.7382981817514
 51
163.2617846590009
  0
MTEXT
  5
7DE
330
1F
100
AcDbEntity
  8
Part
100
AcDbMText
 10
22.66268335038567
 20
13.95977236719562
 30
0.0
 40
0.1
 41
1.066096195447588
 71
     5
 72
     5
  1
{\fArial|b1|i1|c0|p34;Innovative\P}IPP-7068\P30 - 88 MHZ
  7
ARIAL
 73
     1
 44
1.0
1001
ACAD
1000
MTEXTBEGIN
1070
    73
1070
     1
1070
    44
1040
1.0
1070
    74
1070
     0
1000
MTEXTEND
1000
ACAD_MTEXT_DEFINED_HEIGHT_BEGIN
1070
    46
1040
0.2693599363347153
1000
ACAD_MTEXT_DEFINED_HEIGHT_END
  0
LWPOLYLINE
  5
7DF
330
1F
100
AcDbEntity
  8
Part
100
AcDbPolyline
 90
        5
 70
     0
 43
0.0
 10
23.62083151450912
 20
13.58477308182294
 10
23.42868332468388
 20
13.58477271213624
 10
23.42868332468388
 20
13.65977271213624
 10
23.35368332468388
 20
13.65977271213624
 10
23.35368332468388
 20
13.58477271213624
  0
CIRCLE
  5
7E0
330
1F
100
AcDbEntity
  8
Part
100
AcDbCircle
 10
23.39118332468387
 20
13.63477269225589
 30
0.0
 40
0.015
  0
ARC
  5
7E1
330
1F
100
AcDbEntity
  8
Part
100
AcDbCircle
 10
23.39118332468387
 20
13.53477271213624
 30
0.0
 40
0.0625
100
AcDbArc
 50
53.13010235415434
 51
126.8698976458456
  0
LWPOLYLINE
  5
7E2
330
1F
100
AcDbEntity
  8
Part
100
AcDbPolyline
 90
        4
 70
     0
 43
0.0
 10
23.31368332468388
 20
13.58477271213624
 10
23.31368332468388
 20
13.65977271213624
 10
23.23868332468388
 20
13.65977271213624
 10
23.23868332468388
 20
13.58477271213624
  0
CIRCLE
  5
7E3
330
1F
100
AcDbEntity
  8
Part
100
AcDbCircle
 10
23.27618332468388
 20
13.63477269225589
 30
0.0
 40
0.015
  0
ARC
  5
7E4
330
1F
100
AcDbEntity
  8
Part
100
AcDbCircle
 10
23.27618332468388
 20
13.53477271213624
 30
0.0
 40
0.0625
100
AcDbArc
 50
53.13010235415434
 51
126.8698976458456
  0
LINE
  5
7E5
330
1F
100
AcDbEntity
  8
Part
100
AcDbLine
 10
23.46868332468388
 20
13.59360583723233
 30
0.0
 11
23.46868332468388
 21
13.69977271213624
 31
0.0
  0
LINE
  5
7E6
330
1F
100
AcDbEntity
  8
Part
100
AcDbLine
 10
23.19868332468387
 20
13.69977271213624
 30
0.0
 11
23.46868332468388
 21
13.69977271213624
 31
0.0
  0
LINE
  5
7E7
330
1F
100
AcDbEntity
  8
Part
100
AcDbLine
 10
23.19868332468387
 20
13.59677291561383
 30
0.0
 11
23.19868332468387
 21
13.69977271213624
 31
0.0
  0
LINE
  5
7E8
330
1F
100
AcDbEntity
  8
Part
100
AcDbLine
 10
21.97168318195739
 20
14.33477237843295
 30
0.0
 11
22.01168318195739
 21
14.33477237721537
 31
0.0
  0
LWPOLYLINE
  5
7E9
330
1F
100
AcDbEntity
  8
Part
100
AcDbPolyline
 90
        5
 70
     0
 43
0.0
 10
21.70453510628775
 20
14.33477234957664
 10
21.89668318195739
 20
14.33477231766985
 10
21.89668318195739
 20
14.25977231766984
 10
21.97168318195739
 20
14.25977231766984
 10
21.97168318195739
 20
14.33477231766985
  0
CIRCLE
  5
7EA
330
1F
100
AcDbEntity
  8
Part
100
AcDbCircle
 10
21.93418318195739
 20
14.2847723375502
 30
0.0
 40
0.015
  0
ARC
  5
7EB
330
1F
100
AcDbEntity
  8
Part
100
AcDbCircle
 10
21.93418318195739
 20
14.38477231766984
 30
0.0
 40
0.0625
100
AcDbArc
 50
233.1301023541544
 51
306.8698976458457
  0
LWPOLYLINE
  5
7EC
330
1F
100
AcDbEntity
  8
Part
100
AcDbPolyline
 90
        4
 70
     0
 43
0.0
 10
22.01168318195739
 20
14.33477231766985
 10
22.01168318195739
 20
14.25977231766984
 10
22.08668318195739
 20
14.25977231766984
 10
22.08668318195739
 20
14.33477231766985
  0
CIRCLE
  5
7ED
330
1F
100
AcDbEntity
  8
Part
100
AcDbCircle
 10
22.04918318195739
 20
14.2847723375502
 30
0.0
 40
0.015
  0
ARC
  5
7EE
330
1F
100
AcDbEntity
  8
Part
100
AcDbCircle
 10
22.04918318195739
 20
14.38477231766984
 30
0.0
 40
0.0625
100
AcDbArc
 50
233.1301023541544
 51
306.8698976458457
  0
LINE
  5
7EF
330
1F
100
AcDbEntity
  8
Part
100
AcDbLine
 10
21.85668318195739
 20
14.32593956209417
 30
0.0
 11
21.85668318195739
 21
14.21977231766985
 31
0.0
  0
LINE
  5
7F0
330
1F
100
AcDbEntity
  8
Part
100
AcDbLine
 10
22.12668318195739
 20
14.21977231766985
 30
0.0
 11
21.85668318195739
 21
14.21977231766985
 31
0.0
  0
LINE
  5
7F1
330
1F
100
AcDbEntity
  8
Part
100
AcDbLine
 10
22.12668318195739
 20
14.32279119734163
 30
0.0
 11
22.12668318195739
 21
14.21977231766985
 31
0.0
  0
ARC
  5
7F2
330
1F
100
AcDbEntity
  8
Part
100
AcDbCircle
 10
23.16968331804241
 20
13.56678905660332
 30
0.0
 40
0.0300000000000003
100
AcDbArc
 50
36.86987650536965
 51
91.88023129029934
  0
LINE
  5
7F3
330
1F
100
AcDbEntity
  8
Part
100
AcDbLine
 10
23.1936833246839
 20
13.58478904774803
 30
0.0
 11
23.23868332468388
 21
13.58478904774803
 31
0.0
  0
LINE
  5
7F4
330
1F
100
AcDbEntity
  8
Part
100
AcDbLine
 10
21.78268343664578
 20
13.59360520960265
 30
0.0
 11
21.79326704042173
 21
13.59360520960265
 31
0.0
  0
LINE
  5
7F5
330
1F
100
AcDbEntity
  8
Part
100
AcDbLine
 10
21.67151627266054
 20
13.71535595779392
 30
0.0
 11
21.67151627266054
 21
13.70477237004169
 31
0.0
  0
LINE
  5
7F6
330
1F
100
AcDbEntity
  8
Part
100
AcDbLine
 10
23.65385039111783
 20
13.70477308545714
 30
0.0
 11
23.65385039111783
 21
13.71535667435414
 31
0.0
  0
LINE
  5
7F7
330
1F
100
AcDbEntity
  8
Part
100
AcDbLine
 10
23.65385030277097
 20
14.20418876898048
 30
0.0
 11
23.65385030277097
 21
14.21477235673272
 31
0.0
  0
LINE
  5
7F8
330
1F
100
AcDbEntity
  8
Part
100
AcDbLine
 10
23.53209957993219
 20
14.32593956209417
 30
0.0
 11
23.54268317979016
 21
14.32593956209417
 31
0.0
  0
LINE
  5
7F9
330
1F
100
AcDbEntity
  8
Part
100
AcDbLine
 10
21.67151618247815
 20
14.20418876898048
 30
0.0
 11
21.67151618247815
 21
14.21477235673272
 31
0.0
  0
LINE
  5
7FA
330
1F
100
AcDbEntity
  8
Part
100
AcDbLine
 10
21.85668318195739
 20
14.32593956209417
 30
0.0
 11
21.78268330545896
 21
14.32593956209417
 31
0.0
  0
ARC
  5
7FB
330
1F
100
AcDbEntity
  8
Part
100
AcDbCircle
 10
22.15568318195698
 20
14.35277237782416
 30
0.0
 40
0.0300000000000003
100
AcDbArc
 50
216.8696086301218
 51
272.0295696079402
  0
LINE
  5
7FC
330
1F
100
AcDbEntity
  8
Part
100
AcDbLine
 10
22.08668318195739
 20
14.33477231766985
 30
0.0
 11
22.1316830911603
 21
14.334772498887
 31
0.0
  0
CIRCLE
  5
9C2
330
1F
100
AcDbEntity
  8
PCB_OUTLINE
100
AcDbCircle
 10
24.03268332270815
 20
13.8397723661148
 30
0.0
 40
0.015
  0
CIRCLE
  5
9C3
330
1F
100
AcDbEntity
  8
PCB_OUTLINE
100
AcDbCircle
 10
24.03268332270815
 20
13.9197723661148
 30
0.0
 40
0.015
  0
CIRCLE
  5
9C4
330
1F
100
AcDbEntity
  8
PCB_OUTLINE
100
AcDbCircle
 10
24.03268332270815
 20
13.9997723661148
 30
0.0
 40
0.015
  0
CIRCLE
  5
9C5
330
1F
100
AcDbEntity
  8
PCB_OUTLINE
100
AcDbCircle
 10
24.03268332270815
 20
14.0797723661148
 30
0.0
 40
0.015
  0
CIRCLE
  5
9C6
330
1F
100
AcDbEntity
  8
PCB_OUTLINE
100
AcDbCircle
 10
24.03268332270815
 20
14.1597723661148
 30
0.0
 40
0.015
  0
ENDSEC
  0
SECTION
  2
OBJECTS
  0
DICTIONARY
  5
C
330
0
100
AcDbDictionary
281
     1
  3
ACAD_2007HEADERVARS_RT
350
9CB
  3
ACAD_CIP_PREVIOUS_PRODUCT_INFO
350
1A5
  3
ACAD_COLOR
350
73
  3
ACAD_DETAILVIEWSTYLE
350
1AB
  3
ACAD_GROUP
350
D
  3
ACAD_LAYOUT
350
1A
  3
ACAD_MATERIAL
350
72
  3
ACAD_MLEADERSTYLE
350
D7
  3
ACAD_MLINESTYLE
350
17
  3
ACAD_PLOTSETTINGS
350
19
  3
ACAD_PLOTSTYLENAME
350
E
  3
ACAD_SCALELIST
350
B6
  3
ACAD_SECTIONVIEWSTYLE
350
1A8
  3
ACAD_TABLESTYLE
350
86
  3
ACAD_VISUALSTYLE
350
99
  3
ACDB_RECOMPOSE_DATA
350
9C9
  3
AcDbVariableDictionary
350
66
  3
AcmDictionary
350
1E9
  3
AMG
350
1BE
  3
AMGSNAPSETTINGS
350
519
  3
DWGPROPS
350
9CA
  0
DICTIONARY
  5
18E
330
2
100
AcDbDictionary
280
     1
281
     1
  3
ACAD_LAYERSTATES
360
18F
  0
DICTIONARY
  5
E6
330
10
100
AcDbDictionary
280
     1
281
     1
  0
DICTIONARY
  5
22A
330
229
100
AcDbDictionary
280
     1
281
     1
  0
DICTIONARY
  5
22C
330
22B
100
AcDbDictionary
280
     1
281
     1
  0
DICTIONARY
  5
22E
330
22D
100
AcDbDictionary
280
     1
281
     1
  0
DICTIONARY
  5
230
330
22F
100
AcDbDictionary
280
     1
281
     1
  0
DICTIONARY
  5
15D
330
1F
100
AcDbDictionary
280
     1
281
     1
  0
DICTIONARY
  5
9CB
102
{ACAD_REACTORS
330
C
102
}
330
C
100
AcDbDictionary
281
     1
  3
DIMARCSYM
350
9CC
  3
DIMLTEX1
350
9CE
  3
DIMLTEX2
350
9CF
  3
DIMLTYPE
350
9CD
  0
XRECORD
  5
1A5
102
{ACAD_REACTORS
330
C
102
}
330
C
100
AcDbXrecord
280
     1
300
AMECH_PP
300
2013
300
PDSP_F_S
  0
DICTIONARY
  5
73
102
{ACAD_REACTORS
330
C
102
}
330
C
100
AcDbDictionary
281
     1
  0
DICTIONARY
  5
1AB
102
{ACAD_REACTORS
330
C
102
}
330
C
100
AcDbDictionary
281
     1
  3
Imperial24
350
1AC
  0
DICTIONARY
  5
D
102
{ACAD_REACTORS
330
C
102
}
330
C
100
AcDbDictionary
281
     1
  0
DICTIONARY
  5
1A
102
{ACAD_REACTORS
330
C
102
}
330
C
100
AcDbDictionary
281
     1
  3
Layout1
350
59
  3
Layout2
350
5E
  3
Model
350
22
  0
DICTIONARY
  5
72
102
{ACAD_REACTORS
330
C
102
}
330
C
100
AcDbDictionary
281
     1
  3
ByBlock
350
97
  3
ByLayer
350
96
  3
Global
350
98
  0
DICTIONARY
  5
D7
102
{ACAD_REACTORS
330
C
102
}
330
C
100
AcDbDictionary
281
     1
  3
Standard
350
D8
  0
DICTIONARY
  5
17
102
{ACAD_REACTORS
330
C
102
}
330
C
100
AcDbDictionary
281
     1
  3
Standard
350
18
  0
DICTIONARY
  5
19
102
{ACAD_REACTORS
330
C
102
}
330
C
100
AcDbDictionary
281
     1
  0
ACDBDICTIONARYWDFLT
  5
E
102
{ACAD_REACTORS
330
C
102
}
330
C
100
AcDbDictionary
281
     1
  3
Normal
350
F
100
AcDbDictionaryWithDefault
340
F
  0
DICTIONARY
  5
B6
102
{ACAD_REACTORS
330
C
102
}
330
C
100
AcDbDictionary
281
     1
  3
A0
350
B7
  3
A1
350
124
  3
A2
350
125
  3
A3
350
126
  3
A4
350
127
  3
A5
350
128
  3
A6
350
129
  3
A7
350
12A
  3
A8
350
12B
  3
A9
350
12C
  3
B0
350
12D
  3
B1
350
12E
  3
B2
350
12F
  3
B3
350
130
  3
B4
350
131
  3
B5
350
132
  3
B6
350
133
  3
B7
350
134
  3
B8
350
135
  3
B9
350
136
  3
C0
350
137
  3
C1
350
138
  3
C2
350
139
  3
C3
350
13A
  3
C4
350
13B
  3
C5
350
13C
  3
C6
350
13D
  3
C7
350
13E
  3
C8
350
13F
  3
C9
350
140
  3
D0
350
141
  3
D1
350
142
  3
D2
350
143
  0
DICTIONARY
  5
1A8
102
{ACAD_REACTORS
330
C
102
}
330
C
100
AcDbDictionary
281
     1
  3
Imperial24
350
1AA
  0
DICTIONARY
  5
86
102
{ACAD_REACTORS
330
C
102
}
330
C
100
AcDbDictionary
281
     1
  3
Standard
350
87
  0
DICTIONARY
  5
99
102
{ACAD_REACTORS
330
C
102
}
330
C
100
AcDbDictionary
281
     1
  3
2dWireframe
350
9F
  3
Basic
350
9E
  3
Brighten
350
A5
  3
ColorChange
350
A9
  3
Conceptual
350
A2
  3
Dim
350
A4
  3
EdgeColorOff
350
175
  3
Facepattern
350
A8
  3
Flat
350
9A
  3
FlatWithEdges
350
9B
  3
Gouraud
350
9C
  3
GouraudWithEdges
350
9D
  3
Hidden
350
A1
  3
JitterOff
350
173
  3
Linepattern
350
A7
  3
OverhangOff
350
174
  3
Realistic
350
A3
  3
Shaded
350
182
  3
Shaded with edges
350
181
  3
Shades of Gray
350
17E
  3
Sketchy
350
17F
  3
Thicken
350
A6
  3
Wireframe
350
A0
  3
X-Ray
350
180
  0
XRECORD
  5
9C9
102
{ACAD_REACTORS
330
C
102
}
330
C
100
AcDbXrecord
280
     1
 90
        1
330
87
  0
DICTIONARY
  5
66
102
{ACAD_REACTORS
330
C
102
}
330
C
100
AcDbDictionary
281
     1
  3
CANNOSCALE
350
F0
  3
CMLEADERSTYLE
350
EF
  3
CTABLESTYLE
350
89
  3
CVIEWDETAILSTYLE
350
1B7
  3
CVIEWSECTIONSTYLE
350
1B8
  3
DIMASSOC
350
67
  3
HIDETEXT
350
6B
  3
INDEXCTL
350
802
  3
LAYEREVAL
350
14D
  3
LAYERNOTIFY
350
14E
  3
LIGHTINGUNITS
350
800
  3
MSLTSCALE
350
7FF
  3
SORTENTS
350
801
  3
XCLIPFRAME
350
9C7
  0
DICTIONARY
  5
1E9
102
{ACAD_REACTORS
330
C
102
}
330
C
100
AcDbDictionary
281
     1
  3
AcmStdDictionary
350
1EB
  0
DICTIONARY
  5
1BE
102
{ACAD_REACTORS
330
C
102
}
330
C
100
AcDbDictionary
281
     1
  0
DICTIONARY
  5
519
102
{ACAD_REACTORS
330
C
102
}
330
C
100
AcDbDictionary
281
     1
  0
XRECORD
  5
9CA
102
{ACAD_REACTORS
330
C
102
}
330
C
100
AcDbXrecord
280
     1
  1
DWGPROPS COOKIE
  2

  3

  4

  6

  7

  8
scornell
  9

300
=
301
=
302
=
303
=
304
=
305
=
306
=
307
=
308
=
309
=
 40
0.0025148263888889
 41
2456469.462548704
 42
2456905.544415324
  1

 90
        0
  0
DICTIONARY
  5
18F
102
{ACAD_REACTORS
330
18E
102
}
330
18E
100
AcDbDictionary
281
     1
  0
XRECORD
  5
9CC
102
{ACAD_REACTORS
330
9CB
102
}
330
9CB
100
AcDbXrecord
280
     1
 70
     1
  0
XRECORD
  5
9CE
102
{ACAD_REACTORS
330
9CB
102
}
330
9CB
100
AcDbXrecord
280
     1
340
14
  0
XRECORD
  5
9CF
102
{ACAD_REACTORS
330
9CB
102
}
330
9CB
100
AcDbXrecord
280
     1
340
14
  0
XRECORD
  5
9CD
102
{ACAD_REACTORS
330
9CB
102
}
330
9CB
100
AcDbXrecord
280
     1
340
14
  0
ACDBDETAILVIEWSTYLE
  5
1AC
102
{ACAD_REACTORS
330
1AB
102
}
330
1AB
100
AcDbModelDocViewStyle
 70
     0
  3
Imperial24
290
     0
100
AcDbDetailViewStyle
 70
     0
 71
     0
 90
        3
 71
     1
340
11
 40
0.24
340
0
 40
0.24
300

 40
0.36
280
     3
 71
     2
340
16
 90
       25
 71
     3
340
11
 40
0.24
 90
        1
 40
0.75
 90
        1
300
%<\AcVar ViewType \f "%tc1">% %<\AcVar ViewDetailId>%\PSCALE %<\AcVar ViewScale \f "%sn">%
 71
     4
340
16
 90
       25
340
16
 90
       25
280
     0
  0
LAYOUT
  5
59
102
{ACAD_XDICTIONARY
360
9D2
102
}
102
{ACAD_REACTORS
330
1A
102
}
330
1A
100
AcDbPlotSettings
  1

  2
None
  4

  6

 40
0.0
 41
0.0
 42
0.0
 43
0.0
 44
0.0
 45
0.0
 46
0.0
 47
0.0
 48
0.0
 49
0.0
140
0.0
141
0.0
142
1.0
143
1.0
 70
   688
 72
     0
 73
     0
 74
     5
  7

 75
    16
147
1.0
148
0.0
149
0.0
100
AcDbLayout
  1
Layout1
 70
     1
 71
     1
 10
0.0
 20
0.0
 11
12.0
 21
9.0
 12
0.0
 22
0.0
 32
0.0
 14
0.0
 24
0.0
 34
0.0
 15
0.0
 25
0.0
 35
0.0
146
0.0
 13
0.0
 23
0.0
 33
0.0
 16
1.0
 26
0.0
 36
0.0
 17
0.0
 27
1.0
 37
0.0
 76
     0
330
58
  0
LAYOUT
  5
5E
102
{ACAD_XDICTIONARY
360
9D4
102
}
102
{ACAD_REACTORS
330
1A
102
}
330
1A
100
AcDbPlotSettings
  1

  2
None
  4

  6

 40
0.0
 41
0.0
 42
0.0
 43
0.0
 44
0.0
 45
0.0
 46
0.0
 47
0.0
 48
0.0
 49
0.0
140
0.0
141
0.0
142
1.0
143
1.0
 70
   688
 72
     0
 73
     0
 74
     5
  7

 75
    16
147
1.0
148
0.0
149
0.0
100
AcDbLayout
  1
Layout2
 70
     1
 71
     2
 10
0.0
 20
0.0
 11
12.0
 21
9.0
 12
0.0
 22
0.0
 32
0.0
 14
0.0
 24
0.0
 34
0.0
 15
0.0
 25
0.0
 35
0.0
146
0.0
 13
0.0
 23
0.0
 33
0.0
 16
1.0
 26
0.0
 36
0.0
 17
0.0
 27
1.0
 37
0.0
 76
     0
330
5D
  0
LAYOUT
  5
22
102
{ACAD_XDICTIONARY
360
9D0
102
}
102
{ACAD_REACTORS
330
1A
102
}
330
1A
100
AcDbPlotSettings
  1

  2
none_device
  4
ANSI_A_(8.50_x_11.00_Inches)
  6

 40
6.349999904632567
 41
19.04999923706055
 42
6.350006103515625
 43
19.04998779296875
 44
215.8999938964844
 45
279.3999938964844
 46
0.0
 47
0.0
 48
0.0
 49
0.0
140
0.0
141
0.0
142
1.0
143
2.584895464708373
 70
 11952
 72
     0
 73
     1
 74
     0
  7

 75
     0
147
0.3868628397755418
148
0.0
149
0.0
100
AcDbLayout
  1
Model
 70
     1
 71
     0
 10
0.0
 20
0.0
 11
12.0
 21
9.0
 12
0.0
 22
0.0
 32
0.0
 14
0.0
 24
0.0
 34
0.0
 15
0.0
 25
0.0
 35
0.0
146
0.0
 13
0.0
 23
0.0
 33
0.0
 16
1.0
 26
0.0
 36
0.0
 17
0.0
 27
1.0
 37
0.0
 76
     0
330
1F
331
94
  0
MATERIAL
  5
97
102
{ACAD_XDICTIONARY
360
188
102
}
102
{ACAD_REACTORS
330
72
102
}
330
72
100
AcDbMaterial
  1
ByBlock
  0
MATERIAL
  5
96
102
{ACAD_XDICTIONARY
360
186
102
}
102
{ACAD_REACTORS
330
72
102
}
330
72
100
AcDbMaterial
  1
ByLayer
  0
MATERIAL
  5
98
102
{ACAD_XDICTIONARY
360
110
102
}
102
{ACAD_REACTORS
330
72
102
}
330
72
100
AcDbMaterial
  1
Global
 43
0.0208000000566244
 43
0.0
 43
0.0
 43
0.0
 43
0.0
 43
0.0208000000566244
 43
0.0
 43
0.0
 43
0.0
 43
0.0
 43
1.0
 43
0.0
 43
0.0
 43
0.0
 43
0.0
 43
1.0
 49
0.0208000000566244
 49
0.0
 49
0.0
 49
0.0
 49
0.0
 49
0.0208000000566244
 49
0.0
 49
0.0
 49
0.0
 49
0.0
 49
1.0
 49
0.0
 49
0.0
 49
0.0
 49
0.0
 49
1.0
142
0.0208000000566244
142
0.0
142
0.0
142
0.0
142
0.0
142
0.0208000000566244
142
0.0
142
0.0
142
0.0
142
0.0
142
1.0
142
0.0
142
0.0
142
0.0
142
0.0
142
1.0
144
0.0208000000566244
144
0.0
144
0.0
144
0.0
144
0.0
144
0.0208000000566244
144
0.0
144
0.0
144
0.0
144
0.0
144
1.0
144
0.0
144
0.0
144
0.0
144
0.0
144
1.0
1001
ACAD
1070
    -1
1070
     3
1070
     0
1000

1071
        0
1070
     0
  0
MLEADERSTYLE
  5
D8
102
{ACAD_REACTORS
330
D7
102
}
330
D7
100
AcDbMLeaderStyle
170
     2
171
     1
172
     0
 90
        2
 40
0.0
 41
0.0
173
     1
 91
-1056964608
340
14
 92
       -2
290
     1
 42
0.09
291
     1
 43
0.36
  3
Standard
 44
0.18
300

342
11
174
     1
178
     1
175
     1
176
     0
 93
-1056964608
 45
0.18
292
     0
297
     0
 46
0.18
 94
-1056964608
 47
1.0
 49
1.0
140
1.0
293
     1
141
0.0
294
     1
177
     0
142
1.0
295
     0
296
     0
143
0.125
1001
ACAD_MLEADERVER
1070
     2
  0
MLINESTYLE
  5
18
102
{ACAD_REACTORS
330
17
102
}
330
17
100
AcDbMlineStyle
  2
STANDARD
 70
     0
  3

 62
   256
 51
90.0
 52
90.0
 71
     2
 49
0.5
 62
   256
  6
BYLAYER
 49
-0.5
 62
   256
  6
BYLAYER
  0
ACDBPLACEHOLDER
  5
F
102
{ACAD_REACTORS
330
E
102
}
330
E
  0
SCALE
  5
B7
102
{ACAD_REACTORS
330
B6
102
}
330
B6
100
AcDbScale
 70
     0
300
1:1
140
1.0
141
1.0
290
     1
  0
SCALE
  5
124
102
{ACAD_REACTORS
330
B6
102
}
330
B6
100
AcDbScale
 70
     0
300
1:2
140
1.0
141
2.0
290
     0
  0
SCALE
  5
125
102
{ACAD_REACTORS
330
B6
102
}
330
B6
100
AcDbScale
 70
     0
300
1:4
140
1.0
141
4.0
290
     0
  0
SCALE
  5
126
102
{ACAD_REACTORS
330
B6
102
}
330
B6
100
AcDbScale
 70
     0
300
1:5
140
1.0
141
5.0
290
     0
  0
SCALE
  5
127
102
{ACAD_REACTORS
330
B6
102
}
330
B6
100
AcDbScale
 70
     0
300
1:8
140
1.0
141
8.0
290
     0
  0
SCALE
  5
128
102
{ACAD_REACTORS
330
B6
102
}
330
B6
100
AcDbScale
 70
     0
300
1:10
140
1.0
141
10.0
290
     0
  0
SCALE
  5
129
102
{ACAD_REACTORS
330
B6
102
}
330
B6
100
AcDbScale
 70
     0
300
1:16
140
1.0
141
16.0
290
     0
  0
SCALE
  5
12A
102
{ACAD_REACTORS
330
B6
102
}
330
B6
100
AcDbScale
 70
     0
300
1:20
140
1.0
141
20.0
290
     0
  0
SCALE
  5
12B
102
{ACAD_REACTORS
330
B6
102
}
330
B6
100
AcDbScale
 70
     0
300
1:30
140
1.0
141
30.0
290
     0
  0
SCALE
  5
12C
102
{ACAD_REACTORS
330
B6
102
}
330
B6
100
AcDbScale
 70
     0
300
1:40
140
1.0
141
40.0
290
     0
  0
SCALE
  5
12D
102
{ACAD_REACTORS
330
B6
102
}
330
B6
100
AcDbScale
 70
     0
300
1:50
140
1.0
141
50.0
290
     0
  0
SCALE
  5
12E
102
{ACAD_REACTORS
330
B6
102
}
330
B6
100
AcDbScale
 70
     0
300
1:100
140
1.0
141
100.0
290
     0
  0
SCALE
  5
12F
102
{ACAD_REACTORS
330
B6
102
}
330
B6
100
AcDbScale
 70
     0
300
2:1
140
2.0
141
1.0
290
     0
  0
SCALE
  5
130
102
{ACAD_REACTORS
330
B6
102
}
330
B6
100
AcDbScale
 70
     0
300
4:1
140
4.0
141
1.0
290
     0
  0
SCALE
  5
131
102
{ACAD_REACTORS
330
B6
102
}
330
B6
100
AcDbScale
 70
     0
300
8:1
140
8.0
141
1.0
290
     0
  0
SCALE
  5
132
102
{ACAD_REACTORS
330
B6
102
}
330
B6
100
AcDbScale
 70
     0
300
10:1
140
10.0
141
1.0
290
     0
  0
SCALE
  5
133
102
{ACAD_REACTORS
330
B6
102
}
330
B6
100
AcDbScale
 70
     0
300
100:1
140
100.0
141
1.0
290
     0
  0
SCALE
  5
134
102
{ACAD_REACTORS
330
B6
102
}
330
B6
100
AcDbScale
 70
     0
300
1/128" = 1'-0"
140
0.0078125
141
12.0
290
     0
  0
SCALE
  5
135
102
{ACAD_REACTORS
330
B6
102
}
330
B6
100
AcDbScale
 70
     0
300
1/64" = 1'-0"
140
0.015625
141
12.0
290
     0
  0
SCALE
  5
136
102
{ACAD_REACTORS
330
B6
102
}
330
B6
100
AcDbScale
 70
     0
300
1/32" = 1'-0"
140
0.03125
141
12.0
290
     0
  0
SCALE
  5
137
102
{ACAD_REACTORS
330
B6
102
}
330
B6
100
AcDbScale
 70
     0
300
1/16" = 1'-0"
140
0.0625
141
12.0
290
     0
  0
SCALE
  5
138
102
{ACAD_REACTORS
330
B6
102
}
330
B6
100
AcDbScale
 70
     0
300
3/32" = 1'-0"
140
0.09375
141
12.0
290
     0
  0
SCALE
  5
139
102
{ACAD_REACTORS
330
B6
102
}
330
B6
100
AcDbScale
 70
     0
300
1/8" = 1'-0"
140
0.125
141
12.0
290
     0
  0
SCALE
  5
13A
102
{ACAD_REACTORS
330
B6
102
}
330
B6
100
AcDbScale
 70
     0
300
3/16" = 1'-0"
140
0.1875
141
12.0
290
     0
  0
SCALE
  5
13B
102
{ACAD_REACTORS
330
B6
102
}
330
B6
100
AcDbScale
 70
     0
300
1/4" = 1'-0"
140
0.25
141
12.0
290
     0
  0
SCALE
  5
13C
102
{ACAD_REACTORS
330
B6
102
}
330
B6
100
AcDbScale
 70
     0
300
3/8" = 1'-0"
140
0.375
141
12.0
290
     0
  0
SCALE
  5
13D
102
{ACAD_REACTORS
330
B6
102
}
330
B6
100
AcDbScale
 70
     0
300
1/2" = 1'-0"
140
0.5
141
12.0
290
     0
  0
SCALE
  5
13E
102
{ACAD_REACTORS
330
B6
102
}
330
B6
100
AcDbScale
 70
     0
300
3/4" = 1'-0"
140
0.75
141
12.0
290
     0
  0
SCALE
  5
13F
102
{ACAD_REACTORS
330
B6
102
}
330
B6
100
AcDbScale
 70
     0
300
1" = 1'-0"
140
1.0
141
12.0
290
     0
  0
SCALE
  5
140
102
{ACAD_REACTORS
330
B6
102
}
330
B6
100
AcDbScale
 70
     0
300
1-1/2" = 1'-0"
140
1.5
141
12.0
290
     0
  0
SCALE
  5
141
102
{ACAD_REACTORS
330
B6
102
}
330
B6
100
AcDbScale
 70
     0
300
3" = 1'-0"
140
3.0
141
12.0
290
     0
  0
SCALE
  5
142
102
{ACAD_REACTORS
330
B6
102
}
330
B6
100
AcDbScale
 70
     0
300
6" = 1'-0"
140
6.0
141
12.0
290
     0
  0
SCALE
  5
143
102
{ACAD_REACTORS
330
B6
102
}
330
B6
100
AcDbScale
 70
     0
300
1'-0" = 1'-0"
140
12.0
141
12.0
290
     0
  0
ACDBSECTIONVIEWSTYLE
  5
1AA
102
{ACAD_REACTORS
330
1A8
102
}
330
1A8
100
AcDbModelDocViewStyle
 70
     0
  3
Imperial24
290
     0
100
AcDbSectionViewStyle
 70
     0
 71
     0
 90
       78
 71
     1
340
11
 40
0.24
340
0
340
0
 40
0.24
300
I, O, Q, S, X, Z
 40
0.48
 90
        3
 40
0.18
 90
        1
 71
     2
340
1A9
 90
       25
340
16
 90
       50
 40
0.24
 40
0.0
 40
0.24
 71
     3
340
11
 40
0.24
 90
        1
 40
0.75
 90
        1
300
%<\AcVar ViewType \f "%tc1">% %<\AcVar ViewSectionStartId>%-%<\AcVar ViewSectionEndId>%\PSCALE %<\AcVar ViewScale \f "%sn">%
 71
     4
300
ANSI31
 40
1.0
 90
        0
290
     0
290
     0
 90
        6
 40
0.0
 40
1.570796326794896
 40
0.2617993877991494
 40
1.308996938995747
 40
-0.2617993877991494
 40
1.832595714594044
  0
TABLESTYLE
  5
87
102
{ACAD_XDICTIONARY
360
104
102
}
102
{ACAD_REACTORS
330
86
102
}
330
86
100
AcDbTableStyle
  3
Standard
 70
     0
 71
     0
 40
0.06
 41
0.06
280
     0
281
     0
  7
Standard
140
0.18
170
     2
 62
     0
 63
     7
283
     0
274
    -2
284
     1
 64
     0
275
    -2
285
     1
 65
     0
276
    -2
286
     1
 66
     0
277
    -2
287
     1
 67
     0
278
    -2
288
     1
 68
     0
279
    -2
289
     1
 69
     0
  7
Standard
140
0.25
170
     5
 62
     0
 63
     7
283
     0
274
    -2
284
     1
 64
     0
275
    -2
285
     1
 65
     0
276
    -2
286
     1
 66
     0
277
    -2
287
     1
 67
     0
278
    -2
288
     1
 68
     0
279
    -2
289
     1
 69
     0
  7
Standard
140
0.18
170
     5
 62
     0
 63
     7
283
     0
274
    -2
284
     1
 64
     0
275
    -2
285
     1
 65
     0
276
    -2
286
     1
 66
     0
277
    -2
287
     1
 67
     0
278
    -2
288
     1
 68
     0
279
    -2
289
     1
 69
     0
  0
VISUALSTYLE
  5
9F
102
{ACAD_XDICTIONARY
360
9E1
102
}
102
{ACAD_REACTORS
330
99
102
}
330
99
100
AcDbVisualStyle
  2

 70
     4
 71
     0
 72
     2
 73
     1
 90
        0
 40
-0.6
 41
-30.0
 62
     5
 63
     7
 74
     1
 91
        4
 64
     7
 65
   257
 75
     1
175
     1
 42
1.0
 92
        0
 66
   257
 43
1.0
 76
     1
 77
     6
 78
     2
 67
     7
 79
     5
170
     0
171
     0
290
     0
174
     0
 93
        1
 44
0.0
173
     0
291
     0
 45
0.0
1001
ACAD
1000
AcDbSavedByObjectVersion
1070
     0
  0
VISUALSTYLE
  5
9E
102
{ACAD_XDICTIONARY
360
9DF
102
}
102
{ACAD_REACTORS
330
99
102
}
330
99
100
AcDbVisualStyle
  2

 70
     7
 71
     1
 72
     0
 73
     1
 90
        0
 40
-0.6
 41
-30.0
 62
     5
 63
     7
 74
     0
 91
        4
 64
     7
 65
   257
 75
     1
175
     1
 42
1.0
 92
        8
 66
     7
 43
1.0
 76
     1
 77
     6
 78
     2
 67
     7
 79
     5
170
     0
171
     0
290
     0
174
     0
 93
        1
 44
0.0
173
     0
291
     1
 45
0.0
1001
ACAD
1000
AcDbSavedByObjectVersion
1070
     0
  0
VISUALSTYLE
  5
A5
102
{ACAD_XDICTIONARY
360
9ED
102
}
102
{ACAD_REACTORS
330
99
102
}
330
99
100
AcDbVisualStyle
  2

 70
    12
 71
     2
 72
     2
 73
     1
 90
        0
 40
-0.6
 41
-30.0
 62
     5
 63
     7
 74
     1
 91
        4
 64
     7
 65
   257
 75
     1
175
     1
 42
1.0
 92
        8
 66
     7
 43
1.0
 76
     1
 77
     6
 78
     2
 67
     7
 79
     5
170
     0
171
     0
290
     0
174
     0
 93
        1
 44
50.0
173
     0
291
     1
 45
0.0
1001
ACAD
1000
AcDbSavedByObjectVersion
1070
     0
  0
VISUALSTYLE
  5
A9
102
{ACAD_XDICTIONARY
360
9F5
102
}
102
{ACAD_REACTORS
330
99
102
}
330
99
100
AcDbVisualStyle
  2

 70
    16
 71
     2
 72
     2
 73
     3
 90
        0
 40
-0.6
 41
-30.0
 62
     5
 63
     8
 74
     1
 91
        4
 64
     7
 65
   257
 75
     1
175
     1
 42
1.0
 92
        8
 66
     8
 43
1.0
 76
     1
 77
     6
 78
     2
 67
     7
 79
     5
170
     0
171
     0
290
     0
174
     0
 93
        1
 44
0.0
173
     0
291
     1
 45
0.0
1001
ACAD
1000
AcDbSavedByObjectVersion
1070
     0
  0
VISUALSTYLE
  5
A2
102
{ACAD_XDICTIONARY
360
9E7
102
}
102
{ACAD_REACTORS
330
99
102
}
330
99
100
AcDbVisualStyle
  2

 70
     9
 71
     3
 72
     2
 73
     1
 90
        0
 40
-0.6
 41
-30.0
 62
     5
 63
     7
 74
     2
 91
        2
 64
     7
 65
   257
 75
     1
175
     1
 42
40.0
 92
        8
 66
     7
 43
1.0
 76
     1
 77
     6
 78
     2
 67
     7
 79
     3
170
     0
171
     0
290
     0
174
     0
 93
        1
 44
0.0
173
     0
291
     0
 45
0.0
1001
ACAD
1000
AcDbSavedByObjectVersion
1070
     0
  0
VISUALSTYLE
  5
A4
102
{ACAD_XDICTIONARY
360
9EB
102
}
102
{ACAD_REACTORS
330
99
102
}
330
99
100
AcDbVisualStyle
  2

 70
    11
 71
     2
 72
     2
 73
     1
 90
        0
 40
-0.6
 41
-30.0
 62
     5
 63
     7
 74
     1
 91
        4
 64
     7
 65
   257
 75
     1
175
     1
 42
1.0
 92
        8
 66
     7
 43
1.0
 76
     1
 77
     6
 78
     2
 67
     7
 79
     5
170
     0
171
     0
290
     0
174
     0
 93
        1
 44
-50.0
173
     0
291
     1
 45
0.0
1001
ACAD
1000
AcDbSavedByObjectVersion
1070
     0
  0
VISUALSTYLE
  5
175
102
{ACAD_XDICTIONARY
360
9FB
102
}
102
{ACAD_REACTORS
330
99
102
}
330
99
100
AcDbVisualStyle
  2

 70
    22
 71
     2
 72
     2
 73
     0
 90
        0
 40
-0.6
 41
-30.0
 62
     5
 63
     7
 74
     1
 91
        4
 64
     7
 65
   257
 75
     1
175
     1
 42
1.0
 92
        8
 66
     7
 43
1.0
 76
     1
 77
     6
 78
     2
 67
     7
 79
     5
170
     0
171
     0
290
     0
174
     0
 93
        1
 44
0.0
173
     0
291
     1
 45
0.0
1001
ACAD
1000
AcDbSavedByObjectVersion
1070
     0
  0
VISUALSTYLE
  5
A8
102
{ACAD_XDICTIONARY
360
9F3
102
}
102
{ACAD_REACTORS
330
99
102
}
330
99
100
AcDbVisualStyle
  2

 70
    15
 71
     2
 72
     2
 73
     1
 90
        0
 40
-0.6
 41
-30.0
 62
     5
 63
     7
 74
     1
 91
        4
 64
     7
 65
   257
 75
     1
175
     1
 42
1.0
 92
        8
 66
     7
 43
1.0
 76
     1
 77
     6
 78
     2
 67
     7
 79
     5
170
     0
171
     0
290
     0
174
     0
 93
        1
 44
0.0
173
     0
291
     1
 45
0.0
1001
ACAD
1000
AcDbSavedByObjectVersion
1070
     0
  0
VISUALSTYLE
  5
9A
102
{ACAD_XDICTIONARY
360
9D7
102
}
102
{ACAD_REACTORS
330
99
102
}
330
99
100
AcDbVisualStyle
  2

 70
     0
 71
     2
 72
     1
 73
     1
 90
        2
 40
-0.6
 41
30.0
 62
     5
 63
     7
 74
     0
 91
        0
 64
     7
 65
   257
 75
     1
175
     1
 42
1.0
 92
        8
 66
     7
 43
1.0
 76
     1
 77
     6
 78
     2
 67
     7
 79
     5
170
     0
171
     0
290
     0
174
     0
 93
       13
 44
0.0
173
     0
291
     1
 45
0.0
1001
ACAD
1000
AcDbSavedByObjectVersion
1070
     0
  0
VISUALSTYLE
  5
9B
102
{ACAD_XDICTIONARY
360
9D9
102
}
102
{ACAD_REACTORS
330
99
102
}
330
99
100
AcDbVisualStyle
  2

 70
     1
 71
     2
 72
     1
 73
     1
 90
        2
 40
-0.6
 41
30.0
 62
     5
 63
     7
 74
     1
 91
        0
 64
     7
 65
   257
 75
     1
175
     1
 42
1.0
 92
        0
 66
   257
 43
1.0
 76
     1
 77
     6
 78
     2
 67
     7
 79
     5
170
     0
171
     0
290
     0
174
     0
 93
       13
 44
0.0
173
     0
291
     1
 45
0.0
1001
ACAD
1000
AcDbSavedByObjectVersion
1070
     0
  0
VISUALSTYLE
  5
9C
102
{ACAD_XDICTIONARY
360
9DB
102
}
102
{ACAD_REACTORS
330
99
102
}
330
99
100
AcDbVisualStyle
  2

 70
     2
 71
     2
 72
     2
 73
     1
 90
        2
 40
-0.6
 41
30.0
 62
     5
 63
     7
 74
     0
 91
        0
 64
     7
 65
   257
 75
     1
175
     1
 42
1.0
 92
        0
 66
     7
 43
1.0
 76
     1
 77
     6
 78
     2
 67
     7
 79
     5
170
     0
171
     0
290
     0
174
     0
 93
       13
 44
0.0
173
     0
291
     1
 45
0.0
1001
ACAD
1000
AcDbSavedByObjectVersion
1070
     0
  0
VISUALSTYLE
  5
9D
102
{ACAD_XDICTIONARY
360
9DD
102
}
102
{ACAD_REACTORS
330
99
102
}
330
99
100
AcDbVisualStyle
  2

 70
     3
 71
     2
 72
     2
 73
     1
 90
        2
 40
-0.6
 41
30.0
 62
     5
 63
     7
 74
     1
 91
        0
 64
     7
 65
   257
 75
     1
175
     1
 42
1.0
 92
        0
 66
   257
 43
1.0
 76
     1
 77
     6
 78
     2
 67
     7
 79
     5
170
     0
171
     0
290
     0
174
     0
 93
       13
 44
0.0
173
     0
291
     1
 45
0.0
1001
ACAD
1000
AcDbSavedByObjectVersion
1070
     0
  0
VISUALSTYLE
  5
A1
102
{ACAD_XDICTIONARY
360
9E5
102
}
102
{ACAD_REACTORS
330
99
102
}
330
99
100
AcDbVisualStyle
  2

 70
     6
 71
     1
 72
     2
 73
     2
 90
        0
 40
-0.6
 41
-30.0
 62
     5
 63
     7
 74
     2
 91
        2
 64
     7
 65
   257
 75
     2
175
     1
 42
40.0
 92
        0
 66
   257
 43
1.0
 76
     1
 77
     6
 78
     2
 67
     7
 79
     3
170
     0
171
     0
290
     0
174
     0
 93
        1
 44
0.0
173
     0
291
     0
 45
0.0
1001
ACAD
1000
AcDbSavedByObjectVersion
1070
     0
  0
VISUALSTYLE
  5
173
102
{ACAD_XDICTIONARY
360
9F7
102
}
102
{ACAD_REACTORS
330
99
102
}
330
99
100
AcDbVisualStyle
  2

 70
    20
 71
     2
 72
     2
 73
     0
 90
        0
 40
-0.6
 41
-30.0
 62
     5
 63
     7
 74
     1
 91
        4
 64
     7
 65
   257
 75
     1
175
     1
 42
1.0
 92
       10
 66
     7
 43
1.0
 76
     1
 77
     6
 78
     2
 67
     7
 79
     5
170
     0
171
     0
290
     0
174
     0
 93
        1
 44
0.0
173
     0
291
     1
 45
0.0
1001
ACAD
1000
AcDbSavedByObjectVersion
1070
     0
  0
VISUALSTYLE
  5
A7
102
{ACAD_XDICTIONARY
360
9F1
102
}
102
{ACAD_REACTORS
330
99
102
}
330
99
100
AcDbVisualStyle
  2

 70
    14
 71
     2
 72
     2
 73
     1
 90
        0
 40
-0.6
 41
-30.0
 62
     5
 63
     7
 74
     1
 91
        4
 64
     7
 65
   257
 75
     7
175
     7
 42
1.0
 92
        8
 66
     7
 43
1.0
 76
     1
 77
     6
 78
     2
 67
     7
 79
     5
170
     0
171
     0
290
     0
174
     0
 93
        1
 44
0.0
173
     0
291
     1
 45
0.0
1001
ACAD
1000
AcDbSavedByObjectVersion
1070
     0
  0
VISUALSTYLE
  5
174
102
{ACAD_XDICTIONARY
360
9F9
102
}
102
{ACAD_REACTORS
330
99
102
}
330
99
100
AcDbVisualStyle
  2

 70
    21
 71
     2
 72
     2
 73
     0
 90
        0
 40
-0.6
 41
-30.0
 62
     5
 63
     7
 74
     1
 91
        4
 64
     7
 65
   257
 75
     1
175
     1
 42
1.0
 92
        9
 66
     7
 43
1.0
 76
     1
 77
     6
 78
     2
 67
     7
 79
     5
170
     0
171
     0
290
     0
174
     0
 93
        1
 44
0.0
173
     0
291
     1
 45
0.0
1001
ACAD
1000
AcDbSavedByObjectVersion
1070
     0
  0
VISUALSTYLE
  5
A3
102
{ACAD_XDICTIONARY
360
9E9
102
}
102
{ACAD_REACTORS
330
99
102
}
330
99
100
AcDbVisualStyle
  2

 70
     8
 71
     2
 72
     3
 73
     0
 90
        2
 40
-0.6
 41
30.0
 62
     5
 63
     7
 74
     0
 91
        0
 64
     7
 65
   257
 75
     1
175
     1
 42
1.0
 92
        8
 66
   257
 43
1.0
 76
     1
 77
     6
 78
     2
 67
     7
 79
     3
170
     0
171
     0
290
     0
174
     0
 93
       13
 44
0.0
173
     0
291
     0
 45
0.0
1001
ACAD
1000
AcDbSavedByObjectVersion
1070
     0
  0
VISUALSTYLE
  5
182
102
{ACAD_XDICTIONARY
360
A05
102
}
102
{ACAD_REACTORS
330
99
102
}
330
99
100
AcDbVisualStyle
  2

 70
    27
 71
     2
 72
     2
 73
     1
 90
        2
 40
-0.6
 41
30.0
 62
     5
 63
     7
 74
     0
 91
        4
 64
     7
 65
   257
 75
     1
175
     1
 42
1.0
 92
        8
 66
   257
 43
1.0
 76
     1
 77
     6
 78
     2
 67
     8
 79
     3
170
     0
171
     0
290
     0
174
     0
 93
        5
 44
0.0
173
     0
291
     0
 45
0.0
1001
ACAD
1000
AcDbSavedByObjectVersion
1070
     0
  0
VISUALSTYLE
  5
181
102
{ACAD_XDICTIONARY
360
A03
102
}
102
{ACAD_REACTORS
330
99
102
}
330
99
100
AcDbVisualStyle
  2

 70
    26
 71
     2
 72
     2
 73
     1
 90
        2
 40
-0.6
 41
30.0
 62
     5
 63
     7
 74
     1
 91
       10
 64
     7
 65
   257
 75
     2
175
     1
 42
1.0
 92
        8
 66
   257
 43
1.0
 76
     1
 77
     6
 78
     2
 67
     7
 79
     3
170
     0
171
     0
290
     0
174
     0
 93
        5
 44
0.0
173
     0
291
     0
 45
0.0
1001
ACAD
1000
AcDbSavedByObjectVersion
1070
     0
  0
VISUALSTYLE
  5
17E
102
{ACAD_XDICTIONARY
360
9FD
102
}
102
{ACAD_REACTORS
330
99
102
}
330
99
100
AcDbVisualStyle
  2

 70
    23
 71
     2
 72
     2
 73
     3
 90
        0
 40
-0.6
 41
-30.0
 62
     5
 63
     7
 74
     2
 91
        2
 64
     7
 65
     7
 75
     1
175
     1
 42
40.0
 92
        8
 66
     7
 43
1.0
 76
     1
 77
     6
 78
     2
 67
     7
 79
     3
170
     0
171
     0
290
     0
174
     0
 93
        1
 44
0.0
173
     0
291
     0
 45
0.0
1001
ACAD
1000
AcDbSavedByObjectVersion
1070
     0
  0
VISUALSTYLE
  5
17F
102
{ACAD_XDICTIONARY
360
9FF
102
}
102
{ACAD_REACTORS
330
99
102
}
330
99
100
AcDbVisualStyle
  2

 70
    24
 71
     1
 72
     2
 73
     2
 90
        0
 40
-0.6
 41
-30.0
 62
     5
 63
     7
 74
     2
 91
        2
 64
     7
 65
     7
 75
     1
175
     1
 42
40.0
 92
       11
 66
     7
 43
1.0
 76
     1
 77
     6
 78
     2
 67
     7
 79
     6
170
     0
171
     0
290
     0
174
     0
 93
        1
 44
0.0
173
     0
291
     0
 45
0.0
1001
ACAD
1000
AcDbSavedByObjectVersion
1070
     0
  0
VISUALSTYLE
  5
A6
102
{ACAD_XDICTIONARY
360
9EF
102
}
102
{ACAD_REACTORS
330
99
102
}
330
99
100
AcDbVisualStyle
  2

 70
    13
 71
     2
 72
     2
 73
     1
 90
        0
 40
-0.6
 41
-30.0
 62
     5
 63
     7
 74
     1
 91
        4
 64
     7
 65
   257
 75
     1
175
     1
 42
1.0
 92
       12
 66
     7
 43
1.0
 76
     1
 77
     6
 78
     2
 67
     7
 79
     5
170
     0
171
     0
290
     0
174
     0
 93
        1
 44
0.0
173
     0
291
     1
 45
0.0
1001
ACAD
1000
AcDbSavedByObjectVersion
1070
     0
  0
VISUALSTYLE
  5
A0
102
{ACAD_XDICTIONARY
360
9E3
102
}
102
{ACAD_REACTORS
330
99
102
}
330
99
100
AcDbVisualStyle
  2

 70
     5
 71
     0
 72
     2
 73
     0
 90
        0
 40
-0.6
 41
-30.0
 62
     5
 63
     7
 74
     1
 91
        4
 64
     7
 65
   257
 75
     1
175
     1
 42
1.0
 92
        0
 66
   257
 43
1.0
 76
     1
 77
     6
 78
     2
 67
     7
 79
     3
170
     0
171
     0
290
     0
174
     0
 93
        1
 44
0.0
173
     0
291
     0
 45
0.0
1001
ACAD
1000
AcDbSavedByObjectVersion
1070
     0
  0
VISUALSTYLE
  5
180
102
{ACAD_XDICTIONARY
360
A01
102
}
102
{ACAD_REACTORS
330
99
102
}
330
99
100
AcDbVisualStyle
  2

 70
    25
 71
     2
 72
     2
 73
     1
 90
        1
 40
0.5
 41
-30.0
 62
     5
 63
     7
 74
     1
 91
        0
 64
     7
 65
   257
 75
     1
175
     1
 42
1.0
 92
        8
 66
     7
 43
1.0
 76
     1
 77
     6
 78
     2
 67
     7
 79
     3
170
     0
171
     0
290
     0
174
     0
 93
       13
 44
0.0
173
     0
291
     0
 45
0.0
1001
ACAD
1000
AcDbSavedByObjectVersion
1070
     0
  0
DICTIONARYVAR
  5
F0
102
{ACAD_REACTORS
330
66
102
}
330
66
100
DictionaryVariables
280
     0
  1
1:1
  0
DICTIONARYVAR
  5
EF
102
{ACAD_REACTORS
330
66
102
}
330
66
100
DictionaryVariables
280
     0
  1
STANDARD
  0
DICTIONARYVAR
  5
89
102
{ACAD_REACTORS
330
66
102
}
330
66
100
DictionaryVariables
280
     0
  1
STANDARD
  0
DICTIONARYVAR
  5
1B7
102
{ACAD_REACTORS
330
66
102
}
330
66
100
DictionaryVariables
280
     0
  1
Imperial24
  0
DICTIONARYVAR
  5
1B8
102
{ACAD_REACTORS
330
66
102
}
330
66
100
DictionaryVariables
280
     0
  1
Imperial24
  0
DICTIONARYVAR
  5
67
102
{ACAD_REACTORS
330
66
102
}
330
66
100
DictionaryVariables
280
     0
  1
2
  0
DICTIONARYVAR
  5
6B
102
{ACAD_REACTORS
330
66
102
}
330
66
100
DictionaryVariables
280
     0
  1
1
  0
DICTIONARYVAR
  5
802
102
{ACAD_REACTORS
330
66
102
}
330
66
100
DictionaryVariables
280
     0
  1
0
  0
DICTIONARYVAR
  5
14D
102
{ACAD_REACTORS
330
66
102
}
330
66
100
DictionaryVariables
280
     0
  1
0
  0
DICTIONARYVAR
  5
14E
102
{ACAD_REACTORS
330
66
102
}
330
66
100
DictionaryVariables
280
     0
  1
0
  0
DICTIONARYVAR
  5
800
102
{ACAD_REACTORS
330
66
102
}
330
66
100
DictionaryVariables
280
     0
  1
2
  0
DICTIONARYVAR
  5
7FF
102
{ACAD_REACTORS
330
66
102
}
330
66
100
DictionaryVariables
280
     0
  1
1
  0
DICTIONARYVAR
  5
801
102
{ACAD_REACTORS
330
66
102
}
330
66
100
DictionaryVariables
280
     0
  1
127
  0
DICTIONARYVAR
  5
9C7
102
{ACAD_REACTORS
330
66
102
}
330
66
100
DictionaryVariables
280
     0
  1
2
  0
DICTIONARY
  5
1EB
102
{ACAD_REACTORS
330
1E9
102
}
330
1E9
100
AcDbDictionary
281
     1
  0
DICTIONARY
  5
9D2
330
59
100
AcDbDictionary
280
     1
281
     1
  3
ACAD_XREC_ROUNDTRIP
360
9D3
  0
DICTIONARY
  5
9D4
330
5E
100
AcDbDictionary
280
     1
281
     1
  3
ACAD_XREC_ROUNDTRIP
360
9D5
  0
DICTIONARY
  5
9D0
330
22
100
AcDbDictionary
280
     1
281
     1
  3
ACAD_XREC_ROUNDTRIP
360
9D1
  0
DICTIONARY
  5
188
330
97
100
AcDbDictionary
280
     1
281
     1
  3
ACAD_XREC_ROUNDTRIP
360
81B
  3
FBXASSET
360
189
  0
DICTIONARY
  5
186
330
96
100
AcDbDictionary
280
     1
281
     1
  3
ACAD_XREC_ROUNDTRIP
360
81A
  3
FBXASSET
360
187
  0
DICTIONARY
  5
110
330
98
100
AcDbDictionary
280
     1
281
     1
  3
ACAD_XREC_ROUNDTRIP
360
81C
  3
BUMPTILE
360
112
  3
DIFFUSETILE
360
111
  3
FBXASSET
360
18A
  3
OPACITYTILE
360
113
  3
REFLECTIONTILE
360
114
  0
DICTIONARY
  5
104
330
87
100
AcDbDictionary
280
     1
281
     1
  3
ACAD_ROUNDTRIP_2008_TABLESTYLE_CELLSTYLEMAP
360
9C8
  3
ACAD_XREC_ROUNDTRIP
360
9D6
  0
DICTIONARY
  5
9E1
330
9F
100
AcDbDictionary
280
     1
281
     1
  3
ACAD_XREC_ROUNDTRIP
360
9E2
  0
DICTIONARY
  5
9DF
330
9E
100
AcDbDictionary
280
     1
281
     1
  3
ACAD_XREC_ROUNDTRIP
360
9E0
  0
DICTIONARY
  5
9ED
330
A5
100
AcDbDictionary
280
     1
281
     1
  3
ACAD_XREC_ROUNDTRIP
360
9EE
  0
DICTIONARY
  5
9F5
330
A9
100
AcDbDictionary
280
     1
281
     1
  3
ACAD_XREC_ROUNDTRIP
360
9F6
  0
DICTIONARY
  5
9E7
330
A2
100
AcDbDictionary
280
     1
281
     1
  3
ACAD_XREC_ROUNDTRIP
360
9E8
  0
DICTIONARY
  5
9EB
330
A4
100
AcDbDictionary
280
     1
281
     1
  3
ACAD_XREC_ROUNDTRIP
360
9EC
  0
DICTIONARY
  5
9FB
330
175
100
AcDbDictionary
280
     1
281
     1
  3
ACAD_XREC_ROUNDTRIP
360
9FC
  0
DICTIONARY
  5
9F3
330
A8
100
AcDbDictionary
280
     1
281
     1
  3
ACAD_XREC_ROUNDTRIP
360
9F4
  0
DICTIONARY
  5
9D7
330
9A
100
AcDbDictionary
280
     1
281
     1
  3
ACAD_XREC_ROUNDTRIP
360
9D8
  0
DICTIONARY
  5
9D9
330
9B
100
AcDbDictionary
280
     1
281
     1
  3
ACAD_XREC_ROUNDTRIP
360
9DA
  0
DICTIONARY
  5
9DB
330
9C
100
AcDbDictionary
280
     1
281
     1
  3
ACAD_XREC_ROUNDTRIP
360
9DC
  0
DICTIONARY
  5
9DD
330
9D
100
AcDbDictionary
280
     1
281
     1
  3
ACAD_XREC_ROUNDTRIP
360
9DE
  0
DICTIONARY
  5
9E5
330
A1
100
AcDbDictionary
280
     1
281
     1
  3
ACAD_XREC_ROUNDTRIP
360
9E6
  0
DICTIONARY
  5
9F7
330
173
100
AcDbDictionary
280
     1
281
     1
  3
ACAD_XREC_ROUNDTRIP
360
9F8
  0
DICTIONARY
  5
9F1
330
A7
100
AcDbDictionary
280
     1
281
     1
  3
ACAD_XREC_ROUNDTRIP
360
9F2
  0
DICTIONARY
  5
9F9
330
174
100
AcDbDictionary
280
     1
281
     1
  3
ACAD_XREC_ROUNDTRIP
360
9FA
  0
DICTIONARY
  5
9E9
330
A3
100
AcDbDictionary
280
     1
281
     1
  3
ACAD_XREC_ROUNDTRIP
360
9EA
  0
DICTIONARY
  5
A05
330
182
100
AcDbDictionary
280
     1
281
     1
  3
ACAD_XREC_ROUNDTRIP
360
A06
  0
DICTIONARY
  5
A03
330
181
100
AcDbDictionary
280
     1
281
     1
  3
ACAD_XREC_ROUNDTRIP
360
A04
  0
DICTIONARY
  5
9FD
330
17E
100
AcDbDictionary
280
     1
281
     1
  3
ACAD_XREC_ROUNDTRIP
360
9FE
  0
DICTIONARY
  5
9FF
330
17F
100
AcDbDictionary
280
     1
281
     1
  3
ACAD_XREC_ROUNDTRIP
360
A00
  0
DICTIONARY
  5
9EF
330
A6
100
AcDbDictionary
280
     1
281
     1
  3
ACAD_XREC_ROUNDTRIP
360
9F0
  0
DICTIONARY
  5
9E3
330
A0
100
AcDbDictionary
280
     1
281
     1
  3
ACAD_XREC_ROUNDTRIP
360
9E4
  0
DICTIONARY
  5
A01
330
180
100
AcDbDictionary
280
     1
281
     1
  3
ACAD_XREC_ROUNDTRIP
360
A02
  0
XRECORD
  5
9D3
102
{ACAD_REACTORS
330
9D2
102
}
330
9D2
100
AcDbXrecord
280
     1
102
SHADEPLOT
 70
     0
102
SHADEPLOTRESLEVEL
 70
     2
102
SHADEPLOTCUSTOMDPI
 70
   300
  0
XRECORD
  5
9D5
102
{ACAD_REACTORS
330
9D4
102
}
330
9D4
100
AcDbXrecord
280
     1
102
SHADEPLOT
 70
     0
102
SHADEPLOTRESLEVEL
 70
     2
102
SHADEPLOTCUSTOMDPI
 70
   300
  0
XRECORD
  5
9D1
102
{ACAD_REACTORS
330
9D0
102
}
330
9D0
100
AcDbXrecord
280
     1
102
SHADEPLOT
 70
     0
102
SHADEPLOTRESLEVEL
 70
     2
102
SHADEPLOTCUSTOMDPI
 70
   300
  0
XRECORD
  5
81B
102
{ACAD_REACTORS
330
188
102
}
330
188
100
AcDbXrecord
280
     1
102
MATERIAL
148
0.0
149
0.0
149
0.0
 93
        0
 94
      127
282
     0
 72
     1
 77
     1
171
     1
175
     1
179
     1
273
     0
  0
XRECORD
  5
189
102
{ACAD_REACTORS
330
188
102
}
330
188
100
AcDbXrecord
280
     1
 70
     1
 90
429727718
  1
508B35C9-AEE7-456F-BE74-D52651303AC6
310
504B03040A0000080000B670623B3DEE336E79000000790000001B0000006175746F6465736B2D64657369676E2D7061636B6167652E786D6C3C3F786D6C2076657273696F6E3D22312E302220656E636F64696E673D227574662D3822203F3E3C666F726D6174733E3C666F726D61743E687474703A2F2F736368656D612E
310
6175746F6465736B2E636F6D2F64657369676E2D7061636B6167652F323030393C2F666F726D61743E3C2F666F726D6174733E504B0304140006080800B670623BD486FD9CA0000000F4000000130000005B436F6E74656E745F54797065735D2E786D6C7D8EC10E82300C865F65E91D8A1E8C310C0EEA1BF002731658846E
310
D98AC1B77784ABF1D8FE5FBFBF75BBCE937A534CCEB38643598122B6FEE978D0B0485F9C41B54DDD7D022595594E1A469170414C76A4D9A4D207E29CF43ECE46F218070CC6BECC4078ACAA135ACF422C856C0E68EA1BF5669944DDD7BCDE7B1F8E415D77AECB980613C2E4AC91FC167A2B244592486606FC29C8FD7F045B9A
310
EF7053A7E60B504B0304140006080800B670623B28ED286BEB0000007C01000008000000636F72652E786D6C8D90416EC3201045AF82665B6183218D6D61A254764FD00B204C5C94182C03558F5F9C3852BBEB6A467FFE9B197D71FA9E6FE8CBACC17AD7012D0820E3B41FAD9B3A48F1826B40272956EFE32F1B20A766D3C1
310
268314D3EAD3B24BDABB685CCCAAF3A3D94515828980F42D371D04FD696655A814B3235C8B45E9AB9A4C419F5D8653B2237A1CB163DE672FD6AC209BF3C08E0D1B30EB19C3FC9D72FCC6EB231EFA33EDE96BDD341517E5064B11EDFCBCAF57A3A2194156843498524CAA0FCA5B7268F9E185D42D21A2DCEC7FA0B48CFF8492
310
759155FBBB0F2C80A4F991FB408A72CB22977B50B96EB9C91F504B0304140006080800B670623B55019EA25F0000007C00000007000000636E782E786D6C4DCB3B0E80201045D1AD90E915ED2CF8AC45050C11660C8261F98AB1B07AC9C97D42D718D865D3E909258CFD00CCE24AC6E326A164D74DC0B4128928FF32603847
310
2BA13128B1252AC747C6BAB984FC68F0B87FE8960A5C09FE86CFB69FBA01504B0304140006080800B670623B7BC41AC871010000D40300000C0000006662782F636F72652E786D6CC553ED6E8320147D15C2DF4501B56B6D90A64BBB27D80B50A5CE54C120983EFEAE1F4DD7A56BBA5FF3879273EEE59E7310BE393735EA95
310
ED2AA333CC428A91D2B9292A5D66D8BB63B0C26823B835C67D2BC348CB46657880B1E0A535BE9DA1DC68A7B403549B42CDA0EC3AE530CA6B5864B8CB3F552343E91D5474A7B095F949962A6421D0502778E72C0840D390E18DC5F170E664C205F7BE2A66B62A605A75AC94C522DDEEE3651AEF837817C741F2CE92E02D592D
310
83FD6ECB76EC7595A651C2C9D02CB8AB9A8BBADC2AE954814544691A3016D0E883256BBA58278B17BA5A53CAC9507ED3E4DBE2C9265F691747B3DCA9ADC382819091F8E1162272A8933DE82182932144F88C09DF060D8140C84E1EEA8B8F1340BDCA9DB1093085F157AA97B557309586747CD0EF0B4EA64E983A6E0EAEEFCE
310
889E9EF17847386AA94B30211D2C0FDE0D3AF9A4610EAD5536E8DD1969631B593F67E381C33F5157F17725E5A636F6BF1491F980C8FC7B90E13E8A2F504B0304140006080800B670623B70102A487D0000009D0000000B0000006662782F636E782E786D6C4DCCD10A83201886E15B91FFDC95A5C30335ACCDFB886521330D
310
A76397BF1A1DECE883878F57749FD5A3B74D2F17830472A901D9F088930B8B849267CC01754AA418F3DF0D5018572BE160506249B16C274D761E8BCFBB7A179E27F65CB39A0F14D396184C9921B81F34C3ACA1B4B99ABB6E6F062A25AA5F69DF23ACBE504B0304140006080800B670623B3610CA3329010000120200003100
310
00006662782F42384135303843342D343331462D343546312D424341352D3532343432364645413344462F636F72652E786D6C8D515B6EC32010BC0AE22B55850D0E446E848992B43E412FE000495162B07854397EA176A4F62F3F2C9A9D991D58BEBB8F37F0AD7D30CE76905418026DA553C65E3A98E219B510EC04F7CEC5
310
3F3408EC30EA0E16180A7EF12E4D0B249D8DDAC68C5AA7F4020E21E80881BCE54B0783FCD2E3500D296646B856D320AFC34557A4CAEDCC133C449F0380794839A138B47B86DB2345744D7A44594FD0E1B867883594369BFE63BF7EEF793D0B054FC9A8456E548E63CE46FB674D8A58F068C6477CE9F510B582A2C1F80D1182
310
70F349E816B32D65AFB8DD62CCEB42FF274A937A52948C8DEB66893BCB021484D7734370E5D2E9F608A3EF93F3119479ABA0E50B14B8C298119A43CCC4FCFCECB8A18B6388CEE7EF5D5D4F994BD86CBBA182D76543B9FCAE2FD7B24DF103504B0304140006080800B670623B1B8617914E0100003303000030000000666278
310
2F42384135303843342D343331462D343546312D424341352D3532343432364645413344462F636E782E786D6CD593C16EC32010447F0571AD6CE3D489D20813A9877E410FBD62D82434182CC055F3F75D1292E692438FBD206B7698593D61BEFD1E2DF982108D773D6D6B460938E5B571FB9ECE6957AD29D90A1EBC4F7736
310
4A9C1CA1A759A682EF839FA72269D8C9D92654AD71C72206887E0E0A22CAF926B15E498B01E0AA19451807D01A34B919F16B070157417138917400F2F6FA41FCF0092A45DEE414C19BDC21783E4BD39D891265658C3D8DEA00A3ACE59CBC8678ACB54CB26EEB6BD7839D7E9348BE70AD9C8321B9BCA7F9A4A26C542347DEE0
310
50F09802D22BA6749A800A394DD62899107273365E3C82CFC6A55557BC06C10774B7ABE7AEC3B0F34CF06446280E154026D0542C187BA9DAB6628BF7B6DBB0E5A65B3EB1F58631DE64BBE083F7B65CC218087E22CABB042E51D1F2268F1FE12B3EA24D40D63E9CFE00120194D60B9D5BC67FE6D39CDF37E20AF817881F504B
310
0304140006080800B670623BBFEF2E3B690500003C100000340000006662782F42384135303843342D343331462D343546312D424341352D3532343432364645413344462F6F626A656374732E786D6CAD575D739B3814FD2B0CFB0C98D84E931D4227B6938EA793B6534F3BFB90198F0099B001899144EAECAFDF231018B0
310
D37A3FFC609090EEE7B94757C1FB7D915B2F54C88CB31BDB7727B64559CC938CA53776A576CE956DBD0F03C1B9EA2DB32D460A7A63EB693B0C52C1ABD24C257447AA5C8D66EF177F5832A68CDA569C13296F6C193FD182B8A4523CA1F2D94D88226EBADBBBBEDB2C1C8A4D05299F46424B222853B014F30C52ACC6287F389C
310
D85E1878FA7B18E87FB36AFAF62AAFF667A83F635211161F291B8999FAB3D5DDC5FCDA99CF6653677679E13B8BFBC5CAF1DF4D27CBCBE5F2FAF6EE1A8AA51290642C117467871F101B91C581D77CEA2C36869F3229E68CD1B8F61F1ED6361B89092D294B90C78C4A68EB793D190E7D1D9BDEE7A91E1B95FDE9F3BCEAEFE809
310
6A6D6F9F7D4B79F4275C90E7A04248AA51D5C4C738DAE06F72885AC4796EBE65D22A88A22223B995679120E2D50EB1542F098381188D4EA111AE3DB043FF20AF6F2B4AE3D7D83D65E5AECA730D4D3BAC91BD05FEA992B565D95F549CD6069B90AB2A63EACA38A45E4B6A87D781574F86817E4C2FCCC72690D62E2729520E37
310
9BAF234797BAF6D62B3BFC781FED37BA1E4F2B2F052FA9501A3E80569BB8F6A9A364D4FA67654E6F803383981F82F21591FF84F23D9882BC896C3FDBCF8C162508933B2E0AE4C69DD43F6BD2BE38DDDBF10BF86CB4FA784D37F3AF16075E67EC9030DECA1FC0A55373F5DFF3378C591FA9BDF485C10B0A8C8BA909E5262639
310
A8E72163488806A595734C81CB77D1DE0ED7604A303B76913CEC0272F412782FF88EFF4636D8AA56DF7B322474C4B767303F625997056C7B032C473C592B36CEBD15F3F9FF5233B7ABCDC74D257624A60F8658567497B14CE1EC3C80B76FD02011038F9EE9EB0F2E12387A9C844D3F09855125116D1D731DF8B43D2CF4E0A0
310
79A020C6BE946BCE0B7EA1E1219331CD73C228AF5A2DDD31A4B1DA918CE91350854D40A71723140BFA92E94E62B0626016CEFA5864A50E5977E8753CEDBEE1CBB7F52780D20E17AF0BA0F5F9B02A3AD07DCC732EB6D1EBB661421BE0C39E21BABF0FE16D22EA6929407C8DE596724C88B749B6DB5512BC7B228ADFD7CB7EA6
310
3A22397E690BA8D5D8D4E40CEC8CDA23C2C0B7D5898640101CEC9C6D331CE328CB93CAFBBAC70A642DF70DF95155945B52F08AA973C23469FD69ADEF84F7BB18F983A8F8C90E37F5D35980B2139A1C523540813E824EF83448CF7C72B598CE97D7CEEDDDDD3B6736BFBC771677EF66CE6A7E7139F7A793E9EDF2B2B3A8B624
310
0CDA13AA5F8388264EC4A0129909F3B7F5A16CEDF08128E97D680ACA4B9BE7B7B58BB638F0B00700EF36AE8B32A705658A68F83EE897FC2B41573190D1CCAF0B92D233A47CFEB019D9809933F67DD1A5467F8CF69AD9A5AE859342D45355448C64F968A371DC2D596ADC6E43D93D1B466F877A64E2893E54F23C4B40388995
310
525E5005DA3983ED45412510D3EFCA13737B3863F74BD30F2A12E5B4B5E489A025CE25500DB855B11ACE5BBFA185D35DD48D8DC3CE7DC69F2944DB42AA6F6CF09BCA622ADD08C7A36E7C6AE18000BAB08E040135C2D21C9D75B3A91B77BB746C403F38018DFE6EC939DD92F16B40BC05294B9CDA035AAD6D330AE27FE4786B
310
8E45145EA34A75BE1C263A676A35A8ACC6297337400BF16C54EF515F3F77CB77EB3583889C754FFA29081AA98E2222ADEF05DA3E63D2EDEA8B8756C05A7FB6CABC4A91CBF325398202CC952E70A008A830324BA200D5E5EF8F5F04C75DB4B0EE3340E071C98B823333B83577596BF3849B69F2085AA0FAFA212F26BEFF5877
310
FDE622B28D88A42E49E43326DA82D31E8CB006401E1DA726059ECEC168F97A6599036306A135688F9AD2E61A6EA178F4CD51974A9F2CCB9F36FE5EBD14601068D9C3BF01504B0304140006080000B670623B000000000000000000000000350000006662782F42384135303843342D343331462D343546312D424341352D35
310
32343432364645413344462F76657274696365732E62696E504B0304140006080800B670623BF270F1330600000004000000360000006662782F42384135303843342D343331462D343546312D424341352D3532343432364645413344462F747269616E676C65732E62696E636660600000504B0304140006080000B67062
310
3B000000000000000000000000370000006662782F42384135303843342D343331462D343546312D424341352D3532343432364645413344462F617474726962757465732E62696E504B0304140006080800B670623B08DA0BD19000000041010000360000006662782F42384135303843342D343331462D343546312D4243
310
41352D3532343432364645413344462F6469726563746F72792E786D6C858F410AC3201045AF22B36F53E9A60B35CBEEBAE80D244E44489C6234F4F835464A48035D0DF398FF9F8AF63D0E6CC63039F212F8F9020C7D47C6792B21C5FE7403D62A1188E2E60C98D7234A5830286103A55745067B9D86B8A3CF9C7F90C11DE6
310
07FB144396D7B6A82D282E9A152AD114D5EF2CB866EEE831B8EEA07A7BB5A8D7D61A2BAAEB7FD5F70921FF497D00504B0304140006080800B670623B3B4606F3FE000000A00100003B0000006662782F42384135303843342D343331462D343546312D424341352D3532343432364645413344462F7265736F75726365732F
310
636F72652E786D6C8D504B6E833010BD0A9A6D65B08134808CA354A427E8052C332156828DFCA97AFC9A40A576D7CDCCE87D344F8F9FBEE647F689CE6B6B7A6039850C8DB2A336530F315C4903D94970676DF82583CCC8197B5861107C72362E3BA4AC096842428D1D7107A5F71820538F74F4E0D50D6799CB1892C2DFF345
310
AABB9C306779A2934E701F5C0A906D4FD609C2A1B7D129F4BCD858C163D4E3AED163FAA9AF1A1D88F67CA98E6D35906AA82A52BFB39ABCD5CD915C86331BD86BD3B665CD8BD52C78D0F34F46E550061C419494B6843142CB0F5677F4D0D58717DA7494F26295FF31C565FCA7296A13AA728FBBD93C0896823C09C18BB5AFB4
310
9E65A6BD762BBE01504B010214000A0000080000B670623B3DEE336E79000000790000001B00000000000000000000000000000000006175746F6465736B2D64657369676E2D7061636B6167652E786D6C504B01021400140006080800B670623BD486FD9CA0000000F40000001300000000000000000000000000B2000000
310
5B436F6E74656E745F54797065735D2E786D6C504B01021400140006080800B670623B28ED286BEB0000007C010000080000000000000000000000000083010000636F72652E786D6C504B01021400140006080800B670623B55019EA25F0000007C000000070000000000000000000000000094020000636E782E786D6C50
310
4B01021400140006080800B670623B7BC41AC871010000D40300000C00000000000000000000000000180300006662782F636F72652E786D6C504B01021400140006080800B670623B70102A487D0000009D0000000B00000000000000000000000000B30400006662782F636E782E786D6C504B01021400140006080800B6
310
70623B3610CA3329010000120200003100000000000000000000000000590500006662782F42384135303843342D343331462D343546312D424341352D3532343432364645413344462F636F72652E786D6C504B01021400140006080800B670623B1B8617914E010000330300003000000000000000000000000000D10600
310
006662782F42384135303843342D343331462D343546312D424341352D3532343432364645413344462F636E782E786D6C504B01021400140006080800B670623BBFEF2E3B690500003C10000034000000000000000000000000006D0800006662782F42384135303843342D343331462D343546312D424341352D35323434
310
32364645413344462F6F626A656374732E786D6C504B01021400140006080000B670623B0000000000000000000000003500000000000000000000000000280E00006662782F42384135303843342D343331462D343546312D424341352D3532343432364645413344462F76657274696365732E62696E504B010214001400
310
06080800B670623BF270F133060000000400000036000000000000000000000000007B0E00006662782F42384135303843342D343331462D343546312D424341352D3532343432364645413344462F747269616E676C65732E62696E504B01021400140006080000B670623B00000000000000000000000037000000000000
310
00000000000000D50E00006662782F42384135303843342D343331462D343546312D424341352D3532343432364645413344462F617474726962757465732E62696E504B01021400140006080800B670623B08DA0BD1900000004101000036000000000000000000000000002A0F00006662782F42384135303843342D3433
310
31462D343546312D424341352D3532343432364645413344462F6469726563746F72792E786D6C504B01021400140006080800B670623B3B4606F3FE000000A00100003B000000000000000000000000000E1000006662782F42384135303843342D343331462D343546312D424341352D3532343432364645413344462F72
310
65736F75726365732F636F72652E786D6C504B0506000000000E000E0080040000651100000000
  0
XRECORD
  5
81A
102
{ACAD_REACTORS
330
186
102
}
330
186
100
AcDbXrecord
280
     1
102
MATERIAL
148
0.0
149
0.0
149
0.0
 93
        0
 94
      127
282
     0
 72
     1
 77
     1
171
     1
175
     1
179
     1
273
     0
  0
XRECORD
  5
187
102
{ACAD_REACTORS
330
186
102
}
330
186
100
AcDbXrecord
280
     1
 70
     1
 90
429727718
  1
887D55A9-D0DD-414E-B741-A7DCD4DA2B4C
310
504B03040A0000080000B670623B3DEE336E79000000790000001B0000006175746F6465736B2D64657369676E2D7061636B6167652E786D6C3C3F786D6C2076657273696F6E3D22312E302220656E636F64696E673D227574662D3822203F3E3C666F726D6174733E3C666F726D61743E687474703A2F2F736368656D612E
310
6175746F6465736B2E636F6D2F64657369676E2D7061636B6167652F323030393C2F666F726D61743E3C2F666F726D6174733E504B0304140006080800B670623BD486FD9CA0000000F4000000130000005B436F6E74656E745F54797065735D2E786D6C7D8EC10E82300C865F65E91D8A1E8C310C0EEA1BF002731658846E
310
D98AC1B77784ABF1D8FE5FBFBF75BBCE937A534CCEB38643598122B6FEE978D0B0485F9C41B54DDD7D022595594E1A469170414C76A4D9A4D207E29CF43ECE46F218070CC6BECC4078ACAA135ACF422C856C0E68EA1BF5669944DDD7BCDE7B1F8E415D77AECB980613C2E4AC91FC167A2B244592486606FC29C8FD7F045B9A
310
EF7053A7E60B504B0304140006080800B670623BBC1638F5EC0000007C01000008000000636F72652E786D6C8D90416EC3201045AF82665B61836BE2D8C24471DB9CA01740401C94182C03558F5F9C3852BBEB6A467FFE9B197D7EF89E6EE8CB2CC17AD7032D0820E394D7D68D3DA478C67B4007C117EFE32F1B202727D3C3
310
2A83E0E3E2D3BC49CABB685CCCAAF3DA6CA20CC14440EA969B1E82BA98491632C5EC08D76296EA2A4753D06797E194AC468F2356E77DF66CCD02825543D50CACC62D39ED70FDC68EB8FD68F6F8787A6784342D1DDA1D2F5758F068A7E77DB518198D065111D2624A31A93E69DD11D6D5EC85EC3B4278B9DAFF4069D6FF8492
310
75F1B5DADE7D600104CD8FDC0782976B16B9DC83CA75CD4DFC00504B0304140006080800B670623B55019EA25F0000007C00000007000000636E782E786D6C4DCB3B0E80201045D1AD90E915ED2CF8AC45050C11660C8261F98AB1B07AC9C97D42D718D865D3E909258CFD00CCE24AC6E326A164D74DC0B4128928FF326038
310
472BA13128B1252AC747C6BAB984FC68F0B87FE8960A5C09FE86CFB69FBA01504B0304140006080800B670623B3586FFB671010000D40300000C0000006662782F636F72652E786D6CC553ED6E8320147D15C2DF4541A76D6D90A6DDD627D80B50A4CE54C120983EFEAE1F4DD7A55BBA5FF3879273EEE59E7310B6393735EA
310
95ED2AA3731C851423A5A5292A5DE6D8BB63B0C268C39935C67D29C3488B46E578803167A535BE9D2169B453DA01AA4DA16650749D7218C91A1639EEE4876A4428BC838AEE14B6429E44A9C228041AEA38EB9C0501681A32BC313F1ECE8C4C3867DE57C5CC56054CAB8E95B298A7F12E5EEED224C8E87E11242FE936C8DE96
310
AB60BB7F4D295D66D12E5B30323473E6AAE6A24E5A259C2A308F29CD82280A68FC1E256B9AAE93F489AED694323294DF34F9B678B0C957DA3DC7B3DCA9ADC33C022123F1CD2D44E450277AD04338234388F01913BE0D1A0281909D38D4171F27807A259DB1093085F157AA17B557309586747CD0CF0B46A64E983A6E0EAEEF
310
CE881F9EF1FB8E70D44297604238581EBC1B74B249C31C5AAB6CD0BB33D2C636A27ECCC62F0EFF445DC5DF95244D6DEC7F2922F30191F9F720C37DE49F504B0304140006080800B670623B4220A0FF7D0000009D0000000B0000006662782F636E782E786D6C4DCCD10A83201886E15B91FFDCE542CB0335D0EC3E6259C84A
310
C3E9D8E5AF46073BFAE0E1E315DD675BD1DBA5978F41C2FD4600B9F088930F8B849267CC01754AA418F3DF0D50183727E164506249B1EC174D6E1ECB9A0F5D7D785E68DB8151CD286E5A5363CA6B8A39E90D36D40E96B086F55A43A544F52B1D7B86D517504B0304140006080800B670623B2FA3FEDE290100001202000031
310
0000006662782F45374635344235342D363743322D343832342D383044432D4334454645303536354442422F636F72652E786D6C8D515B6EC32010BC0AE22B55850D2E386E848994D7097A0117488A1283C5A3CAF10BB523B57FF961D1ECCCECC0F2ED7DBC816FED8371B687A4C210682B9D32F6D2C314CFA883602BB8772E
310
FEA141608751F7B0C050F08B77695A20E96CD43666D43AA5177008414708E42D5F7A18E4971E876A483133C2B59A06791D2EBA22556E679EE021FA1C00CC43CA09C5717D6274C7286AD7FB06D1AEA1A8C3873DDAD3E3E98859CB0EBB1DAF67A1E02919B5C88DCA71CCD968FFAC49110B1ECDF8882FBD1EA256503418BF2342
310
106E3E08DD60B6A1EC15771B8C795DE8FF4469524F8A92B1F1AD59E2CEB20005E1F5DC105CB9F4797B84D1F7C9F908CABC55D0F2050A5C61CC1AD2F27A26E6E767C7962E8E213A9FBF7775FDCC5CC266DB960A5E970DE5F2BBBE5CCB36C50F504B0304140006080800B670623B1B8617914E01000033030000300000006662
310
782F45374635344235342D363743322D343832342D383044432D4334454645303536354442422F636E782E786D6CD593C16EC32010447F0571AD6CE3D489D20813A9877E410FBD62D82434182CC055F3F75D1292E692438FBD206B7698593D61BEFD1E2DF982108D773D6D6B460938E5B571FB9ECE6957AD29D90A1EBC4F77
310
364A9C1CA1A759A682EF839FA72269D8C9D92654AD71C72206887E0E0A22CAF926B15E498B01E0AA19451807D01A34B919F16B070157417138917400F2F6FA41FCF0092A45DEE414C19BDC21783E4BD39D891265658C3D8DEA00A3ACE59CBC8678ACB54CB26EEB6BD7839D7E9348BE70AD9C8321B9BCA7F9A4A26C542347DE
310
E050F09802D22BA6749A800A394DD62899107273365E3C82CFC6A55557BC06C10774B7ABE7AEC3B0F34CF06446280E154026D0542C187BA9DAB6628BF7B6DBB0E5A65B3EB1F58631DE64BBE083F7B65CC218087E22CABB042E51D1F2268F1FE12B3EA24D40D63E9CFE00120194D60B9D5BC67FE6D39CDF37E20AF817881F50
310
4B0304140006080800B670623B29652116630500003C100000340000006662782F45374635344235342D363743322D343832342D383044432D4334454645303536354442422F6F626A656374732E786D6CAD575D739B3814FD2B0CFB0C989834C90EA1639B24E3E9A6EDD4D3CE3E64C623834CD8006224913AFDF57B040203
310
B65BEF871F0C12D2FD3CF7E8CA7FBFCB33E3957291B2E2D674ED8969D02262715A24B76625B7D6B569BC0F7CCE98EC2D338D82E4F4D654D366E0279C55A59E8AE99654991CCDDECFFF3444440B6A1A514684B83545F44C7362934AB2988A173B2692D8C97667BB76B3702836E1A47C1E092D09A78584A5982F20C5688C7287
310
C389E904BEA3BE07BEFAD7ABA6A75739B53F43FD69212429A20365233153D70BEF2E2E6FAC4BCF9B5ADEBB0BD79ADFCF43CBBD9A4E16EF168B9BD9DD0D140BC921495BC2E9D60C1E101B9E46BED37CEA2CD6861F3329624541A3DA7F7858DBAC25C6B4A4458C3CA654405BCFEBC970E8AAD8F43E4FD558ABEC4F9FE7557F47
310
4F506B7BFBEC5BCA367FC105710E2AB8A00A554D7CB4A30DFE26FBA86D18CBF4B75418399194A72433B274C3097F33032C554B027F2046A1932B842B0FCCC0DDCBEBDB8AD2F835768F59B9ADB24C41D30C6A64AF817F2A456D59FA83F2E3DA60137255A585BCD60EC9B7929AC18DEFD49381AF1ED30BFDB109A4B1CD488294
310
C3CDE6EBC8D185AABD6568061FEE37BB95AAC7E3CA4BCE4ACAA5820FA0D526AE7DAA2869B5EE5999531BE0CC20E6FBA07C41E43FA27CF7A6206F3CDD793B4F6B919C1462CB788EDCD893FA674CDA17AB7B3B7C019F8D561FAEE966FED562DFE98C1D12C6A9FC015C2A35D7FF3D7FC398F591DA4B5FE0BFA2C0189FEA50AE22
310
92817A1ED3020951A03432862970F976B33383259812CC8E5D240BBA801CBCF8CE2BBEE3BF910DB6AAD5F79E05123AE2DB33981FB1ACCB02B69D00CB014FD68AB573A7627EF9BFD4CC2C5C7D58557C4B22FAA88925A4DBB44825CECE3D78FB060D1231F0E885BE7D673C86A3874958F593906B5502D1563157814FDAC3420D
310
F69A070A22EC4B98E23CFF171A1E5311D12C23056555ABA53B8614563B92D17D02AAB009E8F46284624E5F53D5490C560CCCC2591FF1B45421EB0EBD8EA7ED13BE7C5D7E0428CD60FEF60779EB13E6664FF711CB185F6FDED60D139A001FF60CD1FD6D086F1D51474901E26B2CB794A343BC8ED3EDB612E0DD2351FCB65CF4
310
33D511C9E14B5B40ADC6A6263DB0336A8F700DDF56271A024E70B0B3629DE21847591E55DED73D56206AB927E46FAABC5C939C55853C274C93D69FD6FA4E78BF8B11DF898C9ECD60553FAD39283BA6F18984AA23E8884F83F45C5F5F859797B31B2B9C84A1E5B9DE9D35BFF25C6B76152E422F9C5DCC3D847F5801ED09D5AF
310
41441327A25FF15487F9EB725FB666F048A4701E9A827292E6F97569A32DF61DEC01C0BB8DCBBCCC684E0B49147C1FD54BF685A0AB18C868E6973949E819523E3DAC463660E68C7D9F55A9D1EFA3BD7A76A16AE1A810F95CE59B82A4D968A376DC2E8B44BBDD86B27B368CDE0ED548C7137DA860591A83706223A12CA712B4
310
7306DBF39C0A20A6DF95C7FAF670C6EED7A61F946493D1D6926782963813403548A78AE470DEF80D2D9CEAA26E4D1C76F60BFE74219A06527D6B82DF641A51616F703CAAC6A7160E08A00BEB4810A0274592A1B36E3675E36E978A0DE80727A0D6DF2D39A75BD27E0D8837276589537B40ABB56D5A41F48F1C6FCD3188C4EB
310
A6929D2FFB89CE995A4D00AE813BDD032DC48B56BD437DFDDC2DD7AED70C2272D63DE9A72068A45A92F0A4BE17A8A06B9366E16707AD80B1FC649459952097E74BB23805982B55E0401150A165964402AA8BDF9F3E7386BB686EDCA780C0D382E5392BF460A6EFB2C6EA1937D3F809B440D5F5435C4C5CF7A9EEFAF54564BD
310
2182DA24162F98680B4E7930C21A0079709CEAEB99A372305ABE0C0D7D6078105A83F6A0296DAEE1068A47DD1C55A9F4C9B2FC69E3EFD44B81028E963DF81B504B0304140006080000B670623B000000000000000000000000350000006662782F45374635344235342D363743322D343832342D383044432D433445464530
310
3536354442422F76657274696365732E62696E504B0304140006080800B670623BF270F1330600000004000000360000006662782F45374635344235342D363743322D343832342D383044432D4334454645303536354442422F747269616E676C65732E62696E636660600000504B0304140006080000B670623B00000000
310
0000000000000000370000006662782F45374635344235342D363743322D343832342D383044432D4334454645303536354442422F617474726962757465732E62696E504B0304140006080800B670623B08DA0BD19000000041010000360000006662782F45374635344235342D363743322D343832342D383044432D4334
310
454645303536354442422F6469726563746F72792E786D6C858F410AC3201045AF22B36F53E9A60B35CBEEBAE80D244E44489C6234F4F835464A48035D0DF398FF9F8AF63D0E6CC63039F212F8F9020C7D47C6792B21C5FE7403D62A1188E2E60C98D7234A5830286103A55745067B9D86B8A3CF9C7F90C11DE607FB144396
310
D7B6A82D282E9A152AD114D5EF2CB866EEE831B8EEA07A7BB5A8D7D61A2BAAEB7FD5F70921FF497D00504B0304140006080800B670623B6378F24DFF000000A00100003B0000006662782F45374635344235342D363743322D343832342D383044432D4334454645303536354442422F7265736F75726365732F636F72652E
310
786D6C8D504B6E833010BD0A9A6D65B0094E42641C85B639412F6099496225D8C89FAAC7AF09546A77DDCC8CDE47F3F4C4F16B7C149FE88371B603565228D06A37187BED20C50BD9437194C23B177FC9A0B06AC40E6618A4B87A97A615D2CE46B431A3D60DB8822A048C50E8473E3A08FA86A32A558A5911EEE5A4F45D5DB1
310
6465A6B34E8A107D0E502C4FE609D26370C96B0CA25A58295232C3AA3143FE692E063D485EF7F5AEE71BD2D2F39634AFFC44DAF7DD9E9CCE6F9CD25DCBFA762BAAD92C4534E34F46ED51451C40D694B6843142EB0FD61C283F34FC85EE0F948A6A96FF31A569F8A729191B37F51A77B105902C0779125254735F793DCBCC7B
310
EE567E03504B010214000A0000080000B670623B3DEE336E79000000790000001B00000000000000000000000000000000006175746F6465736B2D64657369676E2D7061636B6167652E786D6C504B01021400140006080800B670623BD486FD9CA0000000F40000001300000000000000000000000000B20000005B436F6E
310
74656E745F54797065735D2E786D6C504B01021400140006080800B670623BBC1638F5EC0000007C010000080000000000000000000000000083010000636F72652E786D6C504B01021400140006080800B670623B55019EA25F0000007C000000070000000000000000000000000095020000636E782E786D6C504B010214
310
00140006080800B670623B3586FFB671010000D40300000C00000000000000000000000000190300006662782F636F72652E786D6C504B01021400140006080800B670623B4220A0FF7D0000009D0000000B00000000000000000000000000B40400006662782F636E782E786D6C504B01021400140006080800B670623B2F
310
A3FEDE290100001202000031000000000000000000000000005A0500006662782F45374635344235342D363743322D343832342D383044432D4334454645303536354442422F636F72652E786D6C504B01021400140006080800B670623B1B8617914E010000330300003000000000000000000000000000D2060000666278
310
2F45374635344235342D363743322D343832342D383044432D4334454645303536354442422F636E782E786D6C504B01021400140006080800B670623B29652116630500003C10000034000000000000000000000000006E0800006662782F45374635344235342D363743322D343832342D383044432D4334454645303536
310
354442422F6F626A656374732E786D6C504B01021400140006080000B670623B0000000000000000000000003500000000000000000000000000230E00006662782F45374635344235342D363743322D343832342D383044432D4334454645303536354442422F76657274696365732E62696E504B01021400140006080800
310
B670623BF270F13306000000040000003600000000000000000000000000760E00006662782F45374635344235342D363743322D343832342D383044432D4334454645303536354442422F747269616E676C65732E62696E504B01021400140006080000B670623B0000000000000000000000003700000000000000000000
310
000000D00E00006662782F45374635344235342D363743322D343832342D383044432D4334454645303536354442422F617474726962757465732E62696E504B01021400140006080800B670623B08DA0BD190000000410100003600000000000000000000000000250F00006662782F45374635344235342D363743322D34
310
3832342D383044432D4334454645303536354442422F6469726563746F72792E786D6C504B01021400140006080800B670623B6378F24DFF000000A00100003B00000000000000000000000000091000006662782F45374635344235342D363743322D343832342D383044432D4334454645303536354442422F7265736F75
310
726365732F636F72652E786D6C504B0506000000000E000E0080040000611100000000
  0
XRECORD
  5
81C
102
{ACAD_REACTORS
330
110
102
}
330
110
100
AcDbXrecord
280
     1
102
MATERIAL
148
0.0
149
0.0
149
0.0
 93
        0
 94
      127
282
     0
 72
     1
 77
     1
171
     1
175
     1
179
     1
273
     0
  0
XRECORD
  5
112
102
{ACAD_REACTORS
330
110
102
}
330
110
100
AcDbXrecord
280
     1
270
     1
271
     1
  0
XRECORD
  5
111
102
{ACAD_REACTORS
330
110
102
}
330
110
100
AcDbXrecord
280
     1
270
     1
271
     1
  0
XRECORD
  5
18A
102
{ACAD_REACTORS
330
110
102
}
330
110
100
AcDbXrecord
280
     1
 70
     0
 90
1778669749
  1
9BF507EE-FAF7-4A99-A33D-4EE51894BC40
310
504B03040A0000080000B670623B3DEE336E79000000790000001B0000006175746F6465736B2D64657369676E2D7061636B6167652E786D6C3C3F786D6C2076657273696F6E3D22312E302220656E636F64696E673D227574662D3822203F3E3C666F726D6174733E3C666F726D61743E687474703A2F2F736368656D612E
310
6175746F6465736B2E636F6D2F64657369676E2D7061636B6167652F323030393C2F666F726D61743E3C2F666F726D6174733E504B0304140006080800B670623BD486FD9CA0000000F4000000130000005B436F6E74656E745F54797065735D2E786D6C7D8EC10E82300C865F65E91D8A1E8C310C0EEA1BF002731658846E
310
D98AC1B77784ABF1D8FE5FBFBF75BBCE937A534CCEB38643598122B6FEE978D0B0485F9C41B54DDD7D022595594E1A469170414C76A4D9A4D207E29CF43ECE46F218070CC6BECC4078ACAA135ACF422C856C0E68EA1BF5669944DDD7BCDE7B1F8E415D77AECB980613C2E4AC91FC167A2B244592486606FC29C8FD7F045B9A
310
EF7053A7E60B504B0304140006080800B670623BCA089DFFEC0000007C01000008000000636F72652E786D6C8D90416E83301045AF62CDB632D8402020E32882F604BD80653BC44AB011B6AB1EBF262152BBEB6A467FFE9B197D76FA9EEFE84BAFDE38DB03CD08206DA553C64E3DC470C1474027CE56E7C22F1B202B66DDC3
310
260367D3EAE2B24BD2D9A06D48AA754AEFA2F05E0740F29E9A1EBCBCEA59642286E4F0B76C11F226269DD15797E0188D42CF2346A57DE662F40ABCAEC77628C6120F654571D50C04B7F5B9C1E3997CD4F550BE3745C3F20DE62C98F9755FAE5A04AD801784B498524C8A4F5A75E4D055873772EC0861F966FF03C545FD138A
310
C686B2D8DF7D621E384D8F3C069CE55B16A93C824A75CB8DFF00504B0304140006080800B670623B55019EA25F0000007C00000007000000636E782E786D6C4DCB3B0E80201045D1AD90E915ED2CF8AC45050C11660C8261F98AB1B07AC9C97D42D718D865D3E909258CFD00CCE24AC6E326A164D74DC0B4128928FF326038
310
472BA13128B1252AC747C6BAB984FC68F0B87FE8960A5C09FE86CFB69FBA01504B0304140006080800B670623B68FC0B7272010000D40300000C0000006662782F636F72652E786D6CC5535B6E833010BC8AE5DF0A6C1E8124328E22D29EA01770C0A128602363A31CBFCB234A53A555FA553EC09AD9F5CE8C31DB5DDA060D
310
D2F4B556190E7C8A9154852E6B5565D8D993B7C668C799D1DA7E29C3488956667884316795D1AE5BA0422B2B950554E9522EA0E87B69312A1A5864B82F3E642B7CE12C54F467BF13C55954D20F7CA0A18EB3DE1A1080E621E31BF3D3F1C2C88C73E65C5D2E6C5DC2B4FA544B8379921C36797888BC3C8A032F4E73EA6D927D
310
EA1DF6F42D49F2E8350D5346C666CE6CDD5ED515460A2B4BCC434A375E1078347C0FE22D5D6DE3D50B5D6F2965642CBF6B725DF96493AB958DC245EEDCD6631E809089F8E61622B2A81703E8219C913144F84C09DF070D8140C8561C9BAB8F3340832CAC363130A576376A108D933095FA747AD0CF0B46E64E983A6D0EAE1F
310
CE089F9EF1FB8E70D44255604258581E9D1D75B259C3125A278D37D80B52DAB4A279CEC62F0EFF44DDC43F9454E8469BFF5244960322CBEF41C6FBC83F01504B0304140006080800B670623B0F71DDB67E0000009D0000000B0000006662782F636E782E786D6C4DCCD10A83201886E15B91FFDCA54DB73F502386BB8F5816
310
32D3703976F9ABD1C18E3E78F87855FB990379BBFCF2296AE02706C4C5471A7C9C349475A408A4352AA7B4FEDD80C47E761A7606A3A69CCA72D0E0C6BE8475D3E0E3F3409428EA6B27A84079A782899AA2EC1A7AE3ECCC2FD858CB2D544655BFD2B67BD87C01504B0304140006080800B670623BE134B4FB28010000120200
310
00310000006662782F38353834323741342D343835462D343034322D383541392D4331303331363839454531452F636F72652E786D6C8D515B6EC32010BC0AE22B55850D0EA424C24451959EA0172086A42831583CAA1CBF503B52FB971F16CDCECC0EACD8DFC71BF836215AEF7A481A0C817183D7D65D7A98D3197108F652
310
04EFD31F1A044E8DA6871586525C82CFD3020DDE25E352419DD76601558C264130DCCAA58771F832A36A544E8511AFCDA486ABBA988634A55D7852C4144A00300FA927949C71DABD1D28A29C7D208A6987383B6CD13BC16BB2E1DBE3911C453B0BA5C8D9EA456E758963CFD684674DAA588A64C747FC2118958C86B2C3788B
310
0841B8FB247487D98EB257CC77188BB6D2FF89F2A49F1465EBD2BA5BE2CEB2082511EDDC9042FB7CBA3DC298FBE4430275DE2A9AE1054ADC60CC08E3A29D89E5F9C5714317C7987C28DFBBBA9E0A97B0D97643A568EB864AF95D5FA9759BF207504B0304140006080800B670623B1B8617914E010000330300003000000066
310
62782F38353834323741342D343835462D343034322D383541392D4331303331363839454531452F636E782E786D6CD593C16EC32010447F0571AD6CE3D489D20813A9877E410FBD62D82434182CC055F3F75D1292E692438FBD206B7698593D61BEFD1E2DF982108D773D6D6B460938E5B571FB9ECE6957AD29D90A1EBC4F
310
77364A9C1CA1A759A682EF839FA72269D8C9D92654AD71C72206887E0E0A22CAF926B15E498B01E0AA19451807D01A34B919F16B070157417138917400F2F6FA41FCF0092A45DEE414C19BDC21783E4BD39D891265658C3D8DEA00A3ACE59CBC8678ACB54CB26EEB6BD7839D7E9348BE70AD9C8321B9BCA7F9A4A26C542347
310
DEE050F09802D22BA6749A800A394DD62899107273365E3C82CFC6A55557BC06C10774B7ABE7AEC3B0F34CF06446280E154026D0542C187BA9DAB6628BF7B6DBB0E5A65B3EB1F58631DE64BBE083F7B65CC218087E22CABB042E51D1F2268F1FE12B3EA24D40D63E9CFE00120194D60B9D5BC67FE6D39CDF37E20AF817881F
310
504B0304140006080800B670623B5933D422630500003B100000340000006662782F38353834323741342D343835462D343034322D383541392D4331303331363839454531452F6F626A656374732E786D6CAD575B6FA33814FE2B887D0642934E9B156594264D158D3A534DD4D13E548A0C38942D60649B4EBABF7E3F8321
310
40924EF6928780CDF1B97EE762EFF32E4B8D37CA45C2F21BD3B547A641F39045491EDF98A5DC5AD7A6F1D9F73863B243661A39C9E88DA9B64DDF8B392B0BBD15D12D295339D85DDEFE618890E6D434C2940871638AF08566C426A5641115AF764424B1E3EDCE76ED9AB0CF36E6A47819302D08A7B984A6D8CFC1C5A89572FB
310
CB91E9F89EA3BEFB9EFAD754E3D3544E654F5F7E920B49F2F040D880CDD89D2CEE2E2EA7D6E56432B6269F2E5CEB7679BBB0DCABF168FE693E9FCEEEA6102C240727AD09A75BD3BF876F78127A4EFDA9D5582B7E4CA590E5390D2BFB6161A5B3E618D182E611E2985001691DAB47FDA5AB7CD3F93C566B2DB2BB7D9E55DD13
310
1D468DEECDB3AB290BFE8409E21C54704115AA6AFF68436BFC8DF65E0B184BF5B74418199194272435D224E084BF9B3E481589EFF5D828747285706581E9BB7B7E5D5D911ABFC6EE312DB7659A2A689A7E85EC0DF04FA5A8344BFEA2FCB834E8845895492EAFB541F2BDA0A63FF59C6AD3F7D4637CA13FD68E34B629891172
310
98597F1D183A57B9B75A98FE9765B05BAB7C3C2EBCE0ACA05C2AF8005A4DE09AA7F29216EB9E15397500C6F47CBE77CA7778FE2BD277AF0AE2C693DD6437D1522427B9D8329E2136F6A8FA19A3E6C56ADF0E5F50CF06D48734EDCEBF22F69C56D97EC138153F804B85E6FABFC7AFEFB32E523BE1F3BD372418E363EDCA7548
310
52949E8724474014288D94610BB57C1BEC4C7F854A89CA8E5324F55B871CBC78CE1BBEE3BFE68D6A5589EF3C730474506FCFA8FCF0659516D0ED04580EEA6425581B77CAE797FF4BCECC16EB2FEB926F49481F746159D06D922712BD730FDEAE42BD40F42C7AA5EF3F198F60E86110D6DD20645A9480B795CF95E3E3A659A8
310
C55E724F408873315335CFFB8584874484344D494E59D94869DB90C26A5B64F49C802CAC1D3ABE18A098D3B7444D123D8A9E5AE8F5214F0AE5B2B6E9B575DA3E61CBD3EA2B4009FA940524DD1305FB6A1FB294F14DF0BEA90BA109ECE1481FDC3FFAE8D60E75141700BE82725371B4873751B2DD960265F788137FACE6DD40
310
B575E4F0A5C99F46629D92131467A41EE11ABD8D4CCC039CA0AFB37C93A08B232B8F0AEFCA1E0A1015DF13FC83322B362463652ECF71D3A8B1A7D1BE65DE1D62C44F22C317D35F574FEB16153BA2D13E543D10A80E74C4A65E78A6B7CBCBD1D5DD9DB59C2DAFACC96C3AB566E3F1C29ADCDD5DBAD7D3C9ED7C822ED74F80A6
310
41755310DE4443F44A9E68373FADF6596BFA0F440AE7BECE2727AE9F4F2B1B53B1E7E00CF0DD1E5C65454A339A4BA2D0FBA05ED2EF0443458F47BDBFCA484CCFE0F2ED7E3DD0013B679C7B5499467F0ECEEADDB9CA85A34CE44B99053949D2C1416DB85DE4B136BB7165FBAC0B7AB3542BED4F8CA182A549847A1319316519
310
95A83A67147B9E5101C47487F2485F1ECE38FD568F839204296D3479219888530154036E6528FBFBC66F98E0D4107563A2D7D9AFF8D389681A08F58D89F22693900A3B407754734FC51C10C010D6D640809EE4718AC1BA3ED4AEDB53CA37283F68805A7E4B72CEB0A4EDEAD5DD8C14059A76AFAA56BA6901E13F32BC51C720
310
12AF41295B5BF61BAD3195181FB506E6B40F4C10AF5AF40EF9F5B159AE5DD1F43C72D635E94310D45C2D49785C5D0B94D3B54AB3C5A38349C0587D338AB48C11CBF339599C02CCA54A70A008A8D03C0B2201D5F9EFCF8F9CE12A9A19CB0410789EB32C63B95ECCF455D658BFE0621A3DA32C5075FB101723D77DAE867E7D0F
310
D90444509B44E2151B4DC2290B065803200FBAA9BE9D392A0603F2D5C2D00D6302A615680F66D2FA166E2079D4C551A54AB758161FCEFD4E450A14704CECFEDF504B0304140006080000B670623B000000000000000000000000350000006662782F38353834323741342D343835462D343034322D383541392D4331303331
310
363839454531452F76657274696365732E62696E504B0304140006080800B670623BF270F1330600000004000000360000006662782F38353834323741342D343835462D343034322D383541392D4331303331363839454531452F747269616E676C65732E62696E636660600000504B0304140006080000B670623B000000
310
000000000000000000370000006662782F38353834323741342D343835462D343034322D383541392D4331303331363839454531452F617474726962757465732E62696E504B0304140006080800B670623B08DA0BD19000000041010000360000006662782F38353834323741342D343835462D343034322D383541392D43
310
31303331363839454531452F6469726563746F72792E786D6C858F410AC3201045AF22B36F53E9A60B35CBEEBAE80D244E44489C6234F4F835464A48035D0DF398FF9F8AF63D0E6CC63039F212F8F9020C7D47C6792B21C5FE7403D62A1188E2E60C98D7234A5830286103A55745067B9D86B8A3CF9C7F90C11DE607FB1443
310
96D7B6A82D282E9A152AD114D5EF2CB866EEE831B8EEA07A7BB5A8D7D61A2BAAEB7FD5F70921FF497D00504B0304140006080800B670623BD9A3B367FE000000A00100003B0000006662782F38353834323741342D343835462D343034322D383541392D4331303331363839454531452F7265736F75726365732F636F7265
310
2E786D6C8D504B6E833010BD0A9A6D65B01D0201194711694FD00B586642AD043BF2A7EAF16B122AB5BB6E6646EFA3797AE2F8B5DC8A4FF4C1383B002B291468B59B8C9D0748F1420E501CA5F0CEC55F3228AC5A708015062966EFD27D83B4B3116DCCA875136EA00A012314FA968F0182FEC045952AC5AC08D7F2AEF455CD
310
58B232D3592745883E07289E4FD609D26370C96B0CA27AB252A464A64D63A6FCD35C0C7A904D73EE467EE664DCD58CD4ED4849D79C5A723ED1B7A61977AF2D6F45B59AA58866F9C9A83DAA8813484E6947182394BFB3BAA7FBBEDEBFD0434FA9A856F91F53BA4FFF342563E38E6F719FB60092E5200F428A6AED2BAF479979
310
AFDDCA6F504B010214000A0000080000B670623B3DEE336E79000000790000001B00000000000000000000000000000000006175746F6465736B2D64657369676E2D7061636B6167652E786D6C504B01021400140006080800B670623BD486FD9CA0000000F40000001300000000000000000000000000B20000005B436F6E
310
74656E745F54797065735D2E786D6C504B01021400140006080800B670623BCA089DFFEC0000007C010000080000000000000000000000000083010000636F72652E786D6C504B01021400140006080800B670623B55019EA25F0000007C000000070000000000000000000000000095020000636E782E786D6C504B010214
310
00140006080800B670623B68FC0B7272010000D40300000C00000000000000000000000000190300006662782F636F72652E786D6C504B01021400140006080800B670623B0F71DDB67E0000009D0000000B00000000000000000000000000B50400006662782F636E782E786D6C504B01021400140006080800B670623BE1
310
34B4FB280100001202000031000000000000000000000000005C0500006662782F38353834323741342D343835462D343034322D383541392D4331303331363839454531452F636F72652E786D6C504B01021400140006080800B670623B1B8617914E010000330300003000000000000000000000000000D3060000666278
310
2F38353834323741342D343835462D343034322D383541392D4331303331363839454531452F636E782E786D6C504B01021400140006080800B670623B5933D422630500003B10000034000000000000000000000000006F0800006662782F38353834323741342D343835462D343034322D383541392D4331303331363839
310
454531452F6F626A656374732E786D6C504B01021400140006080000B670623B0000000000000000000000003500000000000000000000000000240E00006662782F38353834323741342D343835462D343034322D383541392D4331303331363839454531452F76657274696365732E62696E504B01021400140006080800
310
B670623BF270F13306000000040000003600000000000000000000000000770E00006662782F38353834323741342D343835462D343034322D383541392D4331303331363839454531452F747269616E676C65732E62696E504B01021400140006080000B670623B0000000000000000000000003700000000000000000000
310
000000D10E00006662782F38353834323741342D343835462D343034322D383541392D4331303331363839454531452F617474726962757465732E62696E504B01021400140006080800B670623B08DA0BD190000000410100003600000000000000000000000000260F00006662782F38353834323741342D343835462D34
310
3034322D383541392D4331303331363839454531452F6469726563746F72792E786D6C504B01021400140006080800B670623BD9A3B367FE000000A00100003B000000000000000000000000000A1000006662782F38353834323741342D343835462D343034322D383541392D4331303331363839454531452F7265736F75
310
726365732F636F72652E786D6C504B0506000000000E000E0080040000611100000000
  0
XRECORD
  5
113
102
{ACAD_REACTORS
330
110
102
}
330
110
100
AcDbXrecord
280
     1
270
     1
271
     1
  0
XRECORD
  5
114
102
{ACAD_REACTORS
330
110
102
}
330
110
100
AcDbXrecord
280
     1
270
     1
271
     1
  0
CELLSTYLEMAP
  5
9C8
102
{ACAD_REACTORS
330
104
102
}
330
104
100
AcDbCellStyleMap
 90
        3
300
CELLSTYLE
  1
TABLEFORMAT_BEGIN
 90
        5
170
     1
 91
        0
 92
    32768
 62
   257
 93
        1
300
CONTENTFORMAT
  1
CONTENTFORMAT_BEGIN
 90
        0
 91
        0
 92
      512
 93
        0
300

 40
0.0
140
1.0
 94
        5
 62
     0
340
11
144
0.25
309
CONTENTFORMAT_END
171
     1
301
MARGIN
  1
CELLMARGIN_BEGIN
 40
0.06
 40
0.06
 40
0.06
 40
0.06
 40
0.18
 40
0.18
309
CELLMARGIN_END
 94
        6
 95
        1
302
GRIDFORMAT
  1
GRIDFORMAT_BEGIN
 90
        0
 91
        1
 62
     0
 92
       -2
340
0
 93
        0
 40
0.045
309
GRIDFORMAT_END
 95
        2
302
GRIDFORMAT
  1
GRIDFORMAT_BEGIN
 90
        0
 91
        1
 62
     0
 92
       -2
340
0
 93
        0
 40
0.045
309
GRIDFORMAT_END
 95
        4
302
GRIDFORMAT
  1
GRIDFORMAT_BEGIN
 90
        0
 91
        1
 62
     0
 92
       -2
340
0
 93
        0
 40
0.045
309
GRIDFORMAT_END
 95
        8
302
GRIDFORMAT
  1
GRIDFORMAT_BEGIN
 90
        0
 91
        1
 62
     0
 92
       -2
340
0
 93
        0
 40
0.045
309
GRIDFORMAT_END
 95
       16
302
GRIDFORMAT
  1
GRIDFORMAT_BEGIN
 90
        0
 91
        1
 62
     0
 92
       -2
340
0
 93
        0
 40
0.045
309
GRIDFORMAT_END
 95
       32
302
GRIDFORMAT
  1
GRIDFORMAT_BEGIN
 90
        0
 91
        1
 62
     0
 92
       -2
340
0
 93
        0
 40
0.045
309
GRIDFORMAT_END
309
TABLEFORMAT_END
  1
CELLSTYLE_BEGIN
 90
        1
 91
        1
300
_TITLE
309
CELLSTYLE_END
300
CELLSTYLE
  1
TABLEFORMAT_BEGIN
 90
        5
170
     1
 91
        0
 92
        0
 62
   257
 93
        1
300
CONTENTFORMAT
  1
CONTENTFORMAT_BEGIN
 90
        0
 91
        0
 92
      512
 93
        0
300

 40
0.0
140
1.0
 94
        5
 62
     0
340
11
144
0.18
309
CONTENTFORMAT_END
171
     1
301
MARGIN
  1
CELLMARGIN_BEGIN
 40
0.06
 40
0.06
 40
0.06
 40
0.06
 40
0.18
 40
0.18
309
CELLMARGIN_END
 94
        6
 95
        1
302
GRIDFORMAT
  1
GRIDFORMAT_BEGIN
 90
        0
 91
        1
 62
     0
 92
       -2
340
0
 93
        0
 40
0.045
309
GRIDFORMAT_END
 95
        2
302
GRIDFORMAT
  1
GRIDFORMAT_BEGIN
 90
        0
 91
        1
 62
     0
 92
       -2
340
0
 93
        0
 40
0.045
309
GRIDFORMAT_END
 95
        4
302
GRIDFORMAT
  1
GRIDFORMAT_BEGIN
 90
        0
 91
        1
 62
     0
 92
       -2
340
0
 93
        0
 40
0.045
309
GRIDFORMAT_END
 95
        8
302
GRIDFORMAT
  1
GRIDFORMAT_BEGIN
 90
        0
 91
        1
 62
     0
 92
       -2
340
0
 93
        0
 40
0.045
309
GRIDFORMAT_END
 95
       16
302
GRIDFORMAT
  1
GRIDFORMAT_BEGIN
 90
        0
 91
        1
 62
     0
 92
       -2
340
0
 93
        0
 40
0.045
309
GRIDFORMAT_END
 95
       32
302
GRIDFORMAT
  1
GRIDFORMAT_BEGIN
 90
        0
 91
        1
 62
     0
 92
       -2
340
0
 93
        0
 40
0.045
309
GRIDFORMAT_END
309
TABLEFORMAT_END
  1
CELLSTYLE_BEGIN
 90
        2
 91
        1
300
_HEADER
309
CELLSTYLE_END
300
CELLSTYLE
  1
TABLEFORMAT_BEGIN
 90
        5
170
     1
 91
        0
 92
        0
 62
   257
 93
        1
300
CONTENTFORMAT
  1
CONTENTFORMAT_BEGIN
 90
        0
 91
        0
 92
      512
 93
        0
300

 40
0.0
140
1.0
 94
        2
 62
     0
340
11
144
0.18
309
CONTENTFORMAT_END
171
     1
301
MARGIN
  1
CELLMARGIN_BEGIN
 40
0.06
 40
0.06
 40
0.06
 40
0.06
 40
0.18
 40
0.18
309
CELLMARGIN_END
 94
        6
 95
        1
302
GRIDFORMAT
  1
GRIDFORMAT_BEGIN
 90
        0
 91
        1
 62
     0
 92
       -2
340
0
 93
        0
 40
0.045
309
GRIDFORMAT_END
 95
        2
302
GRIDFORMAT
  1
GRIDFORMAT_BEGIN
 90
        0
 91
        1
 62
     0
 92
       -2
340
0
 93
        0
 40
0.045
309
GRIDFORMAT_END
 95
        4
302
GRIDFORMAT
  1
GRIDFORMAT_BEGIN
 90
        0
 91
        1
 62
     0
 92
       -2
340
0
 93
        0
 40
0.045
309
GRIDFORMAT_END
 95
        8
302
GRIDFORMAT
  1
GRIDFORMAT_BEGIN
 90
        0
 91
        1
 62
     0
 92
       -2
340
0
 93
        0
 40
0.045
309
GRIDFORMAT_END
 95
       16
302
GRIDFORMAT
  1
GRIDFORMAT_BEGIN
 90
        0
 91
        1
 62
     0
 92
       -2
340
0
 93
        0
 40
0.045
309
GRIDFORMAT_END
 95
       32
302
GRIDFORMAT
  1
GRIDFORMAT_BEGIN
 90
        0
 91
        1
 62
     0
 92
       -2
340
0
 93
        0
 40
0.045
309
GRIDFORMAT_END
309
TABLEFORMAT_END
  1
CELLSTYLE_BEGIN
 90
        3
 91
        2
300
_DATA
309
CELLSTYLE_END
  0
XRECORD
  5
9D6
102
{ACAD_REACTORS
330
104
102
}
330
104
100
AcDbXrecord
280
     1
102
ACAD_ROUNDTRIP_PRE2007_TABLESTYLE
 90
      512
 91
        0
  1

 92
      512
 93
        0
  2

 94
      512
 95
        0
  3

  0
XRECORD
  5
9E2
102
{ACAD_REACTORS
330
9E1
102
}
330
9E1
100
AcDbXrecord
280
     1
102
RTVSPost2010Prop28
280
     1
102
RTVSPost2010PropOp28
 70
     1
102
RTVSPost2010Prop29
280
     1
102
RTVSPost2010PropOp29
 70
     1
102
RTVSPost2010Prop30
280
     0
102
RTVSPost2010PropOp30
 70
     1
102
RTVSPost2010Prop31
280
     0
102
RTVSPost2010PropOp31
 70
     1
102
RTVSPost2010Prop32
280
     0
102
RTVSPost2010PropOp32
 70
     1
102
RTVSPost2010Prop33
280
     0
102
RTVSPost2010PropOp33
 70
     1
102
RTVSPost2010Prop34
280
     0
102
RTVSPost2010PropOp34
 70
     1
102
RTVSPost2010Prop35
280
     0
102
RTVSPost2010PropOp35
 70
     1
102
RTVSPost2010Prop36
280
     0
102
RTVSPost2010PropOp36
 70
     1
102
RTVSPost2010Prop37
 90
       50
102
RTVSPost2010PropOp37
 70
     1
102
RTVSPost2010Prop38
140
0.0
102
RTVSPost2010PropOp38
 70
     1
102
RTVSPost2010Prop39
140
1.0
102
RTVSPost2010PropOp39
 70
     1
102
RTVSPost2010Prop40
 90
        0
102
RTVSPost2010PropOp40
 70
     1
102
RTVSPost2010Prop41ColorIndex
 90
       18
102
RTVSPost2010Prop41ColorRGB
 90
        0
102
RTVSPost2010PropOp41
 70
     1
102
RTVSPost2010Prop42
 90
       50
102
RTVSPost2010PropOp42
 70
     1
102
RTVSPost2010Prop43
 90
        3
102
RTVSPost2010PropOp43
 70
     1
102
RTVSPost2010Prop44ColorIndex
 90
        5
102
RTVSPost2010Prop44ColorRGB
 90
      255
102
RTVSPost2010PropOp44
 70
     1
102
RTVSPost2010Prop45
280
     0
102
RTVSPost2010PropOp45
 70
     1
102
RTVSPost2010Prop46
 90
       50
102
RTVSPost2010PropOp46
 70
     1
102
RTVSPost2010Prop47
 90
       50
102
RTVSPost2010PropOp47
 70
     1
102
RTVSPost2010Prop48
 90
       50
102
RTVSPost2010PropOp48
 70
     1
102
RTVSPost2010Prop49
280
     0
102
RTVSPost2010PropOp49
 70
     1
102
RTVSPost2010Prop50
 90
       50
102
RTVSPost2010PropOp50
 70
     1
102
RTVSPost2010Prop51ColorIndex
 90
      256
102
RTVSPost2010Prop51ColorRGB
 90
-16777216
102
RTVSPost2010PropOp51
 70
     0
102
RTVSPost2010Prop52
140
1.0
102
RTVSPost2010PropOp52
 70
     0
102
RTVSPost2010Prop53
 90
        2
102
RTVSPost2010PropOp53
 70
     1
102
RTVSPost2010Prop54
  1
strokes_ogs.tif
102
RTVSPost2010PropOp54
 70
     1
102
RTVSPost2010Prop55
280
     0
102
RTVSPost2010PropOp55
 70
     1
102
RTVSPost2010Prop56
140
1.0
102
RTVSPost2010PropOp56
 70
     1
102
RTVSPost2010Prop57
140
1.0
102
RTVSPost2010PropOp57
 70
     1
102
RTVSPropertyOp0
 70
     1
102
RTVSPropertyOp1
 70
     1
102
RTVSPropertyOp2
 70
     1
102
RTVSPropertyOp3
 70
     1
102
RTVSPropertyOp4
 70
     1
102
RTVSPropertyOp5
 70
     1
102
RTVSPropertyOp6
 70
     1
102
RTVSPropertyOp7
 70
     1
102
RTVSPropertyOp8
 70
     1
102
RTVSPropertyOp9
 70
     1
102
RTVSPropertyOp10
 70
     1
102
RTVSPropertyOp11
 70
     1
102
RTVSPropertyOp12
 70
     1
102
RTVSPropertyOp13
 70
     1
102
RTVSPropertyOp14
 70
     1
102
RTVSPropertyOp15
 70
     1
102
RTVSPropertyOp16
 70
     1
102
RTVSPropertyOp17
 70
     1
102
RTVSPropertyOp18
 70
     1
102
RTVSPropertyOp19
 70
     1
102
RTVSPropertyOp20
 70
     1
102
RTVSPropertyOp21
 70
     1
102
RTVSPropertyOp22
 70
     1
102
RTVSPropertyOp23
 70
     1
102
RTVSPropertyOp24
 70
     1
102
RTVSPropertyOp25
 70
     1
102
RTVSPropertyOp26
 70
     1
102
RTVSPropertyOp27
 70
     1
102
RTVSPropertyOp28
 70
     1
102
RTVSPropertyOp29
 70
     1
102
RTVSPropertyOp30
 70
     1
102
RTVSPropertyOp31
 70
     1
102
RTVSPropertyOp32
 70
     1
102
RTVSPropertyOp33
 70
     1
102
RTVSPropertyOp34
 70
     1
102
RTVSPropertyOp35
 70
     1
102
RTVSPropertyOp36
 70
     1
102
RTVSPropertyOp37
 70
     1
102
RTVSPropertyOp38
 70
     1
102
RTVSPropertyOp39
 70
     1
102
RTVSPropertyOp40
 70
     1
102
RTVSPropertyOp41
 70
     1
102
RTVSPropertyOp42
 70
     1
102
RTVSPropertyOp43
 70
     1
102
RTVSPropertyOp44
 70
     1
102
RTVSPropertyOp45
 70
     1
102
RTVSPropertyOp46
 70
     1
102
RTVSPropertyOp47
 70
     1
102
RTVSPropertyOp48
 70
     1
102
RTVSPropertyOp49
 70
     1
102
RTVSPropertyOp50
 70
     1
102
RTVSPropertyOp51
 70
     0
102
RTVSPropertyOp52
 70
     0
102
RTVSPropertyOp53
 70
     1
102
RTVSPropertyOp54
 70
     1
102
RTVSPropertyOp55
 70
     1
102
RTVSPropertyOp56
 70
     1
102
RTVSPropertyOp57
 70
     1
102
RTVSPropertyOp58
 70
     1
102
RTVSPropertyOp59
 70
     1
102
RTVSPropertyOp60
 70
     1
102
RTVSPropertyOp61
 70
     1
102
RTVSPropertyOp62
 70
     1
  0
XRECORD
  5
9E0
102
{ACAD_REACTORS
330
9DF
102
}
330
9DF
100
AcDbXrecord
280
     1
102
RTVSPost2010Prop28
280
     0
102
RTVSPost2010PropOp28
 70
     1
102
RTVSPost2010Prop29
280
     1
102
RTVSPost2010PropOp29
 70
     1
102
RTVSPost2010Prop30
280
     1
102
RTVSPost2010PropOp30
 70
     1
102
RTVSPost2010Prop31
280
     0
102
RTVSPost2010PropOp31
 70
     1
102
RTVSPost2010Prop32
280
     0
102
RTVSPost2010PropOp32
 70
     1
102
RTVSPost2010Prop33
280
     0
102
RTVSPost2010PropOp33
 70
     1
102
RTVSPost2010Prop34
280
     0
102
RTVSPost2010PropOp34
 70
     1
102
RTVSPost2010Prop35
280
     0
102
RTVSPost2010PropOp35
 70
     1
102
RTVSPost2010Prop36
280
     0
102
RTVSPost2010PropOp36
 70
     1
102
RTVSPost2010Prop37
 90
       50
102
RTVSPost2010PropOp37
 70
     1
102
RTVSPost2010Prop38
140
0.0
102
RTVSPost2010PropOp38
 70
     1
102
RTVSPost2010Prop39
140
1.0
102
RTVSPost2010PropOp39
 70
     1
102
RTVSPost2010Prop40
 90
        0
102
RTVSPost2010PropOp40
 70
     1
102
RTVSPost2010Prop41ColorIndex
 90
       18
102
RTVSPost2010Prop41ColorRGB
 90
        0
102
RTVSPost2010PropOp41
 70
     1
102
RTVSPost2010Prop42
 90
       50
102
RTVSPost2010PropOp42
 70
     1
102
RTVSPost2010Prop43
 90
        3
102
RTVSPost2010PropOp43
 70
     1
102
RTVSPost2010Prop44ColorIndex
 90
        5
102
RTVSPost2010Prop44ColorRGB
 90
      255
102
RTVSPost2010PropOp44
 70
     1
102
RTVSPost2010Prop45
280
     0
102
RTVSPost2010PropOp45
 70
     1
102
RTVSPost2010Prop46
 90
       50
102
RTVSPost2010PropOp46
 70
     1
102
RTVSPost2010Prop47
 90
       50
102
RTVSPost2010PropOp47
 70
     1
102
RTVSPost2010Prop48
 90
       50
102
RTVSPost2010PropOp48
 70
     1
102
RTVSPost2010Prop49
280
     0
102
RTVSPost2010PropOp49
 70
     1
102
RTVSPost2010Prop50
 90
       50
102
RTVSPost2010PropOp50
 70
     1
102
RTVSPost2010Prop51ColorIndex
 90
      256
102
RTVSPost2010Prop51ColorRGB
 90
-16777216
102
RTVSPost2010PropOp51
 70
     0
102
RTVSPost2010Prop52
140
1.0
102
RTVSPost2010PropOp52
 70
     0
102
RTVSPost2010Prop53
 90
        2
102
RTVSPost2010PropOp53
 70
     1
102
RTVSPost2010Prop54
  1
strokes_ogs.tif
102
RTVSPost2010PropOp54
 70
     1
102
RTVSPost2010Prop55
280
     0
102
RTVSPost2010PropOp55
 70
     1
102
RTVSPost2010Prop56
140
1.0
102
RTVSPost2010PropOp56
 70
     1
102
RTVSPost2010Prop57
140
1.0
102
RTVSPost2010PropOp57
 70
     1
102
RTVSPropertyOp0
 70
     1
102
RTVSPropertyOp1
 70
     1
102
RTVSPropertyOp2
 70
     1
102
RTVSPropertyOp3
 70
     1
102
RTVSPropertyOp4
 70
     1
102
RTVSPropertyOp5
 70
     1
102
RTVSPropertyOp6
 70
     1
102
RTVSPropertyOp7
 70
     1
102
RTVSPropertyOp8
 70
     1
102
RTVSPropertyOp9
 70
     1
102
RTVSPropertyOp10
 70
     1
102
RTVSPropertyOp11
 70
     1
102
RTVSPropertyOp12
 70
     1
102
RTVSPropertyOp13
 70
     1
102
RTVSPropertyOp14
 70
     1
102
RTVSPropertyOp15
 70
     1
102
RTVSPropertyOp16
 70
     1
102
RTVSPropertyOp17
 70
     1
102
RTVSPropertyOp18
 70
     1
102
RTVSPropertyOp19
 70
     1
102
RTVSPropertyOp20
 70
     1
102
RTVSPropertyOp21
 70
     1
102
RTVSPropertyOp22
 70
     1
102
RTVSPropertyOp23
 70
     1
102
RTVSPropertyOp24
 70
     1
102
RTVSPropertyOp25
 70
     1
102
RTVSPropertyOp26
 70
     1
102
RTVSPropertyOp27
 70
     1
102
RTVSPropertyOp28
 70
     1
102
RTVSPropertyOp29
 70
     1
102
RTVSPropertyOp30
 70
     1
102
RTVSPropertyOp31
 70
     1
102
RTVSPropertyOp32
 70
     1
102
RTVSPropertyOp33
 70
     1
102
RTVSPropertyOp34
 70
     1
102
RTVSPropertyOp35
 70
     1
102
RTVSPropertyOp36
 70
     1
102
RTVSPropertyOp37
 70
     1
102
RTVSPropertyOp38
 70
     1
102
RTVSPropertyOp39
 70
     1
102
RTVSPropertyOp40
 70
     1
102
RTVSPropertyOp41
 70
     1
102
RTVSPropertyOp42
 70
     1
102
RTVSPropertyOp43
 70
     1
102
RTVSPropertyOp44
 70
     1
102
RTVSPropertyOp45
 70
     1
102
RTVSPropertyOp46
 70
     1
102
RTVSPropertyOp47
 70
     1
102
RTVSPropertyOp48
 70
     1
102
RTVSPropertyOp49
 70
     1
102
RTVSPropertyOp50
 70
     1
102
RTVSPropertyOp51
 70
     0
102
RTVSPropertyOp52
 70
     0
102
RTVSPropertyOp53
 70
     1
102
RTVSPropertyOp54
 70
     1
102
RTVSPropertyOp55
 70
     1
102
RTVSPropertyOp56
 70
     1
102
RTVSPropertyOp57
 70
     1
102
RTVSPropertyOp58
 70
     1
102
RTVSPropertyOp59
 70
     1
102
RTVSPropertyOp60
 70
     1
102
RTVSPropertyOp61
 70
     1
102
RTVSPropertyOp62
 70
     1
  0
XRECORD
  5
9EE
102
{ACAD_REACTORS
330
9ED
102
}
330
9ED
100
AcDbXrecord
280
     1
102
RTVSPost2010Prop28
280
     0
102
RTVSPost2010PropOp28
 70
     1
102
RTVSPost2010Prop29
280
     1
102
RTVSPost2010PropOp29
 70
     1
102
RTVSPost2010Prop30
280
     1
102
RTVSPost2010PropOp30
 70
     1
102
RTVSPost2010Prop31
280
     0
102
RTVSPost2010PropOp31
 70
     1
102
RTVSPost2010Prop32
280
     0
102
RTVSPost2010PropOp32
 70
     1
102
RTVSPost2010Prop33
280
     0
102
RTVSPost2010PropOp33
 70
     1
102
RTVSPost2010Prop34
280
     0
102
RTVSPost2010PropOp34
 70
     1
102
RTVSPost2010Prop35
280
     0
102
RTVSPost2010PropOp35
 70
     1
102
RTVSPost2010Prop36
280
     0
102
RTVSPost2010PropOp36
 70
     1
102
RTVSPost2010Prop37
 90
       50
102
RTVSPost2010PropOp37
 70
     1
102
RTVSPost2010Prop38
140
0.0
102
RTVSPost2010PropOp38
 70
     1
102
RTVSPost2010Prop39
140
1.0
102
RTVSPost2010PropOp39
 70
     1
102
RTVSPost2010Prop40
 90
        0
102
RTVSPost2010PropOp40
 70
     1
102
RTVSPost2010Prop41ColorIndex
 90
       18
102
RTVSPost2010Prop41ColorRGB
 90
        0
102
RTVSPost2010PropOp41
 70
     1
102
RTVSPost2010Prop42
 90
       50
102
RTVSPost2010PropOp42
 70
     1
102
RTVSPost2010Prop43
 90
        3
102
RTVSPost2010PropOp43
 70
     1
102
RTVSPost2010Prop44ColorIndex
 90
        5
102
RTVSPost2010Prop44ColorRGB
 90
      255
102
RTVSPost2010PropOp44
 70
     1
102
RTVSPost2010Prop45
280
     0
102
RTVSPost2010PropOp45
 70
     1
102
RTVSPost2010Prop46
 90
       50
102
RTVSPost2010PropOp46
 70
     1
102
RTVSPost2010Prop47
 90
       50
102
RTVSPost2010PropOp47
 70
     1
102
RTVSPost2010Prop48
 90
       50
102
RTVSPost2010PropOp48
 70
     1
102
RTVSPost2010Prop49
280
     0
102
RTVSPost2010PropOp49
 70
     1
102
RTVSPost2010Prop50
 90
       50
102
RTVSPost2010PropOp50
 70
     1
102
RTVSPost2010Prop51ColorIndex
 90
      256
102
RTVSPost2010Prop51ColorRGB
 90
-16777216
102
RTVSPost2010PropOp51
 70
     0
102
RTVSPost2010Prop52
140
1.0
102
RTVSPost2010PropOp52
 70
     0
102
RTVSPost2010Prop53
 90
        2
102
RTVSPost2010PropOp53
 70
     1
102
RTVSPost2010Prop54
  1
strokes_ogs.tif
102
RTVSPost2010PropOp54
 70
     1
102
RTVSPost2010Prop55
280
     0
102
RTVSPost2010PropOp55
 70
     1
102
RTVSPost2010Prop56
140
1.0
102
RTVSPost2010PropOp56
 70
     1
102
RTVSPost2010Prop57
140
1.0
102
RTVSPost2010PropOp57
 70
     1
102
RTVSPropertyOp0
 70
     1
102
RTVSPropertyOp1
 70
     1
102
RTVSPropertyOp2
 70
     1
102
RTVSPropertyOp3
 70
     1
102
RTVSPropertyOp4
 70
     1
102
RTVSPropertyOp5
 70
     1
102
RTVSPropertyOp6
 70
     1
102
RTVSPropertyOp7
 70
     1
102
RTVSPropertyOp8
 70
     1
102
RTVSPropertyOp9
 70
     1
102
RTVSPropertyOp10
 70
     1
102
RTVSPropertyOp11
 70
     1
102
RTVSPropertyOp12
 70
     1
102
RTVSPropertyOp13
 70
     1
102
RTVSPropertyOp14
 70
     1
102
RTVSPropertyOp15
 70
     1
102
RTVSPropertyOp16
 70
     1
102
RTVSPropertyOp17
 70
     1
102
RTVSPropertyOp18
 70
     1
102
RTVSPropertyOp19
 70
     1
102
RTVSPropertyOp20
 70
     1
102
RTVSPropertyOp21
 70
     1
102
RTVSPropertyOp22
 70
     1
102
RTVSPropertyOp23
 70
     1
102
RTVSPropertyOp24
 70
     1
102
RTVSPropertyOp25
 70
     1
102
RTVSPropertyOp26
 70
     1
102
RTVSPropertyOp27
 70
     1
102
RTVSPropertyOp28
 70
     1
102
RTVSPropertyOp29
 70
     1
102
RTVSPropertyOp30
 70
     1
102
RTVSPropertyOp31
 70
     1
102
RTVSPropertyOp32
 70
     1
102
RTVSPropertyOp33
 70
     1
102
RTVSPropertyOp34
 70
     1
102
RTVSPropertyOp35
 70
     1
102
RTVSPropertyOp36
 70
     1
102
RTVSPropertyOp37
 70
     1
102
RTVSPropertyOp38
 70
     1
102
RTVSPropertyOp39
 70
     1
102
RTVSPropertyOp40
 70
     1
102
RTVSPropertyOp41
 70
     1
102
RTVSPropertyOp42
 70
     1
102
RTVSPropertyOp43
 70
     1
102
RTVSPropertyOp44
 70
     1
102
RTVSPropertyOp45
 70
     1
102
RTVSPropertyOp46
 70
     1
102
RTVSPropertyOp47
 70
     1
102
RTVSPropertyOp48
 70
     1
102
RTVSPropertyOp49
 70
     1
102
RTVSPropertyOp50
 70
     1
102
RTVSPropertyOp51
 70
     0
102
RTVSPropertyOp52
 70
     0
102
RTVSPropertyOp53
 70
     1
102
RTVSPropertyOp54
 70
     1
102
RTVSPropertyOp55
 70
     1
102
RTVSPropertyOp56
 70
     1
102
RTVSPropertyOp57
 70
     1
102
RTVSPropertyOp58
 70
     1
102
RTVSPropertyOp59
 70
     1
102
RTVSPropertyOp60
 70
     1
102
RTVSPropertyOp61
 70
     1
102
RTVSPropertyOp62
 70
     1
  0
XRECORD
  5
9F6
102
{ACAD_REACTORS
330
9F5
102
}
330
9F5
100
AcDbXrecord
280
     1
102
RTVSPost2010Prop28
280
     0
102
RTVSPost2010PropOp28
 70
     1
102
RTVSPost2010Prop29
280
     1
102
RTVSPost2010PropOp29
 70
     1
102
RTVSPost2010Prop30
280
     1
102
RTVSPost2010PropOp30
 70
     1
102
RTVSPost2010Prop31
280
     0
102
RTVSPost2010PropOp31
 70
     1
102
RTVSPost2010Prop32
280
     0
102
RTVSPost2010PropOp32
 70
     1
102
RTVSPost2010Prop33
280
     0
102
RTVSPost2010PropOp33
 70
     1
102
RTVSPost2010Prop34
280
     0
102
RTVSPost2010PropOp34
 70
     1
102
RTVSPost2010Prop35
280
     0
102
RTVSPost2010PropOp35
 70
     1
102
RTVSPost2010Prop36
280
     0
102
RTVSPost2010PropOp36
 70
     1
102
RTVSPost2010Prop37
 90
       50
102
RTVSPost2010PropOp37
 70
     1
102
RTVSPost2010Prop38
140
0.0
102
RTVSPost2010PropOp38
 70
     1
102
RTVSPost2010Prop39
140
1.0
102
RTVSPost2010PropOp39
 70
     1
102
RTVSPost2010Prop40
 90
        0
102
RTVSPost2010PropOp40
 70
     1
102
RTVSPost2010Prop41ColorIndex
 90
       18
102
RTVSPost2010Prop41ColorRGB
 90
        0
102
RTVSPost2010PropOp41
 70
     1
102
RTVSPost2010Prop42
 90
       50
102
RTVSPost2010PropOp42
 70
     1
102
RTVSPost2010Prop43
 90
        3
102
RTVSPost2010PropOp43
 70
     1
102
RTVSPost2010Prop44ColorIndex
 90
        5
102
RTVSPost2010Prop44ColorRGB
 90
      255
102
RTVSPost2010PropOp44
 70
     1
102
RTVSPost2010Prop45
280
     0
102
RTVSPost2010PropOp45
 70
     1
102
RTVSPost2010Prop46
 90
       50
102
RTVSPost2010PropOp46
 70
     1
102
RTVSPost2010Prop47
 90
       50
102
RTVSPost2010PropOp47
 70
     1
102
RTVSPost2010Prop48
 90
       50
102
RTVSPost2010PropOp48
 70
     1
102
RTVSPost2010Prop49
280
     0
102
RTVSPost2010PropOp49
 70
     1
102
RTVSPost2010Prop50
 90
       50
102
RTVSPost2010PropOp50
 70
     1
102
RTVSPost2010Prop51ColorIndex
 90
      256
102
RTVSPost2010Prop51ColorRGB
 90
-16777216
102
RTVSPost2010PropOp51
 70
     0
102
RTVSPost2010Prop52
140
1.0
102
RTVSPost2010PropOp52
 70
     0
102
RTVSPost2010Prop53
 90
        2
102
RTVSPost2010PropOp53
 70
     1
102
RTVSPost2010Prop54
  1
strokes_ogs.tif
102
RTVSPost2010PropOp54
 70
     1
102
RTVSPost2010Prop55
280
     0
102
RTVSPost2010PropOp55
 70
     1
102
RTVSPost2010Prop56
140
1.0
102
RTVSPost2010PropOp56
 70
     1
102
RTVSPost2010Prop57
140
1.0
102
RTVSPost2010PropOp57
 70
     1
102
RTVSPropertyOp0
 70
     1
102
RTVSPropertyOp1
 70
     1
102
RTVSPropertyOp2
 70
     1
102
RTVSPropertyOp3
 70
     1
102
RTVSPropertyOp4
 70
     1
102
RTVSPropertyOp5
 70
     1
102
RTVSPropertyOp6
 70
     1
102
RTVSPropertyOp7
 70
     1
102
RTVSPropertyOp8
 70
     1
102
RTVSPropertyOp9
 70
     1
102
RTVSPropertyOp10
 70
     1
102
RTVSPropertyOp11
 70
     1
102
RTVSPropertyOp12
 70
     1
102
RTVSPropertyOp13
 70
     1
102
RTVSPropertyOp14
 70
     1
102
RTVSPropertyOp15
 70
     1
102
RTVSPropertyOp16
 70
     1
102
RTVSPropertyOp17
 70
     1
102
RTVSPropertyOp18
 70
     1
102
RTVSPropertyOp19
 70
     1
102
RTVSPropertyOp20
 70
     1
102
RTVSPropertyOp21
 70
     1
102
RTVSPropertyOp22
 70
     1
102
RTVSPropertyOp23
 70
     1
102
RTVSPropertyOp24
 70
     1
102
RTVSPropertyOp25
 70
     1
102
RTVSPropertyOp26
 70
     1
102
RTVSPropertyOp27
 70
     1
102
RTVSPropertyOp28
 70
     1
102
RTVSPropertyOp29
 70
     1
102
RTVSPropertyOp30
 70
     1
102
RTVSPropertyOp31
 70
     1
102
RTVSPropertyOp32
 70
     1
102
RTVSPropertyOp33
 70
     1
102
RTVSPropertyOp34
 70
     1
102
RTVSPropertyOp35
 70
     1
102
RTVSPropertyOp36
 70
     1
102
RTVSPropertyOp37
 70
     1
102
RTVSPropertyOp38
 70
     1
102
RTVSPropertyOp39
 70
     1
102
RTVSPropertyOp40
 70
     1
102
RTVSPropertyOp41
 70
     1
102
RTVSPropertyOp42
 70
     1
102
RTVSPropertyOp43
 70
     1
102
RTVSPropertyOp44
 70
     1
102
RTVSPropertyOp45
 70
     1
102
RTVSPropertyOp46
 70
     1
102
RTVSPropertyOp47
 70
     1
102
RTVSPropertyOp48
 70
     1
102
RTVSPropertyOp49
 70
     1
102
RTVSPropertyOp50
 70
     1
102
RTVSPropertyOp51
 70
     0
102
RTVSPropertyOp52
 70
     0
102
RTVSPropertyOp53
 70
     1
102
RTVSPropertyOp54
 70
     1
102
RTVSPropertyOp55
 70
     1
102
RTVSPropertyOp56
 70
     1
102
RTVSPropertyOp57
 70
     1
102
RTVSPropertyOp58
 70
     1
102
RTVSPropertyOp59
 70
     1
102
RTVSPropertyOp60
 70
     1
102
RTVSPropertyOp61
 70
     1
102
RTVSPropertyOp62
 70
     1
  0
XRECORD
  5
9E8
102
{ACAD_REACTORS
330
9E7
102
}
330
9E7
100
AcDbXrecord
280
     1
102
RTVSPost2010Prop28
280
     0
102
RTVSPost2010PropOp28
 70
     1
102
RTVSPost2010Prop29
280
     1
102
RTVSPost2010PropOp29
 70
     1
102
RTVSPost2010Prop30
280
     1
102
RTVSPost2010PropOp30
 70
     1
102
RTVSPost2010Prop31
280
     0
102
RTVSPost2010PropOp31
 70
     1
102
RTVSPost2010Prop32
280
     0
102
RTVSPost2010PropOp32
 70
     1
102
RTVSPost2010Prop33
280
     0
102
RTVSPost2010PropOp33
 70
     1
102
RTVSPost2010Prop34
280
     0
102
RTVSPost2010PropOp34
 70
     1
102
RTVSPost2010Prop35
280
     0
102
RTVSPost2010PropOp35
 70
     1
102
RTVSPost2010Prop36
280
     0
102
RTVSPost2010PropOp36
 70
     1
102
RTVSPost2010Prop37
 90
       50
102
RTVSPost2010PropOp37
 70
     1
102
RTVSPost2010Prop38
140
0.0
102
RTVSPost2010PropOp38
 70
     1
102
RTVSPost2010Prop39
140
1.0
102
RTVSPost2010PropOp39
 70
     1
102
RTVSPost2010Prop40
 90
        0
102
RTVSPost2010PropOp40
 70
     1
102
RTVSPost2010Prop41ColorIndex
 90
       18
102
RTVSPost2010Prop41ColorRGB
 90
        0
102
RTVSPost2010PropOp41
 70
     1
102
RTVSPost2010Prop42
 90
       50
102
RTVSPost2010PropOp42
 70
     1
102
RTVSPost2010Prop43
 90
        3
102
RTVSPost2010PropOp43
 70
     1
102
RTVSPost2010Prop44ColorIndex
 90
        5
102
RTVSPost2010Prop44ColorRGB
 90
      255
102
RTVSPost2010PropOp44
 70
     1
102
RTVSPost2010Prop45
280
     0
102
RTVSPost2010PropOp45
 70
     1
102
RTVSPost2010Prop46
 90
       50
102
RTVSPost2010PropOp46
 70
     1
102
RTVSPost2010Prop47
 90
       50
102
RTVSPost2010PropOp47
 70
     1
102
RTVSPost2010Prop48
 90
       50
102
RTVSPost2010PropOp48
 70
     1
102
RTVSPost2010Prop49
280
     0
102
RTVSPost2010PropOp49
 70
     1
102
RTVSPost2010Prop50
 90
       50
102
RTVSPost2010PropOp50
 70
     1
102
RTVSPost2010Prop51ColorIndex
 90
      256
102
RTVSPost2010Prop51ColorRGB
 90
-16777216
102
RTVSPost2010PropOp51
 70
     0
102
RTVSPost2010Prop52
140
1.0
102
RTVSPost2010PropOp52
 70
     0
102
RTVSPost2010Prop53
 90
        2
102
RTVSPost2010PropOp53
 70
     1
102
RTVSPost2010Prop54
  1
strokes_ogs.tif
102
RTVSPost2010PropOp54
 70
     1
102
RTVSPost2010Prop55
280
     0
102
RTVSPost2010PropOp55
 70
     1
102
RTVSPost2010Prop56
140
1.0
102
RTVSPost2010PropOp56
 70
     1
102
RTVSPost2010Prop57
140
1.0
102
RTVSPost2010PropOp57
 70
     1
102
RTVSPropertyOp0
 70
     1
102
RTVSPropertyOp1
 70
     1
102
RTVSPropertyOp2
 70
     1
102
RTVSPropertyOp3
 70
     1
102
RTVSPropertyOp4
 70
     1
102
RTVSPropertyOp5
 70
     1
102
RTVSPropertyOp6
 70
     1
102
RTVSPropertyOp7
 70
     1
102
RTVSPropertyOp8
 70
     1
102
RTVSPropertyOp9
 70
     1
102
RTVSPropertyOp10
 70
     1
102
RTVSPropertyOp11
 70
     1
102
RTVSPropertyOp12
 70
     1
102
RTVSPropertyOp13
 70
     1
102
RTVSPropertyOp14
 70
     1
102
RTVSPropertyOp15
 70
     1
102
RTVSPropertyOp16
 70
     1
102
RTVSPropertyOp17
 70
     1
102
RTVSPropertyOp18
 70
     1
102
RTVSPropertyOp19
 70
     1
102
RTVSPropertyOp20
 70
     1
102
RTVSPropertyOp21
 70
     1
102
RTVSPropertyOp22
 70
     1
102
RTVSPropertyOp23
 70
     1
102
RTVSPropertyOp24
 70
     1
102
RTVSPropertyOp25
 70
     1
102
RTVSPropertyOp26
 70
     1
102
RTVSPropertyOp27
 70
     1
102
RTVSPropertyOp28
 70
     1
102
RTVSPropertyOp29
 70
     1
102
RTVSPropertyOp30
 70
     1
102
RTVSPropertyOp31
 70
     1
102
RTVSPropertyOp32
 70
     1
102
RTVSPropertyOp33
 70
     1
102
RTVSPropertyOp34
 70
     1
102
RTVSPropertyOp35
 70
     1
102
RTVSPropertyOp36
 70
     1
102
RTVSPropertyOp37
 70
     1
102
RTVSPropertyOp38
 70
     1
102
RTVSPropertyOp39
 70
     1
102
RTVSPropertyOp40
 70
     1
102
RTVSPropertyOp41
 70
     1
102
RTVSPropertyOp42
 70
     1
102
RTVSPropertyOp43
 70
     1
102
RTVSPropertyOp44
 70
     1
102
RTVSPropertyOp45
 70
     1
102
RTVSPropertyOp46
 70
     1
102
RTVSPropertyOp47
 70
     1
102
RTVSPropertyOp48
 70
     1
102
RTVSPropertyOp49
 70
     1
102
RTVSPropertyOp50
 70
     1
102
RTVSPropertyOp51
 70
     0
102
RTVSPropertyOp52
 70
     0
102
RTVSPropertyOp53
 70
     1
102
RTVSPropertyOp54
 70
     1
102
RTVSPropertyOp55
 70
     1
102
RTVSPropertyOp56
 70
     1
102
RTVSPropertyOp57
 70
     1
102
RTVSPropertyOp58
 70
     1
102
RTVSPropertyOp59
 70
     1
102
RTVSPropertyOp60
 70
     1
102
RTVSPropertyOp61
 70
     1
102
RTVSPropertyOp62
 70
     1
  0
XRECORD
  5
9EC
102
{ACAD_REACTORS
330
9EB
102
}
330
9EB
100
AcDbXrecord
280
     1
102
RTVSPost2010Prop28
280
     0
102
RTVSPost2010PropOp28
 70
     1
102
RTVSPost2010Prop29
280
     1
102
RTVSPost2010PropOp29
 70
     1
102
RTVSPost2010Prop30
280
     1
102
RTVSPost2010PropOp30
 70
     1
102
RTVSPost2010Prop31
280
     0
102
RTVSPost2010PropOp31
 70
     1
102
RTVSPost2010Prop32
280
     0
102
RTVSPost2010PropOp32
 70
     1
102
RTVSPost2010Prop33
280
     0
102
RTVSPost2010PropOp33
 70
     1
102
RTVSPost2010Prop34
280
     0
102
RTVSPost2010PropOp34
 70
     1
102
RTVSPost2010Prop35
280
     0
102
RTVSPost2010PropOp35
 70
     1
102
RTVSPost2010Prop36
280
     0
102
RTVSPost2010PropOp36
 70
     1
102
RTVSPost2010Prop37
 90
       50
102
RTVSPost2010PropOp37
 70
     1
102
RTVSPost2010Prop38
140
0.0
102
RTVSPost2010PropOp38
 70
     1
102
RTVSPost2010Prop39
140
1.0
102
RTVSPost2010PropOp39
 70
     1
102
RTVSPost2010Prop40
 90
        0
102
RTVSPost2010PropOp40
 70
     1
102
RTVSPost2010Prop41ColorIndex
 90
       18
102
RTVSPost2010Prop41ColorRGB
 90
        0
102
RTVSPost2010PropOp41
 70
     1
102
RTVSPost2010Prop42
 90
       50
102
RTVSPost2010PropOp42
 70
     1
102
RTVSPost2010Prop43
 90
        3
102
RTVSPost2010PropOp43
 70
     1
102
RTVSPost2010Prop44ColorIndex
 90
        5
102
RTVSPost2010Prop44ColorRGB
 90
      255
102
RTVSPost2010PropOp44
 70
     1
102
RTVSPost2010Prop45
280
     0
102
RTVSPost2010PropOp45
 70
     1
102
RTVSPost2010Prop46
 90
       50
102
RTVSPost2010PropOp46
 70
     1
102
RTVSPost2010Prop47
 90
       50
102
RTVSPost2010PropOp47
 70
     1
102
RTVSPost2010Prop48
 90
       50
102
RTVSPost2010PropOp48
 70
     1
102
RTVSPost2010Prop49
280
     0
102
RTVSPost2010PropOp49
 70
     1
102
RTVSPost2010Prop50
 90
       50
102
RTVSPost2010PropOp50
 70
     1
102
RTVSPost2010Prop51ColorIndex
 90
      256
102
RTVSPost2010Prop51ColorRGB
 90
-16777216
102
RTVSPost2010PropOp51
 70
     0
102
RTVSPost2010Prop52
140
1.0
102
RTVSPost2010PropOp52
 70
     0
102
RTVSPost2010Prop53
 90
        2
102
RTVSPost2010PropOp53
 70
     1
102
RTVSPost2010Prop54
  1
strokes_ogs.tif
102
RTVSPost2010PropOp54
 70
     1
102
RTVSPost2010Prop55
280
     0
102
RTVSPost2010PropOp55
 70
     1
102
RTVSPost2010Prop56
140
1.0
102
RTVSPost2010PropOp56
 70
     1
102
RTVSPost2010Prop57
140
1.0
102
RTVSPost2010PropOp57
 70
     1
102
RTVSPropertyOp0
 70
     1
102
RTVSPropertyOp1
 70
     1
102
RTVSPropertyOp2
 70
     1
102
RTVSPropertyOp3
 70
     1
102
RTVSPropertyOp4
 70
     1
102
RTVSPropertyOp5
 70
     1
102
RTVSPropertyOp6
 70
     1
102
RTVSPropertyOp7
 70
     1
102
RTVSPropertyOp8
 70
     1
102
RTVSPropertyOp9
 70
     1
102
RTVSPropertyOp10
 70
     1
102
RTVSPropertyOp11
 70
     1
102
RTVSPropertyOp12
 70
     1
102
RTVSPropertyOp13
 70
     1
102
RTVSPropertyOp14
 70
     1
102
RTVSPropertyOp15
 70
     1
102
RTVSPropertyOp16
 70
     1
102
RTVSPropertyOp17
 70
     1
102
RTVSPropertyOp18
 70
     1
102
RTVSPropertyOp19
 70
     1
102
RTVSPropertyOp20
 70
     1
102
RTVSPropertyOp21
 70
     1
102
RTVSPropertyOp22
 70
     1
102
RTVSPropertyOp23
 70
     1
102
RTVSPropertyOp24
 70
     1
102
RTVSPropertyOp25
 70
     1
102
RTVSPropertyOp26
 70
     1
102
RTVSPropertyOp27
 70
     1
102
RTVSPropertyOp28
 70
     1
102
RTVSPropertyOp29
 70
     1
102
RTVSPropertyOp30
 70
     1
102
RTVSPropertyOp31
 70
     1
102
RTVSPropertyOp32
 70
     1
102
RTVSPropertyOp33
 70
     1
102
RTVSPropertyOp34
 70
     1
102
RTVSPropertyOp35
 70
     1
102
RTVSPropertyOp36
 70
     1
102
RTVSPropertyOp37
 70
     1
102
RTVSPropertyOp38
 70
     1
102
RTVSPropertyOp39
 70
     1
102
RTVSPropertyOp40
 70
     1
102
RTVSPropertyOp41
 70
     1
102
RTVSPropertyOp42
 70
     1
102
RTVSPropertyOp43
 70
     1
102
RTVSPropertyOp44
 70
     1
102
RTVSPropertyOp45
 70
     1
102
RTVSPropertyOp46
 70
     1
102
RTVSPropertyOp47
 70
     1
102
RTVSPropertyOp48
 70
     1
102
RTVSPropertyOp49
 70
     1
102
RTVSPropertyOp50
 70
     1
102
RTVSPropertyOp51
 70
     0
102
RTVSPropertyOp52
 70
     0
102
RTVSPropertyOp53
 70
     1
102
RTVSPropertyOp54
 70
     1
102
RTVSPropertyOp55
 70
     1
102
RTVSPropertyOp56
 70
     1
102
RTVSPropertyOp57
 70
     1
102
RTVSPropertyOp58
 70
     1
102
RTVSPropertyOp59
 70
     1
102
RTVSPropertyOp60
 70
     1
102
RTVSPropertyOp61
 70
     1
102
RTVSPropertyOp62
 70
     1
  0
XRECORD
  5
9FC
102
{ACAD_REACTORS
330
9FB
102
}
330
9FB
100
AcDbXrecord
280
     1
102
RTVSPost2010Prop28
280
     0
102
RTVSPost2010PropOp28
 70
     1
102
RTVSPost2010Prop29
280
     1
102
RTVSPost2010PropOp29
 70
     1
102
RTVSPost2010Prop30
280
     1
102
RTVSPost2010PropOp30
 70
     1
102
RTVSPost2010Prop31
280
     0
102
RTVSPost2010PropOp31
 70
     1
102
RTVSPost2010Prop32
280
     0
102
RTVSPost2010PropOp32
 70
     1
102
RTVSPost2010Prop33
280
     0
102
RTVSPost2010PropOp33
 70
     1
102
RTVSPost2010Prop34
280
     0
102
RTVSPost2010PropOp34
 70
     1
102
RTVSPost2010Prop35
280
     0
102
RTVSPost2010PropOp35
 70
     1
102
RTVSPost2010Prop36
280
     0
102
RTVSPost2010PropOp36
 70
     1
102
RTVSPost2010Prop37
 90
       50
102
RTVSPost2010PropOp37
 70
     1
102
RTVSPost2010Prop38
140
0.0
102
RTVSPost2010PropOp38
 70
     1
102
RTVSPost2010Prop39
140
1.0
102
RTVSPost2010PropOp39
 70
     1
102
RTVSPost2010Prop40
 90
        0
102
RTVSPost2010PropOp40
 70
     1
102
RTVSPost2010Prop41ColorIndex
 90
       18
102
RTVSPost2010Prop41ColorRGB
 90
        0
102
RTVSPost2010PropOp41
 70
     1
102
RTVSPost2010Prop42
 90
       50
102
RTVSPost2010PropOp42
 70
     1
102
RTVSPost2010Prop43
 90
        3
102
RTVSPost2010PropOp43
 70
     1
102
RTVSPost2010Prop44ColorIndex
 90
        5
102
RTVSPost2010Prop44ColorRGB
 90
      255
102
RTVSPost2010PropOp44
 70
     1
102
RTVSPost2010Prop45
280
     0
102
RTVSPost2010PropOp45
 70
     1
102
RTVSPost2010Prop46
 90
       50
102
RTVSPost2010PropOp46
 70
     1
102
RTVSPost2010Prop47
 90
       50
102
RTVSPost2010PropOp47
 70
     1
102
RTVSPost2010Prop48
 90
       50
102
RTVSPost2010PropOp48
 70
     1
102
RTVSPost2010Prop49
280
     0
102
RTVSPost2010PropOp49
 70
     1
102
RTVSPost2010Prop50
 90
       50
102
RTVSPost2010PropOp50
 70
     1
102
RTVSPost2010Prop51ColorIndex
 90
      256
102
RTVSPost2010Prop51ColorRGB
 90
-16777216
102
RTVSPost2010PropOp51
 70
     0
102
RTVSPost2010Prop52
140
1.0
102
RTVSPost2010PropOp52
 70
     0
102
RTVSPost2010Prop53
 90
        2
102
RTVSPost2010PropOp53
 70
     1
102
RTVSPost2010Prop54
  1
strokes_ogs.tif
102
RTVSPost2010PropOp54
 70
     1
102
RTVSPost2010Prop55
280
     0
102
RTVSPost2010PropOp55
 70
     1
102
RTVSPost2010Prop56
140
1.0
102
RTVSPost2010PropOp56
 70
     1
102
RTVSPost2010Prop57
140
1.0
102
RTVSPost2010PropOp57
 70
     1
102
RTVSPropertyOp0
 70
     0
102
RTVSPropertyOp1
 70
     0
102
RTVSPropertyOp2
 70
     0
102
RTVSPropertyOp3
 70
     0
102
RTVSPropertyOp4
 70
     0
102
RTVSPropertyOp5
 70
     0
102
RTVSPropertyOp6
 70
     0
102
RTVSPropertyOp7
 70
     0
102
RTVSPropertyOp8
 70
     0
102
RTVSPropertyOp9
 70
     0
102
RTVSPropertyOp10
 70
     0
102
RTVSPropertyOp11
 70
     0
102
RTVSPropertyOp12
 70
     0
102
RTVSPropertyOp13
 70
     0
102
RTVSPropertyOp14
 70
     2
102
RTVSPropertyOp15
 70
     0
102
RTVSPropertyOp16
 70
     0
102
RTVSPropertyOp17
 70
     0
102
RTVSPropertyOp18
 70
     0
102
RTVSPropertyOp19
 70
     0
102
RTVSPropertyOp20
 70
     0
102
RTVSPropertyOp21
 70
     0
102
RTVSPropertyOp22
 70
     0
102
RTVSPropertyOp23
 70
     0
102
RTVSPropertyOp24
 70
     0
102
RTVSPropertyOp25
 70
     0
102
RTVSPropertyOp26
 70
     0
102
RTVSPropertyOp27
 70
     0
102
RTVSPropertyOp28
 70
     1
102
RTVSPropertyOp29
 70
     1
102
RTVSPropertyOp30
 70
     1
102
RTVSPropertyOp31
 70
     1
102
RTVSPropertyOp32
 70
     1
102
RTVSPropertyOp33
 70
     1
102
RTVSPropertyOp34
 70
     1
102
RTVSPropertyOp35
 70
     1
102
RTVSPropertyOp36
 70
     1
102
RTVSPropertyOp37
 70
     1
102
RTVSPropertyOp38
 70
     1
102
RTVSPropertyOp39
 70
     1
102
RTVSPropertyOp40
 70
     1
102
RTVSPropertyOp41
 70
     1
102
RTVSPropertyOp42
 70
     1
102
RTVSPropertyOp43
 70
     1
102
RTVSPropertyOp44
 70
     1
102
RTVSPropertyOp45
 70
     1
102
RTVSPropertyOp46
 70
     1
102
RTVSPropertyOp47
 70
     1
102
RTVSPropertyOp48
 70
     1
102
RTVSPropertyOp49
 70
     1
102
RTVSPropertyOp50
 70
     1
102
RTVSPropertyOp51
 70
     0
102
RTVSPropertyOp52
 70
     0
102
RTVSPropertyOp53
 70
     1
102
RTVSPropertyOp54
 70
     1
102
RTVSPropertyOp55
 70
     1
102
RTVSPropertyOp56
 70
     1
102
RTVSPropertyOp57
 70
     1
102
RTVSPropertyOp58
 70
     1
102
RTVSPropertyOp59
 70
     1
102
RTVSPropertyOp60
 70
     1
102
RTVSPropertyOp61
 70
     1
102
RTVSPropertyOp62
 70
     1
  0
XRECORD
  5
9F4
102
{ACAD_REACTORS
330
9F3
102
}
330
9F3
100
AcDbXrecord
280
     1
102
RTVSPost2010Prop28
280
     0
102
RTVSPost2010PropOp28
 70
     1
102
RTVSPost2010Prop29
280
     1
102
RTVSPost2010PropOp29
 70
     1
102
RTVSPost2010Prop30
280
     1
102
RTVSPost2010PropOp30
 70
     1
102
RTVSPost2010Prop31
280
     0
102
RTVSPost2010PropOp31
 70
     1
102
RTVSPost2010Prop32
280
     0
102
RTVSPost2010PropOp32
 70
     1
102
RTVSPost2010Prop33
280
     0
102
RTVSPost2010PropOp33
 70
     1
102
RTVSPost2010Prop34
280
     0
102
RTVSPost2010PropOp34
 70
     1
102
RTVSPost2010Prop35
280
     0
102
RTVSPost2010PropOp35
 70
     1
102
RTVSPost2010Prop36
280
     0
102
RTVSPost2010PropOp36
 70
     1
102
RTVSPost2010Prop37
 90
       50
102
RTVSPost2010PropOp37
 70
     1
102
RTVSPost2010Prop38
140
0.0
102
RTVSPost2010PropOp38
 70
     1
102
RTVSPost2010Prop39
140
1.0
102
RTVSPost2010PropOp39
 70
     1
102
RTVSPost2010Prop40
 90
        0
102
RTVSPost2010PropOp40
 70
     1
102
RTVSPost2010Prop41ColorIndex
 90
       18
102
RTVSPost2010Prop41ColorRGB
 90
        0
102
RTVSPost2010PropOp41
 70
     1
102
RTVSPost2010Prop42
 90
       50
102
RTVSPost2010PropOp42
 70
     1
102
RTVSPost2010Prop43
 90
        3
102
RTVSPost2010PropOp43
 70
     1
102
RTVSPost2010Prop44ColorIndex
 90
        5
102
RTVSPost2010Prop44ColorRGB
 90
      255
102
RTVSPost2010PropOp44
 70
     1
102
RTVSPost2010Prop45
280
     0
102
RTVSPost2010PropOp45
 70
     1
102
RTVSPost2010Prop46
 90
       50
102
RTVSPost2010PropOp46
 70
     1
102
RTVSPost2010Prop47
 90
       50
102
RTVSPost2010PropOp47
 70
     1
102
RTVSPost2010Prop48
 90
       50
102
RTVSPost2010PropOp48
 70
     1
102
RTVSPost2010Prop49
280
     0
102
RTVSPost2010PropOp49
 70
     1
102
RTVSPost2010Prop50
 90
       50
102
RTVSPost2010PropOp50
 70
     1
102
RTVSPost2010Prop51ColorIndex
 90
      256
102
RTVSPost2010Prop51ColorRGB
 90
-16777216
102
RTVSPost2010PropOp51
 70
     0
102
RTVSPost2010Prop52
140
1.0
102
RTVSPost2010PropOp52
 70
     0
102
RTVSPost2010Prop53
 90
        2
102
RTVSPost2010PropOp53
 70
     1
102
RTVSPost2010Prop54
  1
strokes_ogs.tif
102
RTVSPost2010PropOp54
 70
     1
102
RTVSPost2010Prop55
280
     0
102
RTVSPost2010PropOp55
 70
     1
102
RTVSPost2010Prop56
140
1.0
102
RTVSPost2010PropOp56
 70
     1
102
RTVSPost2010Prop57
140
1.0
102
RTVSPost2010PropOp57
 70
     1
102
RTVSPropertyOp0
 70
     1
102
RTVSPropertyOp1
 70
     1
102
RTVSPropertyOp2
 70
     1
102
RTVSPropertyOp3
 70
     1
102
RTVSPropertyOp4
 70
     1
102
RTVSPropertyOp5
 70
     1
102
RTVSPropertyOp6
 70
     1
102
RTVSPropertyOp7
 70
     1
102
RTVSPropertyOp8
 70
     1
102
RTVSPropertyOp9
 70
     1
102
RTVSPropertyOp10
 70
     1
102
RTVSPropertyOp11
 70
     1
102
RTVSPropertyOp12
 70
     1
102
RTVSPropertyOp13
 70
     1
102
RTVSPropertyOp14
 70
     1
102
RTVSPropertyOp15
 70
     1
102
RTVSPropertyOp16
 70
     1
102
RTVSPropertyOp17
 70
     1
102
RTVSPropertyOp18
 70
     1
102
RTVSPropertyOp19
 70
     1
102
RTVSPropertyOp20
 70
     1
102
RTVSPropertyOp21
 70
     1
102
RTVSPropertyOp22
 70
     1
102
RTVSPropertyOp23
 70
     1
102
RTVSPropertyOp24
 70
     1
102
RTVSPropertyOp25
 70
     1
102
RTVSPropertyOp26
 70
     1
102
RTVSPropertyOp27
 70
     1
102
RTVSPropertyOp28
 70
     1
102
RTVSPropertyOp29
 70
     1
102
RTVSPropertyOp30
 70
     1
102
RTVSPropertyOp31
 70
     1
102
RTVSPropertyOp32
 70
     1
102
RTVSPropertyOp33
 70
     1
102
RTVSPropertyOp34
 70
     1
102
RTVSPropertyOp35
 70
     1
102
RTVSPropertyOp36
 70
     1
102
RTVSPropertyOp37
 70
     1
102
RTVSPropertyOp38
 70
     1
102
RTVSPropertyOp39
 70
     1
102
RTVSPropertyOp40
 70
     1
102
RTVSPropertyOp41
 70
     1
102
RTVSPropertyOp42
 70
     1
102
RTVSPropertyOp43
 70
     1
102
RTVSPropertyOp44
 70
     1
102
RTVSPropertyOp45
 70
     1
102
RTVSPropertyOp46
 70
     1
102
RTVSPropertyOp47
 70
     1
102
RTVSPropertyOp48
 70
     1
102
RTVSPropertyOp49
 70
     1
102
RTVSPropertyOp50
 70
     1
102
RTVSPropertyOp51
 70
     0
102
RTVSPropertyOp52
 70
     0
102
RTVSPropertyOp53
 70
     1
102
RTVSPropertyOp54
 70
     1
102
RTVSPropertyOp55
 70
     1
102
RTVSPropertyOp56
 70
     1
102
RTVSPropertyOp57
 70
     1
102
RTVSPropertyOp58
 70
     1
102
RTVSPropertyOp59
 70
     1
102
RTVSPropertyOp60
 70
     1
102
RTVSPropertyOp61
 70
     1
102
RTVSPropertyOp62
 70
     1
  0
XRECORD
  5
9D8
102
{ACAD_REACTORS
330
9D7
102
}
330
9D7
100
AcDbXrecord
280
     1
102
RTVSPost2010Prop28
280
     0
102
RTVSPost2010PropOp28
 70
     1
102
RTVSPost2010Prop29
280
     1
102
RTVSPost2010PropOp29
 70
     1
102
RTVSPost2010Prop30
280
     1
102
RTVSPost2010PropOp30
 70
     1
102
RTVSPost2010Prop31
280
     0
102
RTVSPost2010PropOp31
 70
     1
102
RTVSPost2010Prop32
280
     0
102
RTVSPost2010PropOp32
 70
     1
102
RTVSPost2010Prop33
280
     0
102
RTVSPost2010PropOp33
 70
     1
102
RTVSPost2010Prop34
280
     0
102
RTVSPost2010PropOp34
 70
     1
102
RTVSPost2010Prop35
280
     0
102
RTVSPost2010PropOp35
 70
     1
102
RTVSPost2010Prop36
280
     0
102
RTVSPost2010PropOp36
 70
     1
102
RTVSPost2010Prop37
 90
       50
102
RTVSPost2010PropOp37
 70
     1
102
RTVSPost2010Prop38
140
0.0
102
RTVSPost2010PropOp38
 70
     1
102
RTVSPost2010Prop39
140
1.0
102
RTVSPost2010PropOp39
 70
     1
102
RTVSPost2010Prop40
 90
        0
102
RTVSPost2010PropOp40
 70
     1
102
RTVSPost2010Prop41ColorIndex
 90
       18
102
RTVSPost2010Prop41ColorRGB
 90
        0
102
RTVSPost2010PropOp41
 70
     1
102
RTVSPost2010Prop42
 90
       50
102
RTVSPost2010PropOp42
 70
     1
102
RTVSPost2010Prop43
 90
        3
102
RTVSPost2010PropOp43
 70
     1
102
RTVSPost2010Prop44ColorIndex
 90
        5
102
RTVSPost2010Prop44ColorRGB
 90
      255
102
RTVSPost2010PropOp44
 70
     1
102
RTVSPost2010Prop45
280
     0
102
RTVSPost2010PropOp45
 70
     1
102
RTVSPost2010Prop46
 90
       50
102
RTVSPost2010PropOp46
 70
     1
102
RTVSPost2010Prop47
 90
       50
102
RTVSPost2010PropOp47
 70
     1
102
RTVSPost2010Prop48
 90
       50
102
RTVSPost2010PropOp48
 70
     1
102
RTVSPost2010Prop49
280
     0
102
RTVSPost2010PropOp49
 70
     1
102
RTVSPost2010Prop50
 90
       50
102
RTVSPost2010PropOp50
 70
     1
102
RTVSPost2010Prop51ColorIndex
 90
      256
102
RTVSPost2010Prop51ColorRGB
 90
-16777216
102
RTVSPost2010PropOp51
 70
     0
102
RTVSPost2010Prop52
140
1.0
102
RTVSPost2010PropOp52
 70
     0
102
RTVSPost2010Prop53
 90
        2
102
RTVSPost2010PropOp53
 70
     1
102
RTVSPost2010Prop54
  1
strokes_ogs.tif
102
RTVSPost2010PropOp54
 70
     1
102
RTVSPost2010Prop55
280
     0
102
RTVSPost2010PropOp55
 70
     1
102
RTVSPost2010Prop56
140
1.0
102
RTVSPost2010PropOp56
 70
     1
102
RTVSPost2010Prop57
140
1.0
102
RTVSPost2010PropOp57
 70
     1
102
RTVSPropertyOp0
 70
     1
102
RTVSPropertyOp1
 70
     1
102
RTVSPropertyOp2
 70
     1
102
RTVSPropertyOp3
 70
     1
102
RTVSPropertyOp4
 70
     1
102
RTVSPropertyOp5
 70
     1
102
RTVSPropertyOp6
 70
     1
102
RTVSPropertyOp7
 70
     1
102
RTVSPropertyOp8
 70
     1
102
RTVSPropertyOp9
 70
     1
102
RTVSPropertyOp10
 70
     1
102
RTVSPropertyOp11
 70
     1
102
RTVSPropertyOp12
 70
     1
102
RTVSPropertyOp13
 70
     1
102
RTVSPropertyOp14
 70
     1
102
RTVSPropertyOp15
 70
     1
102
RTVSPropertyOp16
 70
     1
102
RTVSPropertyOp17
 70
     1
102
RTVSPropertyOp18
 70
     1
102
RTVSPropertyOp19
 70
     1
102
RTVSPropertyOp20
 70
     1
102
RTVSPropertyOp21
 70
     1
102
RTVSPropertyOp22
 70
     1
102
RTVSPropertyOp23
 70
     1
102
RTVSPropertyOp24
 70
     1
102
RTVSPropertyOp25
 70
     1
102
RTVSPropertyOp26
 70
     1
102
RTVSPropertyOp27
 70
     1
102
RTVSPropertyOp28
 70
     1
102
RTVSPropertyOp29
 70
     1
102
RTVSPropertyOp30
 70
     1
102
RTVSPropertyOp31
 70
     1
102
RTVSPropertyOp32
 70
     1
102
RTVSPropertyOp33
 70
     1
102
RTVSPropertyOp34
 70
     1
102
RTVSPropertyOp35
 70
     1
102
RTVSPropertyOp36
 70
     1
102
RTVSPropertyOp37
 70
     1
102
RTVSPropertyOp38
 70
     1
102
RTVSPropertyOp39
 70
     1
102
RTVSPropertyOp40
 70
     1
102
RTVSPropertyOp41
 70
     1
102
RTVSPropertyOp42
 70
     1
102
RTVSPropertyOp43
 70
     1
102
RTVSPropertyOp44
 70
     1
102
RTVSPropertyOp45
 70
     1
102
RTVSPropertyOp46
 70
     1
102
RTVSPropertyOp47
 70
     1
102
RTVSPropertyOp48
 70
     1
102
RTVSPropertyOp49
 70
     1
102
RTVSPropertyOp50
 70
     1
102
RTVSPropertyOp51
 70
     0
102
RTVSPropertyOp52
 70
     0
102
RTVSPropertyOp53
 70
     1
102
RTVSPropertyOp54
 70
     1
102
RTVSPropertyOp55
 70
     1
102
RTVSPropertyOp56
 70
     1
102
RTVSPropertyOp57
 70
     1
102
RTVSPropertyOp58
 70
     1
102
RTVSPropertyOp59
 70
     1
102
RTVSPropertyOp60
 70
     1
102
RTVSPropertyOp61
 70
     1
102
RTVSPropertyOp62
 70
     1
  0
XRECORD
  5
9DA
102
{ACAD_REACTORS
330
9D9
102
}
330
9D9
100
AcDbXrecord
280
     1
102
RTVSPost2010Prop28
280
     0
102
RTVSPost2010PropOp28
 70
     1
102
RTVSPost2010Prop29
280
     1
102
RTVSPost2010PropOp29
 70
     1
102
RTVSPost2010Prop30
280
     1
102
RTVSPost2010PropOp30
 70
     1
102
RTVSPost2010Prop31
280
     0
102
RTVSPost2010PropOp31
 70
     1
102
RTVSPost2010Prop32
280
     0
102
RTVSPost2010PropOp32
 70
     1
102
RTVSPost2010Prop33
280
     0
102
RTVSPost2010PropOp33
 70
     1
102
RTVSPost2010Prop34
280
     0
102
RTVSPost2010PropOp34
 70
     1
102
RTVSPost2010Prop35
280
     0
102
RTVSPost2010PropOp35
 70
     1
102
RTVSPost2010Prop36
280
     0
102
RTVSPost2010PropOp36
 70
     1
102
RTVSPost2010Prop37
 90
       50
102
RTVSPost2010PropOp37
 70
     1
102
RTVSPost2010Prop38
140
0.0
102
RTVSPost2010PropOp38
 70
     1
102
RTVSPost2010Prop39
140
1.0
102
RTVSPost2010PropOp39
 70
     1
102
RTVSPost2010Prop40
 90
        0
102
RTVSPost2010PropOp40
 70
     1
102
RTVSPost2010Prop41ColorIndex
 90
       18
102
RTVSPost2010Prop41ColorRGB
 90
        0
102
RTVSPost2010PropOp41
 70
     1
102
RTVSPost2010Prop42
 90
       50
102
RTVSPost2010PropOp42
 70
     1
102
RTVSPost2010Prop43
 90
        3
102
RTVSPost2010PropOp43
 70
     1
102
RTVSPost2010Prop44ColorIndex
 90
        5
102
RTVSPost2010Prop44ColorRGB
 90
      255
102
RTVSPost2010PropOp44
 70
     1
102
RTVSPost2010Prop45
280
     0
102
RTVSPost2010PropOp45
 70
     1
102
RTVSPost2010Prop46
 90
       50
102
RTVSPost2010PropOp46
 70
     1
102
RTVSPost2010Prop47
 90
       50
102
RTVSPost2010PropOp47
 70
     1
102
RTVSPost2010Prop48
 90
       50
102
RTVSPost2010PropOp48
 70
     1
102
RTVSPost2010Prop49
280
     0
102
RTVSPost2010PropOp49
 70
     1
102
RTVSPost2010Prop50
 90
       50
102
RTVSPost2010PropOp50
 70
     1
102
RTVSPost2010Prop51ColorIndex
 90
      256
102
RTVSPost2010Prop51ColorRGB
 90
-16777216
102
RTVSPost2010PropOp51
 70
     0
102
RTVSPost2010Prop52
140
1.0
102
RTVSPost2010PropOp52
 70
     0
102
RTVSPost2010Prop53
 90
        2
102
RTVSPost2010PropOp53
 70
     1
102
RTVSPost2010Prop54
  1
strokes_ogs.tif
102
RTVSPost2010PropOp54
 70
     1
102
RTVSPost2010Prop55
280
     0
102
RTVSPost2010PropOp55
 70
     1
102
RTVSPost2010Prop56
140
1.0
102
RTVSPost2010PropOp56
 70
     1
102
RTVSPost2010Prop57
140
1.0
102
RTVSPost2010PropOp57
 70
     1
102
RTVSPropertyOp0
 70
     1
102
RTVSPropertyOp1
 70
     1
102
RTVSPropertyOp2
 70
     1
102
RTVSPropertyOp3
 70
     1
102
RTVSPropertyOp4
 70
     1
102
RTVSPropertyOp5
 70
     1
102
RTVSPropertyOp6
 70
     1
102
RTVSPropertyOp7
 70
     1
102
RTVSPropertyOp8
 70
     1
102
RTVSPropertyOp9
 70
     1
102
RTVSPropertyOp10
 70
     1
102
RTVSPropertyOp11
 70
     1
102
RTVSPropertyOp12
 70
     1
102
RTVSPropertyOp13
 70
     1
102
RTVSPropertyOp14
 70
     1
102
RTVSPropertyOp15
 70
     1
102
RTVSPropertyOp16
 70
     1
102
RTVSPropertyOp17
 70
     1
102
RTVSPropertyOp18
 70
     1
102
RTVSPropertyOp19
 70
     1
102
RTVSPropertyOp20
 70
     1
102
RTVSPropertyOp21
 70
     1
102
RTVSPropertyOp22
 70
     1
102
RTVSPropertyOp23
 70
     1
102
RTVSPropertyOp24
 70
     1
102
RTVSPropertyOp25
 70
     1
102
RTVSPropertyOp26
 70
     1
102
RTVSPropertyOp27
 70
     1
102
RTVSPropertyOp28
 70
     1
102
RTVSPropertyOp29
 70
     1
102
RTVSPropertyOp30
 70
     1
102
RTVSPropertyOp31
 70
     1
102
RTVSPropertyOp32
 70
     1
102
RTVSPropertyOp33
 70
     1
102
RTVSPropertyOp34
 70
     1
102
RTVSPropertyOp35
 70
     1
102
RTVSPropertyOp36
 70
     1
102
RTVSPropertyOp37
 70
     1
102
RTVSPropertyOp38
 70
     1
102
RTVSPropertyOp39
 70
     1
102
RTVSPropertyOp40
 70
     1
102
RTVSPropertyOp41
 70
     1
102
RTVSPropertyOp42
 70
     1
102
RTVSPropertyOp43
 70
     1
102
RTVSPropertyOp44
 70
     1
102
RTVSPropertyOp45
 70
     1
102
RTVSPropertyOp46
 70
     1
102
RTVSPropertyOp47
 70
     1
102
RTVSPropertyOp48
 70
     1
102
RTVSPropertyOp49
 70
     1
102
RTVSPropertyOp50
 70
     1
102
RTVSPropertyOp51
 70
     0
102
RTVSPropertyOp52
 70
     0
102
RTVSPropertyOp53
 70
     1
102
RTVSPropertyOp54
 70
     1
102
RTVSPropertyOp55
 70
     1
102
RTVSPropertyOp56
 70
     1
102
RTVSPropertyOp57
 70
     1
102
RTVSPropertyOp58
 70
     1
102
RTVSPropertyOp59
 70
     1
102
RTVSPropertyOp60
 70
     1
102
RTVSPropertyOp61
 70
     1
102
RTVSPropertyOp62
 70
     1
  0
XRECORD
  5
9DC
102
{ACAD_REACTORS
330
9DB
102
}
330
9DB
100
AcDbXrecord
280
     1
102
RTVSPost2010Prop28
280
     0
102
RTVSPost2010PropOp28
 70
     1
102
RTVSPost2010Prop29
280
     1
102
RTVSPost2010PropOp29
 70
     1
102
RTVSPost2010Prop30
280
     1
102
RTVSPost2010PropOp30
 70
     1
102
RTVSPost2010Prop31
280
     0
102
RTVSPost2010PropOp31
 70
     1
102
RTVSPost2010Prop32
280
     0
102
RTVSPost2010PropOp32
 70
     1
102
RTVSPost2010Prop33
280
     0
102
RTVSPost2010PropOp33
 70
     1
102
RTVSPost2010Prop34
280
     0
102
RTVSPost2010PropOp34
 70
     1
102
RTVSPost2010Prop35
280
     0
102
RTVSPost2010PropOp35
 70
     1
102
RTVSPost2010Prop36
280
     0
102
RTVSPost2010PropOp36
 70
     1
102
RTVSPost2010Prop37
 90
       50
102
RTVSPost2010PropOp37
 70
     1
102
RTVSPost2010Prop38
140
0.0
102
RTVSPost2010PropOp38
 70
     1
102
RTVSPost2010Prop39
140
1.0
102
RTVSPost2010PropOp39
 70
     1
102
RTVSPost2010Prop40
 90
        0
102
RTVSPost2010PropOp40
 70
     1
102
RTVSPost2010Prop41ColorIndex
 90
       18
102
RTVSPost2010Prop41ColorRGB
 90
        0
102
RTVSPost2010PropOp41
 70
     1
102
RTVSPost2010Prop42
 90
       50
102
RTVSPost2010PropOp42
 70
     1
102
RTVSPost2010Prop43
 90
        3
102
RTVSPost2010PropOp43
 70
     1
102
RTVSPost2010Prop44ColorIndex
 90
        5
102
RTVSPost2010Prop44ColorRGB
 90
      255
102
RTVSPost2010PropOp44
 70
     1
102
RTVSPost2010Prop45
280
     0
102
RTVSPost2010PropOp45
 70
     1
102
RTVSPost2010Prop46
 90
       50
102
RTVSPost2010PropOp46
 70
     1
102
RTVSPost2010Prop47
 90
       50
102
RTVSPost2010PropOp47
 70
     1
102
RTVSPost2010Prop48
 90
       50
102
RTVSPost2010PropOp48
 70
     1
102
RTVSPost2010Prop49
280
     0
102
RTVSPost2010PropOp49
 70
     1
102
RTVSPost2010Prop50
 90
       50
102
RTVSPost2010PropOp50
 70
     1
102
RTVSPost2010Prop51ColorIndex
 90
      256
102
RTVSPost2010Prop51ColorRGB
 90
-16777216
102
RTVSPost2010PropOp51
 70
     0
102
RTVSPost2010Prop52
140
1.0
102
RTVSPost2010PropOp52
 70
     0
102
RTVSPost2010Prop53
 90
        2
102
RTVSPost2010PropOp53
 70
     1
102
RTVSPost2010Prop54
  1
strokes_ogs.tif
102
RTVSPost2010PropOp54
 70
     1
102
RTVSPost2010Prop55
280
     0
102
RTVSPost2010PropOp55
 70
     1
102
RTVSPost2010Prop56
140
1.0
102
RTVSPost2010PropOp56
 70
     1
102
RTVSPost2010Prop57
140
1.0
102
RTVSPost2010PropOp57
 70
     1
102
RTVSPropertyOp0
 70
     1
102
RTVSPropertyOp1
 70
     1
102
RTVSPropertyOp2
 70
     1
102
RTVSPropertyOp3
 70
     1
102
RTVSPropertyOp4
 70
     1
102
RTVSPropertyOp5
 70
     1
102
RTVSPropertyOp6
 70
     1
102
RTVSPropertyOp7
 70
     1
102
RTVSPropertyOp8
 70
     1
102
RTVSPropertyOp9
 70
     1
102
RTVSPropertyOp10
 70
     1
102
RTVSPropertyOp11
 70
     1
102
RTVSPropertyOp12
 70
     1
102
RTVSPropertyOp13
 70
     1
102
RTVSPropertyOp14
 70
     1
102
RTVSPropertyOp15
 70
     1
102
RTVSPropertyOp16
 70
     1
102
RTVSPropertyOp17
 70
     1
102
RTVSPropertyOp18
 70
     1
102
RTVSPropertyOp19
 70
     1
102
RTVSPropertyOp20
 70
     1
102
RTVSPropertyOp21
 70
     1
102
RTVSPropertyOp22
 70
     1
102
RTVSPropertyOp23
 70
     1
102
RTVSPropertyOp24
 70
     1
102
RTVSPropertyOp25
 70
     1
102
RTVSPropertyOp26
 70
     1
102
RTVSPropertyOp27
 70
     1
102
RTVSPropertyOp28
 70
     1
102
RTVSPropertyOp29
 70
     1
102
RTVSPropertyOp30
 70
     1
102
RTVSPropertyOp31
 70
     1
102
RTVSPropertyOp32
 70
     1
102
RTVSPropertyOp33
 70
     1
102
RTVSPropertyOp34
 70
     1
102
RTVSPropertyOp35
 70
     1
102
RTVSPropertyOp36
 70
     1
102
RTVSPropertyOp37
 70
     1
102
RTVSPropertyOp38
 70
     1
102
RTVSPropertyOp39
 70
     1
102
RTVSPropertyOp40
 70
     1
102
RTVSPropertyOp41
 70
     1
102
RTVSPropertyOp42
 70
     1
102
RTVSPropertyOp43
 70
     1
102
RTVSPropertyOp44
 70
     1
102
RTVSPropertyOp45
 70
     1
102
RTVSPropertyOp46
 70
     1
102
RTVSPropertyOp47
 70
     1
102
RTVSPropertyOp48
 70
     1
102
RTVSPropertyOp49
 70
     1
102
RTVSPropertyOp50
 70
     1
102
RTVSPropertyOp51
 70
     0
102
RTVSPropertyOp52
 70
     0
102
RTVSPropertyOp53
 70
     1
102
RTVSPropertyOp54
 70
     1
102
RTVSPropertyOp55
 70
     1
102
RTVSPropertyOp56
 70
     1
102
RTVSPropertyOp57
 70
     1
102
RTVSPropertyOp58
 70
     1
102
RTVSPropertyOp59
 70
     1
102
RTVSPropertyOp60
 70
     1
102
RTVSPropertyOp61
 70
     1
102
RTVSPropertyOp62
 70
     1
  0
XRECORD
  5
9DE
102
{ACAD_REACTORS
330
9DD
102
}
330
9DD
100
AcDbXrecord
280
     1
102
RTVSPost2010Prop28
280
     0
102
RTVSPost2010PropOp28
 70
     1
102
RTVSPost2010Prop29
280
     1
102
RTVSPost2010PropOp29
 70
     1
102
RTVSPost2010Prop30
280
     1
102
RTVSPost2010PropOp30
 70
     1
102
RTVSPost2010Prop31
280
     0
102
RTVSPost2010PropOp31
 70
     1
102
RTVSPost2010Prop32
280
     0
102
RTVSPost2010PropOp32
 70
     1
102
RTVSPost2010Prop33
280
     0
102
RTVSPost2010PropOp33
 70
     1
102
RTVSPost2010Prop34
280
     0
102
RTVSPost2010PropOp34
 70
     1
102
RTVSPost2010Prop35
280
     0
102
RTVSPost2010PropOp35
 70
     1
102
RTVSPost2010Prop36
280
     0
102
RTVSPost2010PropOp36
 70
     1
102
RTVSPost2010Prop37
 90
       50
102
RTVSPost2010PropOp37
 70
     1
102
RTVSPost2010Prop38
140
0.0
102
RTVSPost2010PropOp38
 70
     1
102
RTVSPost2010Prop39
140
1.0
102
RTVSPost2010PropOp39
 70
     1
102
RTVSPost2010Prop40
 90
        0
102
RTVSPost2010PropOp40
 70
     1
102
RTVSPost2010Prop41ColorIndex
 90
       18
102
RTVSPost2010Prop41ColorRGB
 90
        0
102
RTVSPost2010PropOp41
 70
     1
102
RTVSPost2010Prop42
 90
       50
102
RTVSPost2010PropOp42
 70
     1
102
RTVSPost2010Prop43
 90
        3
102
RTVSPost2010PropOp43
 70
     1
102
RTVSPost2010Prop44ColorIndex
 90
        5
102
RTVSPost2010Prop44ColorRGB
 90
      255
102
RTVSPost2010PropOp44
 70
     1
102
RTVSPost2010Prop45
280
     0
102
RTVSPost2010PropOp45
 70
     1
102
RTVSPost2010Prop46
 90
       50
102
RTVSPost2010PropOp46
 70
     1
102
RTVSPost2010Prop47
 90
       50
102
RTVSPost2010PropOp47
 70
     1
102
RTVSPost2010Prop48
 90
       50
102
RTVSPost2010PropOp48
 70
     1
102
RTVSPost2010Prop49
280
     0
102
RTVSPost2010PropOp49
 70
     1
102
RTVSPost2010Prop50
 90
       50
102
RTVSPost2010PropOp50
 70
     1
102
RTVSPost2010Prop51ColorIndex
 90
      256
102
RTVSPost2010Prop51ColorRGB
 90
-16777216
102
RTVSPost2010PropOp51
 70
     0
102
RTVSPost2010Prop52
140
1.0
102
RTVSPost2010PropOp52
 70
     0
102
RTVSPost2010Prop53
 90
        2
102
RTVSPost2010PropOp53
 70
     1
102
RTVSPost2010Prop54
  1
strokes_ogs.tif
102
RTVSPost2010PropOp54
 70
     1
102
RTVSPost2010Prop55
280
     0
102
RTVSPost2010PropOp55
 70
     1
102
RTVSPost2010Prop56
140
1.0
102
RTVSPost2010PropOp56
 70
     1
102
RTVSPost2010Prop57
140
1.0
102
RTVSPost2010PropOp57
 70
     1
102
RTVSPropertyOp0
 70
     1
102
RTVSPropertyOp1
 70
     1
102
RTVSPropertyOp2
 70
     1
102
RTVSPropertyOp3
 70
     1
102
RTVSPropertyOp4
 70
     1
102
RTVSPropertyOp5
 70
     1
102
RTVSPropertyOp6
 70
     1
102
RTVSPropertyOp7
 70
     1
102
RTVSPropertyOp8
 70
     1
102
RTVSPropertyOp9
 70
     1
102
RTVSPropertyOp10
 70
     1
102
RTVSPropertyOp11
 70
     1
102
RTVSPropertyOp12
 70
     1
102
RTVSPropertyOp13
 70
     1
102
RTVSPropertyOp14
 70
     1
102
RTVSPropertyOp15
 70
     1
102
RTVSPropertyOp16
 70
     1
102
RTVSPropertyOp17
 70
     1
102
RTVSPropertyOp18
 70
     1
102
RTVSPropertyOp19
 70
     1
102
RTVSPropertyOp20
 70
     1
102
RTVSPropertyOp21
 70
     1
102
RTVSPropertyOp22
 70
     1
102
RTVSPropertyOp23
 70
     1
102
RTVSPropertyOp24
 70
     1
102
RTVSPropertyOp25
 70
     1
102
RTVSPropertyOp26
 70
     1
102
RTVSPropertyOp27
 70
     1
102
RTVSPropertyOp28
 70
     1
102
RTVSPropertyOp29
 70
     1
102
RTVSPropertyOp30
 70
     1
102
RTVSPropertyOp31
 70
     1
102
RTVSPropertyOp32
 70
     1
102
RTVSPropertyOp33
 70
     1
102
RTVSPropertyOp34
 70
     1
102
RTVSPropertyOp35
 70
     1
102
RTVSPropertyOp36
 70
     1
102
RTVSPropertyOp37
 70
     1
102
RTVSPropertyOp38
 70
     1
102
RTVSPropertyOp39
 70
     1
102
RTVSPropertyOp40
 70
     1
102
RTVSPropertyOp41
 70
     1
102
RTVSPropertyOp42
 70
     1
102
RTVSPropertyOp43
 70
     1
102
RTVSPropertyOp44
 70
     1
102
RTVSPropertyOp45
 70
     1
102
RTVSPropertyOp46
 70
     1
102
RTVSPropertyOp47
 70
     1
102
RTVSPropertyOp48
 70
     1
102
RTVSPropertyOp49
 70
     1
102
RTVSPropertyOp50
 70
     1
102
RTVSPropertyOp51
 70
     0
102
RTVSPropertyOp52
 70
     0
102
RTVSPropertyOp53
 70
     1
102
RTVSPropertyOp54
 70
     1
102
RTVSPropertyOp55
 70
     1
102
RTVSPropertyOp56
 70
     1
102
RTVSPropertyOp57
 70
     1
102
RTVSPropertyOp58
 70
     1
102
RTVSPropertyOp59
 70
     1
102
RTVSPropertyOp60
 70
     1
102
RTVSPropertyOp61
 70
     1
102
RTVSPropertyOp62
 70
     1
  0
XRECORD
  5
9E6
102
{ACAD_REACTORS
330
9E5
102
}
330
9E5
100
AcDbXrecord
280
     1
102
RTVSPost2010Prop28
280
     0
102
RTVSPost2010PropOp28
 70
     1
102
RTVSPost2010Prop29
280
     1
102
RTVSPost2010PropOp29
 70
     1
102
RTVSPost2010Prop30
280
     1
102
RTVSPost2010PropOp30
 70
     1
102
RTVSPost2010Prop31
280
     0
102
RTVSPost2010PropOp31
 70
     1
102
RTVSPost2010Prop32
280
     0
102
RTVSPost2010PropOp32
 70
     1
102
RTVSPost2010Prop33
280
     0
102
RTVSPost2010PropOp33
 70
     1
102
RTVSPost2010Prop34
280
     0
102
RTVSPost2010PropOp34
 70
     1
102
RTVSPost2010Prop35
280
     0
102
RTVSPost2010PropOp35
 70
     1
102
RTVSPost2010Prop36
280
     0
102
RTVSPost2010PropOp36
 70
     1
102
RTVSPost2010Prop37
 90
       50
102
RTVSPost2010PropOp37
 70
     1
102
RTVSPost2010Prop38
140
0.0
102
RTVSPost2010PropOp38
 70
     1
102
RTVSPost2010Prop39
140
1.0
102
RTVSPost2010PropOp39
 70
     1
102
RTVSPost2010Prop40
 90
        0
102
RTVSPost2010PropOp40
 70
     1
102
RTVSPost2010Prop41ColorIndex
 90
       18
102
RTVSPost2010Prop41ColorRGB
 90
        0
102
RTVSPost2010PropOp41
 70
     1
102
RTVSPost2010Prop42
 90
       50
102
RTVSPost2010PropOp42
 70
     1
102
RTVSPost2010Prop43
 90
        3
102
RTVSPost2010PropOp43
 70
     1
102
RTVSPost2010Prop44ColorIndex
 90
        5
102
RTVSPost2010Prop44ColorRGB
 90
      255
102
RTVSPost2010PropOp44
 70
     1
102
RTVSPost2010Prop45
280
     0
102
RTVSPost2010PropOp45
 70
     1
102
RTVSPost2010Prop46
 90
       50
102
RTVSPost2010PropOp46
 70
     1
102
RTVSPost2010Prop47
 90
       50
102
RTVSPost2010PropOp47
 70
     1
102
RTVSPost2010Prop48
 90
       50
102
RTVSPost2010PropOp48
 70
     1
102
RTVSPost2010Prop49
280
     0
102
RTVSPost2010PropOp49
 70
     1
102
RTVSPost2010Prop50
 90
       50
102
RTVSPost2010PropOp50
 70
     1
102
RTVSPost2010Prop51ColorIndex
 90
      256
102
RTVSPost2010Prop51ColorRGB
 90
-16777216
102
RTVSPost2010PropOp51
 70
     0
102
RTVSPost2010Prop52
140
1.0
102
RTVSPost2010PropOp52
 70
     0
102
RTVSPost2010Prop53
 90
        2
102
RTVSPost2010PropOp53
 70
     1
102
RTVSPost2010Prop54
  1
strokes_ogs.tif
102
RTVSPost2010PropOp54
 70
     1
102
RTVSPost2010Prop55
280
     0
102
RTVSPost2010PropOp55
 70
     1
102
RTVSPost2010Prop56
140
1.0
102
RTVSPost2010PropOp56
 70
     1
102
RTVSPost2010Prop57
140
1.0
102
RTVSPost2010PropOp57
 70
     1
102
RTVSPropertyOp0
 70
     1
102
RTVSPropertyOp1
 70
     1
102
RTVSPropertyOp2
 70
     1
102
RTVSPropertyOp3
 70
     1
102
RTVSPropertyOp4
 70
     1
102
RTVSPropertyOp5
 70
     1
102
RTVSPropertyOp6
 70
     1
102
RTVSPropertyOp7
 70
     1
102
RTVSPropertyOp8
 70
     1
102
RTVSPropertyOp9
 70
     1
102
RTVSPropertyOp10
 70
     1
102
RTVSPropertyOp11
 70
     1
102
RTVSPropertyOp12
 70
     1
102
RTVSPropertyOp13
 70
     1
102
RTVSPropertyOp14
 70
     1
102
RTVSPropertyOp15
 70
     1
102
RTVSPropertyOp16
 70
     1
102
RTVSPropertyOp17
 70
     1
102
RTVSPropertyOp18
 70
     1
102
RTVSPropertyOp19
 70
     1
102
RTVSPropertyOp20
 70
     1
102
RTVSPropertyOp21
 70
     1
102
RTVSPropertyOp22
 70
     1
102
RTVSPropertyOp23
 70
     1
102
RTVSPropertyOp24
 70
     1
102
RTVSPropertyOp25
 70
     1
102
RTVSPropertyOp26
 70
     1
102
RTVSPropertyOp27
 70
     1
102
RTVSPropertyOp28
 70
     1
102
RTVSPropertyOp29
 70
     1
102
RTVSPropertyOp30
 70
     1
102
RTVSPropertyOp31
 70
     1
102
RTVSPropertyOp32
 70
     1
102
RTVSPropertyOp33
 70
     1
102
RTVSPropertyOp34
 70
     1
102
RTVSPropertyOp35
 70
     1
102
RTVSPropertyOp36
 70
     1
102
RTVSPropertyOp37
 70
     1
102
RTVSPropertyOp38
 70
     1
102
RTVSPropertyOp39
 70
     1
102
RTVSPropertyOp40
 70
     1
102
RTVSPropertyOp41
 70
     1
102
RTVSPropertyOp42
 70
     1
102
RTVSPropertyOp43
 70
     1
102
RTVSPropertyOp44
 70
     1
102
RTVSPropertyOp45
 70
     1
102
RTVSPropertyOp46
 70
     1
102
RTVSPropertyOp47
 70
     1
102
RTVSPropertyOp48
 70
     1
102
RTVSPropertyOp49
 70
     1
102
RTVSPropertyOp50
 70
     1
102
RTVSPropertyOp51
 70
     0
102
RTVSPropertyOp52
 70
     0
102
RTVSPropertyOp53
 70
     1
102
RTVSPropertyOp54
 70
     1
102
RTVSPropertyOp55
 70
     1
102
RTVSPropertyOp56
 70
     1
102
RTVSPropertyOp57
 70
     1
102
RTVSPropertyOp58
 70
     1
102
RTVSPropertyOp59
 70
     1
102
RTVSPropertyOp60
 70
     1
102
RTVSPropertyOp61
 70
     1
102
RTVSPropertyOp62
 70
     1
  0
XRECORD
  5
9F8
102
{ACAD_REACTORS
330
9F7
102
}
330
9F7
100
AcDbXrecord
280
     1
102
RTVSPost2010Prop28
280
     0
102
RTVSPost2010PropOp28
 70
     1
102
RTVSPost2010Prop29
280
     1
102
RTVSPost2010PropOp29
 70
     1
102
RTVSPost2010Prop30
280
     1
102
RTVSPost2010PropOp30
 70
     1
102
RTVSPost2010Prop31
280
     0
102
RTVSPost2010PropOp31
 70
     1
102
RTVSPost2010Prop32
280
     0
102
RTVSPost2010PropOp32
 70
     1
102
RTVSPost2010Prop33
280
     0
102
RTVSPost2010PropOp33
 70
     1
102
RTVSPost2010Prop34
280
     0
102
RTVSPost2010PropOp34
 70
     1
102
RTVSPost2010Prop35
280
     0
102
RTVSPost2010PropOp35
 70
     1
102
RTVSPost2010Prop36
280
     0
102
RTVSPost2010PropOp36
 70
     1
102
RTVSPost2010Prop37
 90
       50
102
RTVSPost2010PropOp37
 70
     1
102
RTVSPost2010Prop38
140
0.0
102
RTVSPost2010PropOp38
 70
     1
102
RTVSPost2010Prop39
140
1.0
102
RTVSPost2010PropOp39
 70
     1
102
RTVSPost2010Prop40
 90
        0
102
RTVSPost2010PropOp40
 70
     1
102
RTVSPost2010Prop41ColorIndex
 90
       18
102
RTVSPost2010Prop41ColorRGB
 90
        0
102
RTVSPost2010PropOp41
 70
     1
102
RTVSPost2010Prop42
 90
       50
102
RTVSPost2010PropOp42
 70
     1
102
RTVSPost2010Prop43
 90
        3
102
RTVSPost2010PropOp43
 70
     1
102
RTVSPost2010Prop44ColorIndex
 90
        5
102
RTVSPost2010Prop44ColorRGB
 90
      255
102
RTVSPost2010PropOp44
 70
     1
102
RTVSPost2010Prop45
280
     0
102
RTVSPost2010PropOp45
 70
     1
102
RTVSPost2010Prop46
 90
       50
102
RTVSPost2010PropOp46
 70
     1
102
RTVSPost2010Prop47
 90
       50
102
RTVSPost2010PropOp47
 70
     1
102
RTVSPost2010Prop48
 90
       50
102
RTVSPost2010PropOp48
 70
     1
102
RTVSPost2010Prop49
280
     0
102
RTVSPost2010PropOp49
 70
     1
102
RTVSPost2010Prop50
 90
       50
102
RTVSPost2010PropOp50
 70
     1
102
RTVSPost2010Prop51ColorIndex
 90
      256
102
RTVSPost2010Prop51ColorRGB
 90
-16777216
102
RTVSPost2010PropOp51
 70
     0
102
RTVSPost2010Prop52
140
1.0
102
RTVSPost2010PropOp52
 70
     0
102
RTVSPost2010Prop53
 90
        2
102
RTVSPost2010PropOp53
 70
     1
102
RTVSPost2010Prop54
  1
strokes_ogs.tif
102
RTVSPost2010PropOp54
 70
     1
102
RTVSPost2010Prop55
280
     0
102
RTVSPost2010PropOp55
 70
     1
102
RTVSPost2010Prop56
140
1.0
102
RTVSPost2010PropOp56
 70
     1
102
RTVSPost2010Prop57
140
1.0
102
RTVSPost2010PropOp57
 70
     1
102
RTVSPropertyOp0
 70
     0
102
RTVSPropertyOp1
 70
     0
102
RTVSPropertyOp2
 70
     0
102
RTVSPropertyOp3
 70
     0
102
RTVSPropertyOp4
 70
     0
102
RTVSPropertyOp5
 70
     0
102
RTVSPropertyOp6
 70
     0
102
RTVSPropertyOp7
 70
     0
102
RTVSPropertyOp8
 70
     0
102
RTVSPropertyOp9
 70
     0
102
RTVSPropertyOp10
 70
     0
102
RTVSPropertyOp11
 70
     0
102
RTVSPropertyOp12
 70
     0
102
RTVSPropertyOp13
 70
     0
102
RTVSPropertyOp14
 70
     2
102
RTVSPropertyOp15
 70
     0
102
RTVSPropertyOp16
 70
     0
102
RTVSPropertyOp17
 70
     0
102
RTVSPropertyOp18
 70
     0
102
RTVSPropertyOp19
 70
     0
102
RTVSPropertyOp20
 70
     0
102
RTVSPropertyOp21
 70
     0
102
RTVSPropertyOp22
 70
     0
102
RTVSPropertyOp23
 70
     0
102
RTVSPropertyOp24
 70
     0
102
RTVSPropertyOp25
 70
     0
102
RTVSPropertyOp26
 70
     0
102
RTVSPropertyOp27
 70
     0
102
RTVSPropertyOp28
 70
     1
102
RTVSPropertyOp29
 70
     1
102
RTVSPropertyOp30
 70
     1
102
RTVSPropertyOp31
 70
     1
102
RTVSPropertyOp32
 70
     1
102
RTVSPropertyOp33
 70
     1
102
RTVSPropertyOp34
 70
     1
102
RTVSPropertyOp35
 70
     1
102
RTVSPropertyOp36
 70
     1
102
RTVSPropertyOp37
 70
     1
102
RTVSPropertyOp38
 70
     1
102
RTVSPropertyOp39
 70
     1
102
RTVSPropertyOp40
 70
     1
102
RTVSPropertyOp41
 70
     1
102
RTVSPropertyOp42
 70
     1
102
RTVSPropertyOp43
 70
     1
102
RTVSPropertyOp44
 70
     1
102
RTVSPropertyOp45
 70
     1
102
RTVSPropertyOp46
 70
     1
102
RTVSPropertyOp47
 70
     1
102
RTVSPropertyOp48
 70
     1
102
RTVSPropertyOp49
 70
     1
102
RTVSPropertyOp50
 70
     1
102
RTVSPropertyOp51
 70
     0
102
RTVSPropertyOp52
 70
     0
102
RTVSPropertyOp53
 70
     1
102
RTVSPropertyOp54
 70
     1
102
RTVSPropertyOp55
 70
     1
102
RTVSPropertyOp56
 70
     1
102
RTVSPropertyOp57
 70
     1
102
RTVSPropertyOp58
 70
     1
102
RTVSPropertyOp59
 70
     1
102
RTVSPropertyOp60
 70
     1
102
RTVSPropertyOp61
 70
     1
102
RTVSPropertyOp62
 70
     1
  0
XRECORD
  5
9F2
102
{ACAD_REACTORS
330
9F1
102
}
330
9F1
100
AcDbXrecord
280
     1
102
RTVSPost2010Prop28
280
     0
102
RTVSPost2010PropOp28
 70
     1
102
RTVSPost2010Prop29
280
     1
102
RTVSPost2010PropOp29
 70
     1
102
RTVSPost2010Prop30
280
     1
102
RTVSPost2010PropOp30
 70
     1
102
RTVSPost2010Prop31
280
     0
102
RTVSPost2010PropOp31
 70
     1
102
RTVSPost2010Prop32
280
     0
102
RTVSPost2010PropOp32
 70
     1
102
RTVSPost2010Prop33
280
     0
102
RTVSPost2010PropOp33
 70
     1
102
RTVSPost2010Prop34
280
     0
102
RTVSPost2010PropOp34
 70
     1
102
RTVSPost2010Prop35
280
     0
102
RTVSPost2010PropOp35
 70
     1
102
RTVSPost2010Prop36
280
     0
102
RTVSPost2010PropOp36
 70
     1
102
RTVSPost2010Prop37
 90
       50
102
RTVSPost2010PropOp37
 70
     1
102
RTVSPost2010Prop38
140
0.0
102
RTVSPost2010PropOp38
 70
     1
102
RTVSPost2010Prop39
140
1.0
102
RTVSPost2010PropOp39
 70
     1
102
RTVSPost2010Prop40
 90
        0
102
RTVSPost2010PropOp40
 70
     1
102
RTVSPost2010Prop41ColorIndex
 90
       18
102
RTVSPost2010Prop41ColorRGB
 90
        0
102
RTVSPost2010PropOp41
 70
     1
102
RTVSPost2010Prop42
 90
       50
102
RTVSPost2010PropOp42
 70
     1
102
RTVSPost2010Prop43
 90
        3
102
RTVSPost2010PropOp43
 70
     1
102
RTVSPost2010Prop44ColorIndex
 90
        5
102
RTVSPost2010Prop44ColorRGB
 90
      255
102
RTVSPost2010PropOp44
 70
     1
102
RTVSPost2010Prop45
280
     0
102
RTVSPost2010PropOp45
 70
     1
102
RTVSPost2010Prop46
 90
       50
102
RTVSPost2010PropOp46
 70
     1
102
RTVSPost2010Prop47
 90
       50
102
RTVSPost2010PropOp47
 70
     1
102
RTVSPost2010Prop48
 90
       50
102
RTVSPost2010PropOp48
 70
     1
102
RTVSPost2010Prop49
280
     0
102
RTVSPost2010PropOp49
 70
     1
102
RTVSPost2010Prop50
 90
       50
102
RTVSPost2010PropOp50
 70
     1
102
RTVSPost2010Prop51ColorIndex
 90
      256
102
RTVSPost2010Prop51ColorRGB
 90
-16777216
102
RTVSPost2010PropOp51
 70
     0
102
RTVSPost2010Prop52
140
1.0
102
RTVSPost2010PropOp52
 70
     0
102
RTVSPost2010Prop53
 90
        2
102
RTVSPost2010PropOp53
 70
     1
102
RTVSPost2010Prop54
  1
strokes_ogs.tif
102
RTVSPost2010PropOp54
 70
     1
102
RTVSPost2010Prop55
280
     0
102
RTVSPost2010PropOp55
 70
     1
102
RTVSPost2010Prop56
140
1.0
102
RTVSPost2010PropOp56
 70
     1
102
RTVSPost2010Prop57
140
1.0
102
RTVSPost2010PropOp57
 70
     1
102
RTVSPropertyOp0
 70
     1
102
RTVSPropertyOp1
 70
     1
102
RTVSPropertyOp2
 70
     1
102
RTVSPropertyOp3
 70
     1
102
RTVSPropertyOp4
 70
     1
102
RTVSPropertyOp5
 70
     1
102
RTVSPropertyOp6
 70
     1
102
RTVSPropertyOp7
 70
     1
102
RTVSPropertyOp8
 70
     1
102
RTVSPropertyOp9
 70
     1
102
RTVSPropertyOp10
 70
     1
102
RTVSPropertyOp11
 70
     1
102
RTVSPropertyOp12
 70
     1
102
RTVSPropertyOp13
 70
     1
102
RTVSPropertyOp14
 70
     1
102
RTVSPropertyOp15
 70
     1
102
RTVSPropertyOp16
 70
     1
102
RTVSPropertyOp17
 70
     1
102
RTVSPropertyOp18
 70
     1
102
RTVSPropertyOp19
 70
     1
102
RTVSPropertyOp20
 70
     1
102
RTVSPropertyOp21
 70
     1
102
RTVSPropertyOp22
 70
     1
102
RTVSPropertyOp23
 70
     1
102
RTVSPropertyOp24
 70
     1
102
RTVSPropertyOp25
 70
     1
102
RTVSPropertyOp26
 70
     1
102
RTVSPropertyOp27
 70
     1
102
RTVSPropertyOp28
 70
     1
102
RTVSPropertyOp29
 70
     1
102
RTVSPropertyOp30
 70
     1
102
RTVSPropertyOp31
 70
     1
102
RTVSPropertyOp32
 70
     1
102
RTVSPropertyOp33
 70
     1
102
RTVSPropertyOp34
 70
     1
102
RTVSPropertyOp35
 70
     1
102
RTVSPropertyOp36
 70
     1
102
RTVSPropertyOp37
 70
     1
102
RTVSPropertyOp38
 70
     1
102
RTVSPropertyOp39
 70
     1
102
RTVSPropertyOp40
 70
     1
102
RTVSPropertyOp41
 70
     1
102
RTVSPropertyOp42
 70
     1
102
RTVSPropertyOp43
 70
     1
102
RTVSPropertyOp44
 70
     1
102
RTVSPropertyOp45
 70
     1
102
RTVSPropertyOp46
 70
     1
102
RTVSPropertyOp47
 70
     1
102
RTVSPropertyOp48
 70
     1
102
RTVSPropertyOp49
 70
     1
102
RTVSPropertyOp50
 70
     1
102
RTVSPropertyOp51
 70
     0
102
RTVSPropertyOp52
 70
     0
102
RTVSPropertyOp53
 70
     1
102
RTVSPropertyOp54
 70
     1
102
RTVSPropertyOp55
 70
     1
102
RTVSPropertyOp56
 70
     1
102
RTVSPropertyOp57
 70
     1
102
RTVSPropertyOp58
 70
     1
102
RTVSPropertyOp59
 70
     1
102
RTVSPropertyOp60
 70
     1
102
RTVSPropertyOp61
 70
     1
102
RTVSPropertyOp62
 70
     1
  0
XRECORD
  5
9FA
102
{ACAD_REACTORS
330
9F9
102
}
330
9F9
100
AcDbXrecord
280
     1
102
RTVSPost2010Prop28
280
     0
102
RTVSPost2010PropOp28
 70
     1
102
RTVSPost2010Prop29
280
     1
102
RTVSPost2010PropOp29
 70
     1
102
RTVSPost2010Prop30
280
     1
102
RTVSPost2010PropOp30
 70
     1
102
RTVSPost2010Prop31
280
     0
102
RTVSPost2010PropOp31
 70
     1
102
RTVSPost2010Prop32
280
     0
102
RTVSPost2010PropOp32
 70
     1
102
RTVSPost2010Prop33
280
     0
102
RTVSPost2010PropOp33
 70
     1
102
RTVSPost2010Prop34
280
     0
102
RTVSPost2010PropOp34
 70
     1
102
RTVSPost2010Prop35
280
     0
102
RTVSPost2010PropOp35
 70
     1
102
RTVSPost2010Prop36
280
     0
102
RTVSPost2010PropOp36
 70
     1
102
RTVSPost2010Prop37
 90
       50
102
RTVSPost2010PropOp37
 70
     1
102
RTVSPost2010Prop38
140
0.0
102
RTVSPost2010PropOp38
 70
     1
102
RTVSPost2010Prop39
140
1.0
102
RTVSPost2010PropOp39
 70
     1
102
RTVSPost2010Prop40
 90
        0
102
RTVSPost2010PropOp40
 70
     1
102
RTVSPost2010Prop41ColorIndex
 90
       18
102
RTVSPost2010Prop41ColorRGB
 90
        0
102
RTVSPost2010PropOp41
 70
     1
102
RTVSPost2010Prop42
 90
       50
102
RTVSPost2010PropOp42
 70
     1
102
RTVSPost2010Prop43
 90
        3
102
RTVSPost2010PropOp43
 70
     1
102
RTVSPost2010Prop44ColorIndex
 90
        5
102
RTVSPost2010Prop44ColorRGB
 90
      255
102
RTVSPost2010PropOp44
 70
     1
102
RTVSPost2010Prop45
280
     0
102
RTVSPost2010PropOp45
 70
     1
102
RTVSPost2010Prop46
 90
       50
102
RTVSPost2010PropOp46
 70
     1
102
RTVSPost2010Prop47
 90
       50
102
RTVSPost2010PropOp47
 70
     1
102
RTVSPost2010Prop48
 90
       50
102
RTVSPost2010PropOp48
 70
     1
102
RTVSPost2010Prop49
280
     0
102
RTVSPost2010PropOp49
 70
     1
102
RTVSPost2010Prop50
 90
       50
102
RTVSPost2010PropOp50
 70
     1
102
RTVSPost2010Prop51ColorIndex
 90
      256
102
RTVSPost2010Prop51ColorRGB
 90
-16777216
102
RTVSPost2010PropOp51
 70
     0
102
RTVSPost2010Prop52
140
1.0
102
RTVSPost2010PropOp52
 70
     0
102
RTVSPost2010Prop53
 90
        2
102
RTVSPost2010PropOp53
 70
     1
102
RTVSPost2010Prop54
  1
strokes_ogs.tif
102
RTVSPost2010PropOp54
 70
     1
102
RTVSPost2010Prop55
280
     0
102
RTVSPost2010PropOp55
 70
     1
102
RTVSPost2010Prop56
140
1.0
102
RTVSPost2010PropOp56
 70
     1
102
RTVSPost2010Prop57
140
1.0
102
RTVSPost2010PropOp57
 70
     1
102
RTVSPropertyOp0
 70
     0
102
RTVSPropertyOp1
 70
     0
102
RTVSPropertyOp2
 70
     0
102
RTVSPropertyOp3
 70
     0
102
RTVSPropertyOp4
 70
     0
102
RTVSPropertyOp5
 70
     0
102
RTVSPropertyOp6
 70
     0
102
RTVSPropertyOp7
 70
     0
102
RTVSPropertyOp8
 70
     0
102
RTVSPropertyOp9
 70
     0
102
RTVSPropertyOp10
 70
     0
102
RTVSPropertyOp11
 70
     0
102
RTVSPropertyOp12
 70
     0
102
RTVSPropertyOp13
 70
     0
102
RTVSPropertyOp14
 70
     2
102
RTVSPropertyOp15
 70
     0
102
RTVSPropertyOp16
 70
     0
102
RTVSPropertyOp17
 70
     0
102
RTVSPropertyOp18
 70
     0
102
RTVSPropertyOp19
 70
     0
102
RTVSPropertyOp20
 70
     0
102
RTVSPropertyOp21
 70
     0
102
RTVSPropertyOp22
 70
     0
102
RTVSPropertyOp23
 70
     0
102
RTVSPropertyOp24
 70
     0
102
RTVSPropertyOp25
 70
     0
102
RTVSPropertyOp26
 70
     0
102
RTVSPropertyOp27
 70
     0
102
RTVSPropertyOp28
 70
     1
102
RTVSPropertyOp29
 70
     1
102
RTVSPropertyOp30
 70
     1
102
RTVSPropertyOp31
 70
     1
102
RTVSPropertyOp32
 70
     1
102
RTVSPropertyOp33
 70
     1
102
RTVSPropertyOp34
 70
     1
102
RTVSPropertyOp35
 70
     1
102
RTVSPropertyOp36
 70
     1
102
RTVSPropertyOp37
 70
     1
102
RTVSPropertyOp38
 70
     1
102
RTVSPropertyOp39
 70
     1
102
RTVSPropertyOp40
 70
     1
102
RTVSPropertyOp41
 70
     1
102
RTVSPropertyOp42
 70
     1
102
RTVSPropertyOp43
 70
     1
102
RTVSPropertyOp44
 70
     1
102
RTVSPropertyOp45
 70
     1
102
RTVSPropertyOp46
 70
     1
102
RTVSPropertyOp47
 70
     1
102
RTVSPropertyOp48
 70
     1
102
RTVSPropertyOp49
 70
     1
102
RTVSPropertyOp50
 70
     1
102
RTVSPropertyOp51
 70
     0
102
RTVSPropertyOp52
 70
     0
102
RTVSPropertyOp53
 70
     1
102
RTVSPropertyOp54
 70
     1
102
RTVSPropertyOp55
 70
     1
102
RTVSPropertyOp56
 70
     1
102
RTVSPropertyOp57
 70
     1
102
RTVSPropertyOp58
 70
     1
102
RTVSPropertyOp59
 70
     1
102
RTVSPropertyOp60
 70
     1
102
RTVSPropertyOp61
 70
     1
102
RTVSPropertyOp62
 70
     1
  0
XRECORD
  5
9EA
102
{ACAD_REACTORS
330
9E9
102
}
330
9E9
100
AcDbXrecord
280
     1
102
RTVSPost2010Prop28
280
     0
102
RTVSPost2010PropOp28
 70
     1
102
RTVSPost2010Prop29
280
     1
102
RTVSPost2010PropOp29
 70
     1
102
RTVSPost2010Prop30
280
     1
102
RTVSPost2010PropOp30
 70
     1
102
RTVSPost2010Prop31
280
     0
102
RTVSPost2010PropOp31
 70
     1
102
RTVSPost2010Prop32
280
     0
102
RTVSPost2010PropOp32
 70
     1
102
RTVSPost2010Prop33
280
     0
102
RTVSPost2010PropOp33
 70
     1
102
RTVSPost2010Prop34
280
     0
102
RTVSPost2010PropOp34
 70
     1
102
RTVSPost2010Prop35
280
     0
102
RTVSPost2010PropOp35
 70
     1
102
RTVSPost2010Prop36
280
     0
102
RTVSPost2010PropOp36
 70
     1
102
RTVSPost2010Prop37
 90
       50
102
RTVSPost2010PropOp37
 70
     1
102
RTVSPost2010Prop38
140
0.0
102
RTVSPost2010PropOp38
 70
     1
102
RTVSPost2010Prop39
140
1.0
102
RTVSPost2010PropOp39
 70
     1
102
RTVSPost2010Prop40
 90
        0
102
RTVSPost2010PropOp40
 70
     1
102
RTVSPost2010Prop41ColorIndex
 90
       18
102
RTVSPost2010Prop41ColorRGB
 90
        0
102
RTVSPost2010PropOp41
 70
     1
102
RTVSPost2010Prop42
 90
       50
102
RTVSPost2010PropOp42
 70
     1
102
RTVSPost2010Prop43
 90
        3
102
RTVSPost2010PropOp43
 70
     1
102
RTVSPost2010Prop44ColorIndex
 90
        5
102
RTVSPost2010Prop44ColorRGB
 90
      255
102
RTVSPost2010PropOp44
 70
     1
102
RTVSPost2010Prop45
280
     0
102
RTVSPost2010PropOp45
 70
     1
102
RTVSPost2010Prop46
 90
       50
102
RTVSPost2010PropOp46
 70
     1
102
RTVSPost2010Prop47
 90
       50
102
RTVSPost2010PropOp47
 70
     1
102
RTVSPost2010Prop48
 90
       50
102
RTVSPost2010PropOp48
 70
     1
102
RTVSPost2010Prop49
280
     0
102
RTVSPost2010PropOp49
 70
     1
102
RTVSPost2010Prop50
 90
       50
102
RTVSPost2010PropOp50
 70
     1
102
RTVSPost2010Prop51ColorIndex
 90
      256
102
RTVSPost2010Prop51ColorRGB
 90
-16777216
102
RTVSPost2010PropOp51
 70
     0
102
RTVSPost2010Prop52
140
1.0
102
RTVSPost2010PropOp52
 70
     0
102
RTVSPost2010Prop53
 90
        2
102
RTVSPost2010PropOp53
 70
     1
102
RTVSPost2010Prop54
  1
strokes_ogs.tif
102
RTVSPost2010PropOp54
 70
     1
102
RTVSPost2010Prop55
280
     0
102
RTVSPost2010PropOp55
 70
     1
102
RTVSPost2010Prop56
140
1.0
102
RTVSPost2010PropOp56
 70
     1
102
RTVSPost2010Prop57
140
1.0
102
RTVSPost2010PropOp57
 70
     1
102
RTVSPropertyOp0
 70
     1
102
RTVSPropertyOp1
 70
     1
102
RTVSPropertyOp2
 70
     1
102
RTVSPropertyOp3
 70
     1
102
RTVSPropertyOp4
 70
     1
102
RTVSPropertyOp5
 70
     1
102
RTVSPropertyOp6
 70
     1
102
RTVSPropertyOp7
 70
     1
102
RTVSPropertyOp8
 70
     1
102
RTVSPropertyOp9
 70
     1
102
RTVSPropertyOp10
 70
     1
102
RTVSPropertyOp11
 70
     1
102
RTVSPropertyOp12
 70
     1
102
RTVSPropertyOp13
 70
     1
102
RTVSPropertyOp14
 70
     1
102
RTVSPropertyOp15
 70
     1
102
RTVSPropertyOp16
 70
     1
102
RTVSPropertyOp17
 70
     1
102
RTVSPropertyOp18
 70
     1
102
RTVSPropertyOp19
 70
     1
102
RTVSPropertyOp20
 70
     1
102
RTVSPropertyOp21
 70
     1
102
RTVSPropertyOp22
 70
     1
102
RTVSPropertyOp23
 70
     1
102
RTVSPropertyOp24
 70
     1
102
RTVSPropertyOp25
 70
     1
102
RTVSPropertyOp26
 70
     1
102
RTVSPropertyOp27
 70
     1
102
RTVSPropertyOp28
 70
     1
102
RTVSPropertyOp29
 70
     1
102
RTVSPropertyOp30
 70
     1
102
RTVSPropertyOp31
 70
     1
102
RTVSPropertyOp32
 70
     1
102
RTVSPropertyOp33
 70
     1
102
RTVSPropertyOp34
 70
     1
102
RTVSPropertyOp35
 70
     1
102
RTVSPropertyOp36
 70
     1
102
RTVSPropertyOp37
 70
     1
102
RTVSPropertyOp38
 70
     1
102
RTVSPropertyOp39
 70
     1
102
RTVSPropertyOp40
 70
     1
102
RTVSPropertyOp41
 70
     1
102
RTVSPropertyOp42
 70
     1
102
RTVSPropertyOp43
 70
     1
102
RTVSPropertyOp44
 70
     1
102
RTVSPropertyOp45
 70
     1
102
RTVSPropertyOp46
 70
     1
102
RTVSPropertyOp47
 70
     1
102
RTVSPropertyOp48
 70
     1
102
RTVSPropertyOp49
 70
     1
102
RTVSPropertyOp50
 70
     1
102
RTVSPropertyOp51
 70
     0
102
RTVSPropertyOp52
 70
     0
102
RTVSPropertyOp53
 70
     1
102
RTVSPropertyOp54
 70
     1
102
RTVSPropertyOp55
 70
     1
102
RTVSPropertyOp56
 70
     1
102
RTVSPropertyOp57
 70
     1
102
RTVSPropertyOp58
 70
     1
102
RTVSPropertyOp59
 70
     1
102
RTVSPropertyOp60
 70
     1
102
RTVSPropertyOp61
 70
     1
102
RTVSPropertyOp62
 70
     1
  0
XRECORD
  5
A06
102
{ACAD_REACTORS
330
A05
102
}
330
A05
100
AcDbXrecord
280
     1
102
RTVSPost2010Prop28
280
     0
102
RTVSPost2010PropOp28
 70
     1
102
RTVSPost2010Prop29
280
     1
102
RTVSPost2010PropOp29
 70
     1
102
RTVSPost2010Prop30
280
     1
102
RTVSPost2010PropOp30
 70
     1
102
RTVSPost2010Prop31
280
     0
102
RTVSPost2010PropOp31
 70
     1
102
RTVSPost2010Prop32
280
     0
102
RTVSPost2010PropOp32
 70
     1
102
RTVSPost2010Prop33
280
     0
102
RTVSPost2010PropOp33
 70
     1
102
RTVSPost2010Prop34
280
     0
102
RTVSPost2010PropOp34
 70
     1
102
RTVSPost2010Prop35
280
     0
102
RTVSPost2010PropOp35
 70
     1
102
RTVSPost2010Prop36
280
     0
102
RTVSPost2010PropOp36
 70
     1
102
RTVSPost2010Prop37
 90
       50
102
RTVSPost2010PropOp37
 70
     1
102
RTVSPost2010Prop38
140
0.0
102
RTVSPost2010PropOp38
 70
     1
102
RTVSPost2010Prop39
140
1.0
102
RTVSPost2010PropOp39
 70
     1
102
RTVSPost2010Prop40
 90
        0
102
RTVSPost2010PropOp40
 70
     1
102
RTVSPost2010Prop41ColorIndex
 90
       18
102
RTVSPost2010Prop41ColorRGB
 90
        0
102
RTVSPost2010PropOp41
 70
     1
102
RTVSPost2010Prop42
 90
       50
102
RTVSPost2010PropOp42
 70
     1
102
RTVSPost2010Prop43
 90
        3
102
RTVSPost2010PropOp43
 70
     1
102
RTVSPost2010Prop44ColorIndex
 90
        5
102
RTVSPost2010Prop44ColorRGB
 90
      255
102
RTVSPost2010PropOp44
 70
     1
102
RTVSPost2010Prop45
280
     0
102
RTVSPost2010PropOp45
 70
     1
102
RTVSPost2010Prop46
 90
       50
102
RTVSPost2010PropOp46
 70
     1
102
RTVSPost2010Prop47
 90
       50
102
RTVSPost2010PropOp47
 70
     1
102
RTVSPost2010Prop48
 90
       50
102
RTVSPost2010PropOp48
 70
     1
102
RTVSPost2010Prop49
280
     0
102
RTVSPost2010PropOp49
 70
     1
102
RTVSPost2010Prop50
 90
       50
102
RTVSPost2010PropOp50
 70
     1
102
RTVSPost2010Prop51ColorIndex
 90
      256
102
RTVSPost2010Prop51ColorRGB
 90
-16777216
102
RTVSPost2010PropOp51
 70
     0
102
RTVSPost2010Prop52
140
1.0
102
RTVSPost2010PropOp52
 70
     0
102
RTVSPost2010Prop53
 90
        2
102
RTVSPost2010PropOp53
 70
     1
102
RTVSPost2010Prop54
  1
strokes_ogs.tif
102
RTVSPost2010PropOp54
 70
     1
102
RTVSPost2010Prop55
280
     0
102
RTVSPost2010PropOp55
 70
     1
102
RTVSPost2010Prop56
140
1.0
102
RTVSPost2010PropOp56
 70
     1
102
RTVSPost2010Prop57
140
1.0
102
RTVSPost2010PropOp57
 70
     1
102
RTVSPropertyOp0
 70
     1
102
RTVSPropertyOp1
 70
     1
102
RTVSPropertyOp2
 70
     1
102
RTVSPropertyOp3
 70
     1
102
RTVSPropertyOp4
 70
     1
102
RTVSPropertyOp5
 70
     1
102
RTVSPropertyOp6
 70
     1
102
RTVSPropertyOp7
 70
     1
102
RTVSPropertyOp8
 70
     1
102
RTVSPropertyOp9
 70
     1
102
RTVSPropertyOp10
 70
     1
102
RTVSPropertyOp11
 70
     1
102
RTVSPropertyOp12
 70
     1
102
RTVSPropertyOp13
 70
     1
102
RTVSPropertyOp14
 70
     1
102
RTVSPropertyOp15
 70
     1
102
RTVSPropertyOp16
 70
     1
102
RTVSPropertyOp17
 70
     1
102
RTVSPropertyOp18
 70
     1
102
RTVSPropertyOp19
 70
     1
102
RTVSPropertyOp20
 70
     1
102
RTVSPropertyOp21
 70
     1
102
RTVSPropertyOp22
 70
     1
102
RTVSPropertyOp23
 70
     1
102
RTVSPropertyOp24
 70
     1
102
RTVSPropertyOp25
 70
     1
102
RTVSPropertyOp26
 70
     1
102
RTVSPropertyOp27
 70
     1
102
RTVSPropertyOp28
 70
     1
102
RTVSPropertyOp29
 70
     1
102
RTVSPropertyOp30
 70
     1
102
RTVSPropertyOp31
 70
     1
102
RTVSPropertyOp32
 70
     1
102
RTVSPropertyOp33
 70
     1
102
RTVSPropertyOp34
 70
     1
102
RTVSPropertyOp35
 70
     1
102
RTVSPropertyOp36
 70
     1
102
RTVSPropertyOp37
 70
     1
102
RTVSPropertyOp38
 70
     1
102
RTVSPropertyOp39
 70
     1
102
RTVSPropertyOp40
 70
     1
102
RTVSPropertyOp41
 70
     1
102
RTVSPropertyOp42
 70
     1
102
RTVSPropertyOp43
 70
     1
102
RTVSPropertyOp44
 70
     1
102
RTVSPropertyOp45
 70
     1
102
RTVSPropertyOp46
 70
     1
102
RTVSPropertyOp47
 70
     1
102
RTVSPropertyOp48
 70
     1
102
RTVSPropertyOp49
 70
     1
102
RTVSPropertyOp50
 70
     1
102
RTVSPropertyOp51
 70
     0
102
RTVSPropertyOp52
 70
     0
102
RTVSPropertyOp53
 70
     1
102
RTVSPropertyOp54
 70
     1
102
RTVSPropertyOp55
 70
     1
102
RTVSPropertyOp56
 70
     1
102
RTVSPropertyOp57
 70
     1
102
RTVSPropertyOp58
 70
     1
102
RTVSPropertyOp59
 70
     1
102
RTVSPropertyOp60
 70
     1
102
RTVSPropertyOp61
 70
     1
102
RTVSPropertyOp62
 70
     1
  0
XRECORD
  5
A04
102
{ACAD_REACTORS
330
A03
102
}
330
A03
100
AcDbXrecord
280
     1
102
RTVSPost2010Prop28
280
     0
102
RTVSPost2010PropOp28
 70
     1
102
RTVSPost2010Prop29
280
     1
102
RTVSPost2010PropOp29
 70
     1
102
RTVSPost2010Prop30
280
     1
102
RTVSPost2010PropOp30
 70
     1
102
RTVSPost2010Prop31
280
     0
102
RTVSPost2010PropOp31
 70
     1
102
RTVSPost2010Prop32
280
     0
102
RTVSPost2010PropOp32
 70
     1
102
RTVSPost2010Prop33
280
     0
102
RTVSPost2010PropOp33
 70
     1
102
RTVSPost2010Prop34
280
     0
102
RTVSPost2010PropOp34
 70
     1
102
RTVSPost2010Prop35
280
     0
102
RTVSPost2010PropOp35
 70
     1
102
RTVSPost2010Prop36
280
     0
102
RTVSPost2010PropOp36
 70
     1
102
RTVSPost2010Prop37
 90
       50
102
RTVSPost2010PropOp37
 70
     1
102
RTVSPost2010Prop38
140
0.0
102
RTVSPost2010PropOp38
 70
     1
102
RTVSPost2010Prop39
140
1.0
102
RTVSPost2010PropOp39
 70
     1
102
RTVSPost2010Prop40
 90
        0
102
RTVSPost2010PropOp40
 70
     1
102
RTVSPost2010Prop41ColorIndex
 90
       18
102
RTVSPost2010Prop41ColorRGB
 90
        0
102
RTVSPost2010PropOp41
 70
     1
102
RTVSPost2010Prop42
 90
       50
102
RTVSPost2010PropOp42
 70
     1
102
RTVSPost2010Prop43
 90
        3
102
RTVSPost2010PropOp43
 70
     1
102
RTVSPost2010Prop44ColorIndex
 90
        5
102
RTVSPost2010Prop44ColorRGB
 90
      255
102
RTVSPost2010PropOp44
 70
     1
102
RTVSPost2010Prop45
280
     0
102
RTVSPost2010PropOp45
 70
     1
102
RTVSPost2010Prop46
 90
       50
102
RTVSPost2010PropOp46
 70
     1
102
RTVSPost2010Prop47
 90
       50
102
RTVSPost2010PropOp47
 70
     1
102
RTVSPost2010Prop48
 90
       50
102
RTVSPost2010PropOp48
 70
     1
102
RTVSPost2010Prop49
280
     0
102
RTVSPost2010PropOp49
 70
     1
102
RTVSPost2010Prop50
 90
       50
102
RTVSPost2010PropOp50
 70
     1
102
RTVSPost2010Prop51ColorIndex
 90
      256
102
RTVSPost2010Prop51ColorRGB
 90
-16777216
102
RTVSPost2010PropOp51
 70
     0
102
RTVSPost2010Prop52
140
1.0
102
RTVSPost2010PropOp52
 70
     0
102
RTVSPost2010Prop53
 90
        2
102
RTVSPost2010PropOp53
 70
     1
102
RTVSPost2010Prop54
  1
strokes_ogs.tif
102
RTVSPost2010PropOp54
 70
     1
102
RTVSPost2010Prop55
280
     0
102
RTVSPost2010PropOp55
 70
     1
102
RTVSPost2010Prop56
140
1.0
102
RTVSPost2010PropOp56
 70
     1
102
RTVSPost2010Prop57
140
1.0
102
RTVSPost2010PropOp57
 70
     1
102
RTVSPropertyOp0
 70
     1
102
RTVSPropertyOp1
 70
     1
102
RTVSPropertyOp2
 70
     1
102
RTVSPropertyOp3
 70
     1
102
RTVSPropertyOp4
 70
     1
102
RTVSPropertyOp5
 70
     1
102
RTVSPropertyOp6
 70
     1
102
RTVSPropertyOp7
 70
     1
102
RTVSPropertyOp8
 70
     1
102
RTVSPropertyOp9
 70
     1
102
RTVSPropertyOp10
 70
     1
102
RTVSPropertyOp11
 70
     1
102
RTVSPropertyOp12
 70
     1
102
RTVSPropertyOp13
 70
     1
102
RTVSPropertyOp14
 70
     1
102
RTVSPropertyOp15
 70
     1
102
RTVSPropertyOp16
 70
     1
102
RTVSPropertyOp17
 70
     1
102
RTVSPropertyOp18
 70
     1
102
RTVSPropertyOp19
 70
     1
102
RTVSPropertyOp20
 70
     1
102
RTVSPropertyOp21
 70
     1
102
RTVSPropertyOp22
 70
     1
102
RTVSPropertyOp23
 70
     1
102
RTVSPropertyOp24
 70
     1
102
RTVSPropertyOp25
 70
     1
102
RTVSPropertyOp26
 70
     1
102
RTVSPropertyOp27
 70
     1
102
RTVSPropertyOp28
 70
     1
102
RTVSPropertyOp29
 70
     1
102
RTVSPropertyOp30
 70
     1
102
RTVSPropertyOp31
 70
     1
102
RTVSPropertyOp32
 70
     1
102
RTVSPropertyOp33
 70
     1
102
RTVSPropertyOp34
 70
     1
102
RTVSPropertyOp35
 70
     1
102
RTVSPropertyOp36
 70
     1
102
RTVSPropertyOp37
 70
     1
102
RTVSPropertyOp38
 70
     1
102
RTVSPropertyOp39
 70
     1
102
RTVSPropertyOp40
 70
     1
102
RTVSPropertyOp41
 70
     1
102
RTVSPropertyOp42
 70
     1
102
RTVSPropertyOp43
 70
     1
102
RTVSPropertyOp44
 70
     1
102
RTVSPropertyOp45
 70
     1
102
RTVSPropertyOp46
 70
     1
102
RTVSPropertyOp47
 70
     1
102
RTVSPropertyOp48
 70
     1
102
RTVSPropertyOp49
 70
     1
102
RTVSPropertyOp50
 70
     1
102
RTVSPropertyOp51
 70
     0
102
RTVSPropertyOp52
 70
     0
102
RTVSPropertyOp53
 70
     1
102
RTVSPropertyOp54
 70
     1
102
RTVSPropertyOp55
 70
     1
102
RTVSPropertyOp56
 70
     1
102
RTVSPropertyOp57
 70
     1
102
RTVSPropertyOp58
 70
     1
102
RTVSPropertyOp59
 70
     1
102
RTVSPropertyOp60
 70
     1
102
RTVSPropertyOp61
 70
     1
102
RTVSPropertyOp62
 70
     1
  0
XRECORD
  5
9FE
102
{ACAD_REACTORS
330
9FD
102
}
330
9FD
100
AcDbXrecord
280
     1
102
RTVSPost2010Prop28
280
     0
102
RTVSPost2010PropOp28
 70
     1
102
RTVSPost2010Prop29
280
     1
102
RTVSPost2010PropOp29
 70
     1
102
RTVSPost2010Prop30
280
     1
102
RTVSPost2010PropOp30
 70
     1
102
RTVSPost2010Prop31
280
     0
102
RTVSPost2010PropOp31
 70
     1
102
RTVSPost2010Prop32
280
     0
102
RTVSPost2010PropOp32
 70
     1
102
RTVSPost2010Prop33
280
     0
102
RTVSPost2010PropOp33
 70
     1
102
RTVSPost2010Prop34
280
     0
102
RTVSPost2010PropOp34
 70
     1
102
RTVSPost2010Prop35
280
     0
102
RTVSPost2010PropOp35
 70
     1
102
RTVSPost2010Prop36
280
     0
102
RTVSPost2010PropOp36
 70
     1
102
RTVSPost2010Prop37
 90
       50
102
RTVSPost2010PropOp37
 70
     1
102
RTVSPost2010Prop38
140
0.0
102
RTVSPost2010PropOp38
 70
     1
102
RTVSPost2010Prop39
140
1.0
102
RTVSPost2010PropOp39
 70
     1
102
RTVSPost2010Prop40
 90
        0
102
RTVSPost2010PropOp40
 70
     1
102
RTVSPost2010Prop41ColorIndex
 90
       18
102
RTVSPost2010Prop41ColorRGB
 90
        0
102
RTVSPost2010PropOp41
 70
     1
102
RTVSPost2010Prop42
 90
       50
102
RTVSPost2010PropOp42
 70
     1
102
RTVSPost2010Prop43
 90
        3
102
RTVSPost2010PropOp43
 70
     1
102
RTVSPost2010Prop44ColorIndex
 90
        5
102
RTVSPost2010Prop44ColorRGB
 90
      255
102
RTVSPost2010PropOp44
 70
     1
102
RTVSPost2010Prop45
280
     0
102
RTVSPost2010PropOp45
 70
     1
102
RTVSPost2010Prop46
 90
       50
102
RTVSPost2010PropOp46
 70
     1
102
RTVSPost2010Prop47
 90
       50
102
RTVSPost2010PropOp47
 70
     1
102
RTVSPost2010Prop48
 90
       50
102
RTVSPost2010PropOp48
 70
     1
102
RTVSPost2010Prop49
280
     0
102
RTVSPost2010PropOp49
 70
     1
102
RTVSPost2010Prop50
 90
       50
102
RTVSPost2010PropOp50
 70
     1
102
RTVSPost2010Prop51ColorIndex
 90
      256
102
RTVSPost2010Prop51ColorRGB
 90
-16777216
102
RTVSPost2010PropOp51
 70
     0
102
RTVSPost2010Prop52
140
1.0
102
RTVSPost2010PropOp52
 70
     0
102
RTVSPost2010Prop53
 90
        2
102
RTVSPost2010PropOp53
 70
     1
102
RTVSPost2010Prop54
  1
strokes_ogs.tif
102
RTVSPost2010PropOp54
 70
     1
102
RTVSPost2010Prop55
280
     0
102
RTVSPost2010PropOp55
 70
     1
102
RTVSPost2010Prop56
140
1.0
102
RTVSPost2010PropOp56
 70
     1
102
RTVSPost2010Prop57
140
1.0
102
RTVSPost2010PropOp57
 70
     1
102
RTVSPropertyOp0
 70
     1
102
RTVSPropertyOp1
 70
     1
102
RTVSPropertyOp2
 70
     1
102
RTVSPropertyOp3
 70
     1
102
RTVSPropertyOp4
 70
     1
102
RTVSPropertyOp5
 70
     1
102
RTVSPropertyOp6
 70
     1
102
RTVSPropertyOp7
 70
     1
102
RTVSPropertyOp8
 70
     1
102
RTVSPropertyOp9
 70
     1
102
RTVSPropertyOp10
 70
     1
102
RTVSPropertyOp11
 70
     1
102
RTVSPropertyOp12
 70
     1
102
RTVSPropertyOp13
 70
     1
102
RTVSPropertyOp14
 70
     1
102
RTVSPropertyOp15
 70
     1
102
RTVSPropertyOp16
 70
     1
102
RTVSPropertyOp17
 70
     1
102
RTVSPropertyOp18
 70
     1
102
RTVSPropertyOp19
 70
     1
102
RTVSPropertyOp20
 70
     1
102
RTVSPropertyOp21
 70
     1
102
RTVSPropertyOp22
 70
     1
102
RTVSPropertyOp23
 70
     1
102
RTVSPropertyOp24
 70
     1
102
RTVSPropertyOp25
 70
     1
102
RTVSPropertyOp26
 70
     1
102
RTVSPropertyOp27
 70
     1
102
RTVSPropertyOp28
 70
     1
102
RTVSPropertyOp29
 70
     1
102
RTVSPropertyOp30
 70
     1
102
RTVSPropertyOp31
 70
     1
102
RTVSPropertyOp32
 70
     1
102
RTVSPropertyOp33
 70
     1
102
RTVSPropertyOp34
 70
     1
102
RTVSPropertyOp35
 70
     1
102
RTVSPropertyOp36
 70
     1
102
RTVSPropertyOp37
 70
     1
102
RTVSPropertyOp38
 70
     1
102
RTVSPropertyOp39
 70
     1
102
RTVSPropertyOp40
 70
     1
102
RTVSPropertyOp41
 70
     1
102
RTVSPropertyOp42
 70
     1
102
RTVSPropertyOp43
 70
     1
102
RTVSPropertyOp44
 70
     1
102
RTVSPropertyOp45
 70
     1
102
RTVSPropertyOp46
 70
     1
102
RTVSPropertyOp47
 70
     1
102
RTVSPropertyOp48
 70
     1
102
RTVSPropertyOp49
 70
     1
102
RTVSPropertyOp50
 70
     1
102
RTVSPropertyOp51
 70
     0
102
RTVSPropertyOp52
 70
     0
102
RTVSPropertyOp53
 70
     1
102
RTVSPropertyOp54
 70
     1
102
RTVSPropertyOp55
 70
     1
102
RTVSPropertyOp56
 70
     1
102
RTVSPropertyOp57
 70
     1
102
RTVSPropertyOp58
 70
     1
102
RTVSPropertyOp59
 70
     1
102
RTVSPropertyOp60
 70
     1
102
RTVSPropertyOp61
 70
     1
102
RTVSPropertyOp62
 70
     1
  0
XRECORD
  5
A00
102
{ACAD_REACTORS
330
9FF
102
}
330
9FF
100
AcDbXrecord
280
     1
102
RTVSPost2010Prop28
280
     0
102
RTVSPost2010PropOp28
 70
     1
102
RTVSPost2010Prop29
280
     1
102
RTVSPost2010PropOp29
 70
     1
102
RTVSPost2010Prop30
280
     1
102
RTVSPost2010PropOp30
 70
     1
102
RTVSPost2010Prop31
280
     0
102
RTVSPost2010PropOp31
 70
     1
102
RTVSPost2010Prop32
280
     0
102
RTVSPost2010PropOp32
 70
     1
102
RTVSPost2010Prop33
280
     0
102
RTVSPost2010PropOp33
 70
     1
102
RTVSPost2010Prop34
280
     0
102
RTVSPost2010PropOp34
 70
     1
102
RTVSPost2010Prop35
280
     0
102
RTVSPost2010PropOp35
 70
     1
102
RTVSPost2010Prop36
280
     0
102
RTVSPost2010PropOp36
 70
     1
102
RTVSPost2010Prop37
 90
       50
102
RTVSPost2010PropOp37
 70
     1
102
RTVSPost2010Prop38
140
0.0
102
RTVSPost2010PropOp38
 70
     1
102
RTVSPost2010Prop39
140
1.0
102
RTVSPost2010PropOp39
 70
     1
102
RTVSPost2010Prop40
 90
        0
102
RTVSPost2010PropOp40
 70
     1
102
RTVSPost2010Prop41ColorIndex
 90
       18
102
RTVSPost2010Prop41ColorRGB
 90
        0
102
RTVSPost2010PropOp41
 70
     1
102
RTVSPost2010Prop42
 90
       50
102
RTVSPost2010PropOp42
 70
     1
102
RTVSPost2010Prop43
 90
        3
102
RTVSPost2010PropOp43
 70
     1
102
RTVSPost2010Prop44ColorIndex
 90
        5
102
RTVSPost2010Prop44ColorRGB
 90
      255
102
RTVSPost2010PropOp44
 70
     1
102
RTVSPost2010Prop45
280
     0
102
RTVSPost2010PropOp45
 70
     1
102
RTVSPost2010Prop46
 90
       50
102
RTVSPost2010PropOp46
 70
     1
102
RTVSPost2010Prop47
 90
       50
102
RTVSPost2010PropOp47
 70
     1
102
RTVSPost2010Prop48
 90
       50
102
RTVSPost2010PropOp48
 70
     1
102
RTVSPost2010Prop49
280
     0
102
RTVSPost2010PropOp49
 70
     1
102
RTVSPost2010Prop50
 90
       50
102
RTVSPost2010PropOp50
 70
     1
102
RTVSPost2010Prop51ColorIndex
 90
      256
102
RTVSPost2010Prop51ColorRGB
 90
-16777216
102
RTVSPost2010PropOp51
 70
     0
102
RTVSPost2010Prop52
140
1.0
102
RTVSPost2010PropOp52
 70
     0
102
RTVSPost2010Prop53
 90
        2
102
RTVSPost2010PropOp53
 70
     1
102
RTVSPost2010Prop54
  1
strokes_ogs.tif
102
RTVSPost2010PropOp54
 70
     1
102
RTVSPost2010Prop55
280
     0
102
RTVSPost2010PropOp55
 70
     1
102
RTVSPost2010Prop56
140
1.0
102
RTVSPost2010PropOp56
 70
     1
102
RTVSPost2010Prop57
140
1.0
102
RTVSPost2010PropOp57
 70
     1
102
RTVSPropertyOp0
 70
     1
102
RTVSPropertyOp1
 70
     1
102
RTVSPropertyOp2
 70
     1
102
RTVSPropertyOp3
 70
     1
102
RTVSPropertyOp4
 70
     1
102
RTVSPropertyOp5
 70
     1
102
RTVSPropertyOp6
 70
     1
102
RTVSPropertyOp7
 70
     1
102
RTVSPropertyOp8
 70
     1
102
RTVSPropertyOp9
 70
     1
102
RTVSPropertyOp10
 70
     1
102
RTVSPropertyOp11
 70
     1
102
RTVSPropertyOp12
 70
     1
102
RTVSPropertyOp13
 70
     1
102
RTVSPropertyOp14
 70
     1
102
RTVSPropertyOp15
 70
     1
102
RTVSPropertyOp16
 70
     1
102
RTVSPropertyOp17
 70
     1
102
RTVSPropertyOp18
 70
     1
102
RTVSPropertyOp19
 70
     1
102
RTVSPropertyOp20
 70
     1
102
RTVSPropertyOp21
 70
     1
102
RTVSPropertyOp22
 70
     1
102
RTVSPropertyOp23
 70
     1
102
RTVSPropertyOp24
 70
     1
102
RTVSPropertyOp25
 70
     1
102
RTVSPropertyOp26
 70
     1
102
RTVSPropertyOp27
 70
     1
102
RTVSPropertyOp28
 70
     1
102
RTVSPropertyOp29
 70
     1
102
RTVSPropertyOp30
 70
     1
102
RTVSPropertyOp31
 70
     1
102
RTVSPropertyOp32
 70
     1
102
RTVSPropertyOp33
 70
     1
102
RTVSPropertyOp34
 70
     1
102
RTVSPropertyOp35
 70
     1
102
RTVSPropertyOp36
 70
     1
102
RTVSPropertyOp37
 70
     1
102
RTVSPropertyOp38
 70
     1
102
RTVSPropertyOp39
 70
     1
102
RTVSPropertyOp40
 70
     1
102
RTVSPropertyOp41
 70
     1
102
RTVSPropertyOp42
 70
     1
102
RTVSPropertyOp43
 70
     1
102
RTVSPropertyOp44
 70
     1
102
RTVSPropertyOp45
 70
     1
102
RTVSPropertyOp46
 70
     1
102
RTVSPropertyOp47
 70
     1
102
RTVSPropertyOp48
 70
     1
102
RTVSPropertyOp49
 70
     1
102
RTVSPropertyOp50
 70
     1
102
RTVSPropertyOp51
 70
     0
102
RTVSPropertyOp52
 70
     0
102
RTVSPropertyOp53
 70
     1
102
RTVSPropertyOp54
 70
     1
102
RTVSPropertyOp55
 70
     1
102
RTVSPropertyOp56
 70
     1
102
RTVSPropertyOp57
 70
     1
102
RTVSPropertyOp58
 70
     1
102
RTVSPropertyOp59
 70
     1
102
RTVSPropertyOp60
 70
     1
102
RTVSPropertyOp61
 70
     1
102
RTVSPropertyOp62
 70
     1
  0
XRECORD
  5
9F0
102
{ACAD_REACTORS
330
9EF
102
}
330
9EF
100
AcDbXrecord
280
     1
102
RTVSPost2010Prop28
280
     0
102
RTVSPost2010PropOp28
 70
     1
102
RTVSPost2010Prop29
280
     1
102
RTVSPost2010PropOp29
 70
     1
102
RTVSPost2010Prop30
280
     1
102
RTVSPost2010PropOp30
 70
     1
102
RTVSPost2010Prop31
280
     0
102
RTVSPost2010PropOp31
 70
     1
102
RTVSPost2010Prop32
280
     0
102
RTVSPost2010PropOp32
 70
     1
102
RTVSPost2010Prop33
280
     0
102
RTVSPost2010PropOp33
 70
     1
102
RTVSPost2010Prop34
280
     0
102
RTVSPost2010PropOp34
 70
     1
102
RTVSPost2010Prop35
280
     0
102
RTVSPost2010PropOp35
 70
     1
102
RTVSPost2010Prop36
280
     0
102
RTVSPost2010PropOp36
 70
     1
102
RTVSPost2010Prop37
 90
       50
102
RTVSPost2010PropOp37
 70
     1
102
RTVSPost2010Prop38
140
0.0
102
RTVSPost2010PropOp38
 70
     1
102
RTVSPost2010Prop39
140
1.0
102
RTVSPost2010PropOp39
 70
     1
102
RTVSPost2010Prop40
 90
        0
102
RTVSPost2010PropOp40
 70
     1
102
RTVSPost2010Prop41ColorIndex
 90
       18
102
RTVSPost2010Prop41ColorRGB
 90
        0
102
RTVSPost2010PropOp41
 70
     1
102
RTVSPost2010Prop42
 90
       50
102
RTVSPost2010PropOp42
 70
     1
102
RTVSPost2010Prop43
 90
        3
102
RTVSPost2010PropOp43
 70
     1
102
RTVSPost2010Prop44ColorIndex
 90
        5
102
RTVSPost2010Prop44ColorRGB
 90
      255
102
RTVSPost2010PropOp44
 70
     1
102
RTVSPost2010Prop45
280
     0
102
RTVSPost2010PropOp45
 70
     1
102
RTVSPost2010Prop46
 90
       50
102
RTVSPost2010PropOp46
 70
     1
102
RTVSPost2010Prop47
 90
       50
102
RTVSPost2010PropOp47
 70
     1
102
RTVSPost2010Prop48
 90
       50
102
RTVSPost2010PropOp48
 70
     1
102
RTVSPost2010Prop49
280
     0
102
RTVSPost2010PropOp49
 70
     1
102
RTVSPost2010Prop50
 90
       50
102
RTVSPost2010PropOp50
 70
     1
102
RTVSPost2010Prop51ColorIndex
 90
      256
102
RTVSPost2010Prop51ColorRGB
 90
-16777216
102
RTVSPost2010PropOp51
 70
     0
102
RTVSPost2010Prop52
140
1.0
102
RTVSPost2010PropOp52
 70
     0
102
RTVSPost2010Prop53
 90
        2
102
RTVSPost2010PropOp53
 70
     1
102
RTVSPost2010Prop54
  1
strokes_ogs.tif
102
RTVSPost2010PropOp54
 70
     1
102
RTVSPost2010Prop55
280
     0
102
RTVSPost2010PropOp55
 70
     1
102
RTVSPost2010Prop56
140
1.0
102
RTVSPost2010PropOp56
 70
     1
102
RTVSPost2010Prop57
140
1.0
102
RTVSPost2010PropOp57
 70
     1
102
RTVSPropertyOp0
 70
     1
102
RTVSPropertyOp1
 70
     1
102
RTVSPropertyOp2
 70
     1
102
RTVSPropertyOp3
 70
     1
102
RTVSPropertyOp4
 70
     1
102
RTVSPropertyOp5
 70
     1
102
RTVSPropertyOp6
 70
     1
102
RTVSPropertyOp7
 70
     1
102
RTVSPropertyOp8
 70
     1
102
RTVSPropertyOp9
 70
     1
102
RTVSPropertyOp10
 70
     1
102
RTVSPropertyOp11
 70
     1
102
RTVSPropertyOp12
 70
     1
102
RTVSPropertyOp13
 70
     1
102
RTVSPropertyOp14
 70
     1
102
RTVSPropertyOp15
 70
     1
102
RTVSPropertyOp16
 70
     1
102
RTVSPropertyOp17
 70
     1
102
RTVSPropertyOp18
 70
     1
102
RTVSPropertyOp19
 70
     1
102
RTVSPropertyOp20
 70
     1
102
RTVSPropertyOp21
 70
     1
102
RTVSPropertyOp22
 70
     1
102
RTVSPropertyOp23
 70
     1
102
RTVSPropertyOp24
 70
     1
102
RTVSPropertyOp25
 70
     1
102
RTVSPropertyOp26
 70
     1
102
RTVSPropertyOp27
 70
     1
102
RTVSPropertyOp28
 70
     1
102
RTVSPropertyOp29
 70
     1
102
RTVSPropertyOp30
 70
     1
102
RTVSPropertyOp31
 70
     1
102
RTVSPropertyOp32
 70
     1
102
RTVSPropertyOp33
 70
     1
102
RTVSPropertyOp34
 70
     1
102
RTVSPropertyOp35
 70
     1
102
RTVSPropertyOp36
 70
     1
102
RTVSPropertyOp37
 70
     1
102
RTVSPropertyOp38
 70
     1
102
RTVSPropertyOp39
 70
     1
102
RTVSPropertyOp40
 70
     1
102
RTVSPropertyOp41
 70
     1
102
RTVSPropertyOp42
 70
     1
102
RTVSPropertyOp43
 70
     1
102
RTVSPropertyOp44
 70
     1
102
RTVSPropertyOp45
 70
     1
102
RTVSPropertyOp46
 70
     1
102
RTVSPropertyOp47
 70
     1
102
RTVSPropertyOp48
 70
     1
102
RTVSPropertyOp49
 70
     1
102
RTVSPropertyOp50
 70
     1
102
RTVSPropertyOp51
 70
     0
102
RTVSPropertyOp52
 70
     0
102
RTVSPropertyOp53
 70
     1
102
RTVSPropertyOp54
 70
     1
102
RTVSPropertyOp55
 70
     1
102
RTVSPropertyOp56
 70
     1
102
RTVSPropertyOp57
 70
     1
102
RTVSPropertyOp58
 70
     1
102
RTVSPropertyOp59
 70
     1
102
RTVSPropertyOp60
 70
     1
102
RTVSPropertyOp61
 70
     1
102
RTVSPropertyOp62
 70
     1
  0
XRECORD
  5
9E4
102
{ACAD_REACTORS
330
9E3
102
}
330
9E3
100
AcDbXrecord
280
     1
102
RTVSPost2010Prop28
280
     0
102
RTVSPost2010PropOp28
 70
     1
102
RTVSPost2010Prop29
280
     1
102
RTVSPost2010PropOp29
 70
     1
102
RTVSPost2010Prop30
280
     1
102
RTVSPost2010PropOp30
 70
     1
102
RTVSPost2010Prop31
280
     0
102
RTVSPost2010PropOp31
 70
     1
102
RTVSPost2010Prop32
280
     0
102
RTVSPost2010PropOp32
 70
     1
102
RTVSPost2010Prop33
280
     0
102
RTVSPost2010PropOp33
 70
     1
102
RTVSPost2010Prop34
280
     0
102
RTVSPost2010PropOp34
 70
     1
102
RTVSPost2010Prop35
280
     0
102
RTVSPost2010PropOp35
 70
     1
102
RTVSPost2010Prop36
280
     0
102
RTVSPost2010PropOp36
 70
     1
102
RTVSPost2010Prop37
 90
       50
102
RTVSPost2010PropOp37
 70
     1
102
RTVSPost2010Prop38
140
0.0
102
RTVSPost2010PropOp38
 70
     1
102
RTVSPost2010Prop39
140
1.0
102
RTVSPost2010PropOp39
 70
     1
102
RTVSPost2010Prop40
 90
        0
102
RTVSPost2010PropOp40
 70
     1
102
RTVSPost2010Prop41ColorIndex
 90
       18
102
RTVSPost2010Prop41ColorRGB
 90
        0
102
RTVSPost2010PropOp41
 70
     1
102
RTVSPost2010Prop42
 90
       50
102
RTVSPost2010PropOp42
 70
     1
102
RTVSPost2010Prop43
 90
        3
102
RTVSPost2010PropOp43
 70
     1
102
RTVSPost2010Prop44ColorIndex
 90
        5
102
RTVSPost2010Prop44ColorRGB
 90
      255
102
RTVSPost2010PropOp44
 70
     1
102
RTVSPost2010Prop45
280
     0
102
RTVSPost2010PropOp45
 70
     1
102
RTVSPost2010Prop46
 90
       50
102
RTVSPost2010PropOp46
 70
     1
102
RTVSPost2010Prop47
 90
       50
102
RTVSPost2010PropOp47
 70
     1
102
RTVSPost2010Prop48
 90
       50
102
RTVSPost2010PropOp48
 70
     1
102
RTVSPost2010Prop49
280
     0
102
RTVSPost2010PropOp49
 70
     1
102
RTVSPost2010Prop50
 90
       50
102
RTVSPost2010PropOp50
 70
     1
102
RTVSPost2010Prop51ColorIndex
 90
      256
102
RTVSPost2010Prop51ColorRGB
 90
-16777216
102
RTVSPost2010PropOp51
 70
     0
102
RTVSPost2010Prop52
140
1.0
102
RTVSPost2010PropOp52
 70
     0
102
RTVSPost2010Prop53
 90
        2
102
RTVSPost2010PropOp53
 70
     1
102
RTVSPost2010Prop54
  1
strokes_ogs.tif
102
RTVSPost2010PropOp54
 70
     1
102
RTVSPost2010Prop55
280
     0
102
RTVSPost2010PropOp55
 70
     1
102
RTVSPost2010Prop56
140
1.0
102
RTVSPost2010PropOp56
 70
     1
102
RTVSPost2010Prop57
140
1.0
102
RTVSPost2010PropOp57
 70
     1
102
RTVSPropertyOp0
 70
     1
102
RTVSPropertyOp1
 70
     1
102
RTVSPropertyOp2
 70
     1
102
RTVSPropertyOp3
 70
     1
102
RTVSPropertyOp4
 70
     1
102
RTVSPropertyOp5
 70
     1
102
RTVSPropertyOp6
 70
     1
102
RTVSPropertyOp7
 70
     1
102
RTVSPropertyOp8
 70
     1
102
RTVSPropertyOp9
 70
     1
102
RTVSPropertyOp10
 70
     1
102
RTVSPropertyOp11
 70
     1
102
RTVSPropertyOp12
 70
     1
102
RTVSPropertyOp13
 70
     1
102
RTVSPropertyOp14
 70
     1
102
RTVSPropertyOp15
 70
     1
102
RTVSPropertyOp16
 70
     1
102
RTVSPropertyOp17
 70
     1
102
RTVSPropertyOp18
 70
     1
102
RTVSPropertyOp19
 70
     1
102
RTVSPropertyOp20
 70
     1
102
RTVSPropertyOp21
 70
     1
102
RTVSPropertyOp22
 70
     1
102
RTVSPropertyOp23
 70
     1
102
RTVSPropertyOp24
 70
     1
102
RTVSPropertyOp25
 70
     1
102
RTVSPropertyOp26
 70
     1
102
RTVSPropertyOp27
 70
     1
102
RTVSPropertyOp28
 70
     1
102
RTVSPropertyOp29
 70
     1
102
RTVSPropertyOp30
 70
     1
102
RTVSPropertyOp31
 70
     1
102
RTVSPropertyOp32
 70
     1
102
RTVSPropertyOp33
 70
     1
102
RTVSPropertyOp34
 70
     1
102
RTVSPropertyOp35
 70
     1
102
RTVSPropertyOp36
 70
     1
102
RTVSPropertyOp37
 70
     1
102
RTVSPropertyOp38
 70
     1
102
RTVSPropertyOp39
 70
     1
102
RTVSPropertyOp40
 70
     1
102
RTVSPropertyOp41
 70
     1
102
RTVSPropertyOp42
 70
     1
102
RTVSPropertyOp43
 70
     1
102
RTVSPropertyOp44
 70
     1
102
RTVSPropertyOp45
 70
     1
102
RTVSPropertyOp46
 70
     1
102
RTVSPropertyOp47
 70
     1
102
RTVSPropertyOp48
 70
     1
102
RTVSPropertyOp49
 70
     1
102
RTVSPropertyOp50
 70
     1
102
RTVSPropertyOp51
 70
     0
102
RTVSPropertyOp52
 70
     0
102
RTVSPropertyOp53
 70
     1
102
RTVSPropertyOp54
 70
     1
102
RTVSPropertyOp55
 70
     1
102
RTVSPropertyOp56
 70
     1
102
RTVSPropertyOp57
 70
     1
102
RTVSPropertyOp58
 70
     1
102
RTVSPropertyOp59
 70
     1
102
RTVSPropertyOp60
 70
     1
102
RTVSPropertyOp61
 70
     1
102
RTVSPropertyOp62
 70
     1
  0
XRECORD
  5
A02
102
{ACAD_REACTORS
330
A01
102
}
330
A01
100
AcDbXrecord
280
     1
102
RTVSPost2010Prop28
280
     0
102
RTVSPost2010PropOp28
 70
     1
102
RTVSPost2010Prop29
280
     1
102
RTVSPost2010PropOp29
 70
     1
102
RTVSPost2010Prop30
280
     1
102
RTVSPost2010PropOp30
 70
     1
102
RTVSPost2010Prop31
280
     0
102
RTVSPost2010PropOp31
 70
     1
102
RTVSPost2010Prop32
280
     0
102
RTVSPost2010PropOp32
 70
     1
102
RTVSPost2010Prop33
280
     0
102
RTVSPost2010PropOp33
 70
     1
102
RTVSPost2010Prop34
280
     0
102
RTVSPost2010PropOp34
 70
     1
102
RTVSPost2010Prop35
280
     0
102
RTVSPost2010PropOp35
 70
     1
102
RTVSPost2010Prop36
280
     0
102
RTVSPost2010PropOp36
 70
     1
102
RTVSPost2010Prop37
 90
       50
102
RTVSPost2010PropOp37
 70
     1
102
RTVSPost2010Prop38
140
0.0
102
RTVSPost2010PropOp38
 70
     1
102
RTVSPost2010Prop39
140
1.0
102
RTVSPost2010PropOp39
 70
     1
102
RTVSPost2010Prop40
 90
        0
102
RTVSPost2010PropOp40
 70
     1
102
RTVSPost2010Prop41ColorIndex
 90
       18
102
RTVSPost2010Prop41ColorRGB
 90
        0
102
RTVSPost2010PropOp41
 70
     1
102
RTVSPost2010Prop42
 90
       50
102
RTVSPost2010PropOp42
 70
     1
102
RTVSPost2010Prop43
 90
        3
102
RTVSPost2010PropOp43
 70
     1
102
RTVSPost2010Prop44ColorIndex
 90
        5
102
RTVSPost2010Prop44ColorRGB
 90
      255
102
RTVSPost2010PropOp44
 70
     1
102
RTVSPost2010Prop45
280
     0
102
RTVSPost2010PropOp45
 70
     1
102
RTVSPost2010Prop46
 90
       50
102
RTVSPost2010PropOp46
 70
     1
102
RTVSPost2010Prop47
 90
       50
102
RTVSPost2010PropOp47
 70
     1
102
RTVSPost2010Prop48
 90
       50
102
RTVSPost2010PropOp48
 70
     1
102
RTVSPost2010Prop49
280
     0
102
RTVSPost2010PropOp49
 70
     1
102
RTVSPost2010Prop50
 90
       50
102
RTVSPost2010PropOp50
 70
     1
102
RTVSPost2010Prop51ColorIndex
 90
      256
102
RTVSPost2010Prop51ColorRGB
 90
-16777216
102
RTVSPost2010PropOp51
 70
     0
102
RTVSPost2010Prop52
140
1.0
102
RTVSPost2010PropOp52
 70
     0
102
RTVSPost2010Prop53
 90
        2
102
RTVSPost2010PropOp53
 70
     1
102
RTVSPost2010Prop54
  1
strokes_ogs.tif
102
RTVSPost2010PropOp54
 70
     1
102
RTVSPost2010Prop55
280
     0
102
RTVSPost2010PropOp55
 70
     1
102
RTVSPost2010Prop56
140
1.0
102
RTVSPost2010PropOp56
 70
     1
102
RTVSPost2010Prop57
140
1.0
102
RTVSPost2010PropOp57
 70
     1
102
RTVSPropertyOp0
 70
     1
102
RTVSPropertyOp1
 70
     1
102
RTVSPropertyOp2
 70
     1
102
RTVSPropertyOp3
 70
     1
102
RTVSPropertyOp4
 70
     1
102
RTVSPropertyOp5
 70
     1
102
RTVSPropertyOp6
 70
     1
102
RTVSPropertyOp7
 70
     1
102
RTVSPropertyOp8
 70
     1
102
RTVSPropertyOp9
 70
     1
102
RTVSPropertyOp10
 70
     1
102
RTVSPropertyOp11
 70
     1
102
RTVSPropertyOp12
 70
     1
102
RTVSPropertyOp13
 70
     1
102
RTVSPropertyOp14
 70
     1
102
RTVSPropertyOp15
 70
     1
102
RTVSPropertyOp16
 70
     1
102
RTVSPropertyOp17
 70
     1
102
RTVSPropertyOp18
 70
     1
102
RTVSPropertyOp19
 70
     1
102
RTVSPropertyOp20
 70
     1
102
RTVSPropertyOp21
 70
     1
102
RTVSPropertyOp22
 70
     1
102
RTVSPropertyOp23
 70
     1
102
RTVSPropertyOp24
 70
     1
102
RTVSPropertyOp25
 70
     1
102
RTVSPropertyOp26
 70
     1
102
RTVSPropertyOp27
 70
     1
102
RTVSPropertyOp28
 70
     1
102
RTVSPropertyOp29
 70
     1
102
RTVSPropertyOp30
 70
     1
102
RTVSPropertyOp31
 70
     1
102
RTVSPropertyOp32
 70
     1
102
RTVSPropertyOp33
 70
     1
102
RTVSPropertyOp34
 70
     1
102
RTVSPropertyOp35
 70
     1
102
RTVSPropertyOp36
 70
     1
102
RTVSPropertyOp37
 70
     1
102
RTVSPropertyOp38
 70
     1
102
RTVSPropertyOp39
 70
     1
102
RTVSPropertyOp40
 70
     1
102
RTVSPropertyOp41
 70
     1
102
RTVSPropertyOp42
 70
     1
102
RTVSPropertyOp43
 70
     1
102
RTVSPropertyOp44
 70
     1
102
RTVSPropertyOp45
 70
     1
102
RTVSPropertyOp46
 70
     1
102
RTVSPropertyOp47
 70
     1
102
RTVSPropertyOp48
 70
     1
102
RTVSPropertyOp49
 70
     1
102
RTVSPropertyOp50
 70
     1
102
RTVSPropertyOp51
 70
     0
102
RTVSPropertyOp52
 70
     0
102
RTVSPropertyOp53
 70
     1
102
RTVSPropertyOp54
 70
     1
102
RTVSPropertyOp55
 70
     1
102
RTVSPropertyOp56
 70
     1
102
RTVSPropertyOp57
 70
     1
102
RTVSPropertyOp58
 70
     1
102
RTVSPropertyOp59
 70
     1
102
RTVSPropertyOp60
 70
     1
102
RTVSPropertyOp61
 70
     1
102
RTVSPropertyOp62
 70
     1
  0
ENDSEC
  0
EOF
