  0
SECTION
  2
HEADER
  9
$ACADVER
  1
AC1015
  9
$ACADMAINTVER
 70
    20
  9
$DWGCODEPAGE
  3
ANSI_1252
  9
$INSBASE
 10
0.0
 20
0.0
 30
0.0
  9
$EXTMIN
 10
2.382810732740899
 20
6.245041095616555
 30
0.0
  9
$EXTMAX
 10
6.491382161312327
 20
9.245808662080797
 30
0.0
  9
$LIMMIN
 10
0.0
 20
0.0
  9
$LIMMAX
 10
12.0
 20
9.0
  9
$ORTHOMODE
 70
     1
  9
$REGENMODE
 70
     1
  9
$FILLMODE
 70
     1
  9
$QTEXTMODE
 70
     0
  9
$MIRRTEXT
 70
     1
  9
$LTSCALE
 40
1.0
  9
$ATTMODE
 70
     1
  9
$TEXTSIZE
 40
0.04
  9
$TRACEWID
 40
0.05
  9
$TEXTSTYLE
  7
Standard
  9
$CLAYER
  8
DIMS
  9
$CELTYPE
  6
ByLayer
  9
$CECOLOR
 62
   256
  9
$CELTSCALE
 40
1.0
  9
$DISPSILH
 70
     0
  9
$DIMSCALE
 40
2.0
  9
$DIMASZ
 40
0.125
  9
$DIMEXO
 40
0.0625
  9
$DIMDLI
 40
0.38
  9
$DIMRND
 40
0.0
  9
$DIMDLE
 40
0.0
  9
$DIMEXE
 40
0.08
  9
$DIMTP
 40
0.0
  9
$DIMTM
 40
0.0
  9
$DIMTXT
 40
0.09
  9
$DIMCEN
 40
0.09
  9
$DIMTSZ
 40
0.0
  9
$DIMTOL
 70
     0
  9
$DIMLIM
 70
     0
  9
$DIMTIH
 70
     1
  9
$DIMTOH
 70
     1
  9
$DIMSE1
 70
     0
  9
$DIMSE2
 70
     0
  9
$DIMTAD
 70
     0
  9
$DIMZIN
 70
     4
  9
$DIMBLK
  1

  9
$DIMASO
 70
     1
  9
$DIMSHO
 70
     1
  9
$DIMPOST
  1

  9
$DIMAPOST
  1

  9
$DIMALT
 70
     0
  9
$DIMALTD
 70
     2
  9
$DIMALTF
 40
25.4
  9
$DIMLFAC
 40
1.0
  9
$DIMTOFL
 70
     0
  9
$DIMTVP
 40
0.0
  9
$DIMTIX
 70
     0
  9
$DIMSOXD
 70
     0
  9
$DIMSAH
 70
     0
  9
$DIMBLK1
  1

  9
$DIMBLK2
  1

  9
$DIMSTYLE
  2
3 Decimal Places
  9
$DIMCLRD
 70
   256
  9
$DIMCLRE
 70
   256
  9
$DIMCLRT
 70
   256
  9
$DIMTFAC
 40
1.0
  9
$DIMGAP
 40
0.09
  9
$DIMJUST
 70
     0
  9
$DIMSD1
 70
     0
  9
$DIMSD2
 70
     0
  9
$DIMTOLJ
 70
     1
  9
$DIMTZIN
 70
     4
  9
$DIMALTZ
 70
     4
  9
$DIMALTTZ
 70
     4
  9
$DIMUPT
 70
     1
  9
$DIMDEC
 70
     3
  9
$DIMTDEC
 70
     3
  9
$DIMALTU
 70
     2
  9
$DIMALTTD
 70
     2
  9
$DIMTXSTY
  7
ROMANS
  9
$DIMAUNIT
 70
     0
  9
$DIMADEC
 70
     0
  9
$DIMALTRND
 40
0.0
  9
$DIMAZIN
 70
     0
  9
$DIMDSEP
 70
    46
  9
$DIMATFIT
 70
     3
  9
$DIMFRAC
 70
     0
  9
$DIMLDRBLK
  1

  9
$DIMLUNIT
 70
     2
  9
$DIMLWD
 70
    -1
  9
$DIMLWE
 70
    -1
  9
$DIMTMOVE
 70
     0
  9
$LUNITS
 70
     2
  9
$LUPREC
 70
     4
  9
$SKETCHINC
 40
0.1
  9
$FILLETRAD
 40
0.5
  9
$AUNITS
 70
     0
  9
$AUPREC
 70
     0
  9
$MENU
  1
.
  9
$ELEVATION
 40
0.0
  9
$PELEVATION
 40
0.0
  9
$THICKNESS
 40
0.0
  9
$LIMCHECK
 70
     0
  9
$CHAMFERA
 40
0.0
  9
$CHAMFERB
 40
0.0
  9
$CHAMFERC
 40
1.0
  9
$CHAMFERD
 40
0.0
  9
$SKPOLY
 70
     0
  9
$TDCREATE
 40
2453485.819327072
  9
$TDUCREATE
 40
2453485.985993738
  9
$TDUPDATE
 40
2456905.558634364
  9
$TDUUPDATE
 40
2456905.725301030
  9
$TDINDWG
 40
0.8147654398
  9
$TDUSRTIMER
 40
0.8147649653
  9
$USRTIMER
 70
     1
  9
$ANGBASE
 50
0.0
  9
$ANGDIR
 70
     0
  9
$PDMODE
 70
     0
  9
$PDSIZE
 40
0.0
  9
$PLINEWID
 40
0.0
  9
$SPLFRAME
 70
     0
  9
$SPLINETYPE
 70
     6
  9
$SPLINESEGS
 70
     8
  9
$HANDSEED
  5
8332
  9
$SURFTAB1
 70
     6
  9
$SURFTAB2
 70
     6
  9
$SURFTYPE
 70
     6
  9
$SURFU
 70
     6
  9
$SURFV
 70
     6
  9
$UCSBASE
  2

  9
$UCSNAME
  2

  9
$UCSORG
 10
0.0
 20
0.0
 30
0.0
  9
$UCSXDIR
 10
1.0
 20
0.0
 30
0.0
  9
$UCSYDIR
 10
0.0
 20
1.0
 30
0.0
  9
$UCSORTHOREF
  2

  9
$UCSORTHOVIEW
 70
     0
  9
$UCSORGTOP
 10
0.0
 20
0.0
 30
0.0
  9
$UCSORGBOTTOM
 10
0.0
 20
0.0
 30
0.0
  9
$UCSORGLEFT
 10
0.0
 20
0.0
 30
0.0
  9
$UCSORGRIGHT
 10
0.0
 20
0.0
 30
0.0
  9
$UCSORGFRONT
 10
0.0
 20
0.0
 30
0.0
  9
$UCSORGBACK
 10
0.0
 20
0.0
 30
0.0
  9
$PUCSBASE
  2

  9
$PUCSNAME
  2

  9
$PUCSORG
 10
0.0
 20
0.0
 30
0.0
  9
$PUCSXDIR
 10
1.0
 20
0.0
 30
0.0
  9
$PUCSYDIR
 10
0.0
 20
1.0
 30
0.0
  9
$PUCSORTHOREF
  2

  9
$PUCSORTHOVIEW
 70
     0
  9
$PUCSORGTOP
 10
0.0
 20
0.0
 30
0.0
  9
$PUCSORGBOTTOM
 10
0.0
 20
0.0
 30
0.0
  9
$PUCSORGLEFT
 10
0.0
 20
0.0
 30
0.0
  9
$PUCSORGRIGHT
 10
0.0
 20
0.0
 30
0.0
  9
$PUCSORGFRONT
 10
0.0
 20
0.0
 30
0.0
  9
$PUCSORGBACK
 10
0.0
 20
0.0
 30
0.0
  9
$USERI1
 70
     0
  9
$USERI2
 70
     0
  9
$USERI3
 70
     0
  9
$USERI4
 70
     0
  9
$USERI5
 70
     0
  9
$USERR1
 40
0.0
  9
$USERR2
 40
0.0
  9
$USERR3
 40
0.0
  9
$USERR4
 40
0.0
  9
$USERR5
 40
0.0
  9
$WORLDVIEW
 70
     1
  9
$SHADEDGE
 70
     3
  9
$SHADEDIF
 70
    70
  9
$TILEMODE
 70
     1
  9
$MAXACTVP
 70
    64
  9
$PINSBASE
 10
0.0
 20
0.0
 30
0.0
  9
$PLIMCHECK
 70
     0
  9
$PEXTMIN
 10
1.049999952316283
 20
0.7999999523162842
 30
0.0
  9
$PEXTMAX
 10
9.449999570846555
 20
7.199999570846556
 30
0.0
  9
$PLIMMIN
 10
-0.2500002402958907
 20
-0.2499999962453767
  9
$PLIMMAX
 10
10.74999951940821
 20
8.249999763458731
  9
$UNITMODE
 70
     0
  9
$VISRETAIN
 70
     1
  9
$PLINEGEN
 70
     0
  9
$PSLTSCALE
 70
     1
  9
$TREEDEPTH
 70
  3020
  9
$CMLSTYLE
  2
Standard
  9
$CMLJUST
 70
     0
  9
$CMLSCALE
 40
1.0
  9
$PROXYGRAPHICS
 70
     1
  9
$MEASUREMENT
 70
     0
  9
$CELWEIGHT
370
    -1
  9
$ENDCAPS
280
     0
  9
$JOINSTYLE
280
     0
  9
$LWDISPLAY
290
     0
  9
$INSUNITS
 70
     1
  9
$HYPERLINKBASE
  1

  9
$STYLESHEET
  1
MONOCHROME.CTB
  9
$XEDIT
290
     1
  9
$CEPSNTYPE
380
     0
  9
$PSTYLEMODE
290
     1
  9
$FINGERPRINTGUID
  2
{FDEAD576-A652-11D2-9A35-0060089B3A3F}
  9
$VERSIONGUID
  2
{F013C433-6254-4D2E-8565-A177DD8205F5}
  9
$EXTNAMES
290
     1
  9
$PSVPSCALE
 40
0.0
  9
$OLESTARTUP
290
     0
  0
ENDSEC
  0
SECTION
  2
CLASSES
  0
CLASS
  1
ACDBDICTIONARYWDFLT
  2
AcDbDictionaryWithDefault
  3
ObjectDBX Classes
 90
        0
280
     0
281
     0
  0
CLASS
  1
ACDBPLACEHOLDER
  2
AcDbPlaceHolder
  3
ObjectDBX Classes
 90
        0
280
     0
281
     0
  0
CLASS
  1
LAYOUT
  2
AcDbLayout
  3
ObjectDBX Classes
 90
        0
280
     0
281
     0
  0
CLASS
  1
DICTIONARYVAR
  2
AcDbDictionaryVar
  3
ObjectDBX Classes
 90
        0
280
     0
281
     0
  0
CLASS
  1
DIMASSOC
  2
AcDbDimAssoc
  3
"AcDbDimAssoc|Product Desc:     AcDim ARX App For Dimension|Company:          Autodesk, Inc.|WEB Address:      www.autodesk.com"
 90
    32768
280
     0
281
     0
  0
CLASS
  1
SORTENTSTABLE
  2
AcDbSortentsTable
  3
ObjectDBX Classes
 90
        0
280
     0
281
     0
  0
CLASS
  1
TABLESTYLE
  2
AcDbTableStyle
  3
ObjectDBX Classes
 90
     4095
280
     0
281
     0
  0
CLASS
  1
MATERIAL
  2
AcDbMaterial
  3
ObjectDBX Classes
 90
     1153
280
     0
281
     0
  0
CLASS
  1
VISUALSTYLE
  2
AcDbVisualStyle
  3
ObjectDBX Classes
 90
     4095
280
     0
281
     0
  0
CLASS
  1
SCALE
  2
AcDbScale
  3
ObjectDBX Classes
 90
     1153
280
     0
281
     0
  0
CLASS
  1
MLEADERSTYLE
  2
AcDbMLeaderStyle
  3
ACDB_MLEADERSTYLE_CLASS
 90
     4095
280
     0
281
     0
  0
CLASS
  1
CELLSTYLEMAP
  2
AcDbCellStyleMap
  3
ObjectDBX Classes
 90
     1152
280
     0
281
     0
  0
CLASS
  1
ACME_DOCUMENT
  2
AcMeDbDoc
  3
AcMeServices
 90
     1024
280
     0
281
     0
  0
CLASS
  1
AMGSETTINGSOBJ
  2
AmgSettingsObj
  3
"AcadM|Product Description: AutoCAD Mechanical|Company: Autodesk, Inc."
 90
     1024
280
     0
281
     0
  0
CLASS
  1
ACMESCOPE
  2
AcMeScope
  3
AcMeServices
 90
     1024
280
     0
281
     0
  0
CLASS
  1
ACMECOMMANDHISTORY
  2
AcMeCommandHistory
  3
AcMeServices
 90
     1024
280
     0
281
     0
  0
CLASS
  1
ACIMSYSVARMAN
  2
AcImSysVarManager
  3
AcMeServices
 90
     1024
280
     0
281
     0
  0
CLASS
  1
ACIMINTSYSVAR
  2
AcImIntSysVar
  3
AcMeServices
 90
     1024
280
     0
281
     0
  0
CLASS
  1
ACMEDRAWINGMAN
  2
AcMeDrawingMan
  3
AcMeServices
 90
    33792
280
     0
281
     0
  0
CLASS
  1
ACMEVIEW
  2
AcMeView
  3
AcMeServices
 90
    33792
280
     0
281
     0
  0
CLASS
  1
ACDBENTITYCACHE
  2
AcMeEntityCache
  3
AcMeServices
 90
     1024
280
     0
281
     0
  0
CLASS
  1
GSMANAGER
  2
AcMeGSManager
  3
AcMeServices
 90
    33792
280
     0
281
     0
  0
CLASS
  1
AMDTINTERNALREACTOR
  2
AmdtInternalReactor
  3
AcMeServices
 90
    33792
280
     0
281
     0
  0
CLASS
  1
ACMESTATEMGR
  2
AcMeStateMgr
  3
AcMeServices
 90
     1024
280
     0
281
     0
  0
CLASS
  1
ACGREFMASTER
  2
AcGrefMaster
  3
AcAttribServices
 90
     1024
280
     0
281
     0
  0
CLASS
  1
AM_DRAWING_MGR
  2
AcDmDwgMgr
  3
AcMechDwgViewMgmt
 90
    33792
280
     0
281
     0
  0
CLASS
  1
AM_DWG_DOCUMENT
  2
AcDmDwgDocument
  3
AcMechDwgViewMgmt
 90
    33792
280
     0
281
     0
  0
CLASS
  1
AM_DWG_SHEET
  2
AcDmSheet
  3
AcMechDwgViewMgmt
 90
    33792
280
     0
281
     0
  0
CLASS
  1
AM_VIEWDIMPARMAP
  2
AcDmViewDimParMap
  3
AcMechDwgViewMgmt
 90
    33792
280
     0
281
     0
  0
CLASS
  1
ACIMREALSYSVAR
  2
AcImRealSysVar
  3
AcMeServices
 90
    33792
280
     0
281
     0
  0
CLASS
  1
AM_DWGMGR_NAME
  2
AcDmDwgMgrName
  3
AcMechDwgViewMgmt
 90
    33792
280
     0
281
     0
  0
CLASS
  1
ACME_DATABASE
  2
AcMeDbDatabase
  3
AcMeServices
 90
     1024
280
     0
281
     0
  0
CLASS
  1
ACRFINSADJUSTERMGR
  2
AcRfInsAdjusterMgr
  3
AcMeServices
 90
     1024
280
     0
281
     0
  0
CLASS
  1
ACGREFACADMASTER
  2
AcGrefacadMaster
  3
AcGrefServices
 90
     1024
280
     0
281
     0
  0
CLASS
  1
AMDTMENUSTATEMGR
  2
AmdtMenuStateMgr
  3
McadcomServices
 90
     1024
280
     0
281
     0
  0
CLASS
  1
AMDTMCOMMENUSTATE
  2
AmdtMcomMenuState
  3
McadcomServices
 90
     1024
280
     0
281
     0
  0
CLASS
  1
AMIMASTER
  2
AmiMaster
  3
AmiServices
 90
     1024
280
     0
281
     0
  0
CLASS
  1
MAPIAMMOUDLE
  2
MApiAmModule
  3
MApiAmServices
 90
     1024
280
     0
281
     0
  0
CLASS
  1
ACIMSTRSYSVAR
  2
AcImStrSysVar
  3
AcMeServices
 90
     1024
280
     0
281
     0
  0
CLASS
  1
AMDTADMENUSTATE
  2
AmdtAdMenuState
  3
DesignerServices
 90
    33792
280
     0
281
     0
  0
CLASS
  1
ADAPPL
  2
AcAdAppl
  3
DesignerAssemblies
 90
    33792
280
     0
281
     0
  0
CLASS
  1
DEPMGR
  2
AcAdDepMgr
  3
DesignerAssemblies
 90
    33792
280
     0
281
     0
  0
CLASS
  1
PARAMMGR
  2
AcAdParamMgr
  3
DesignerAssemblies
 90
    33792
280
     0
281
     0
  0
CLASS
  1
PARAMSCOPE
  2
AcAdParamScope
  3
DesignerAssemblies
 90
    33792
280
     0
281
     0
  0
CLASS
  1
NAMEDAPPL
  2
AcAdNamedAppl
  3
DesignerAssemblies
 90
    33792
280
     0
281
     0
  0
CLASS
  1
AMDTDMMENUSTATE
  2
AmdtDmMenuState
  3
AcMechDwgViewMgmt
 90
    33792
280
     0
281
     0
  0
CLASS
  1
AMDTAMMENUSTATE
  2
AmdtAmMenuState
  3
DesignerAssemblies
 90
     1024
280
     0
281
     0
  0
CLASS
  1
ACAMPROJECT
  2
AcAmProject
  3
DesignerAssemblies
 90
     1024
280
     0
281
     0
  0
CLASS
  1
ACAMGRCOMPDEF
  2
AcAmGrCompDef
  3
DesignerAssemblies
 90
     1024
280
     0
281
     0
  0
CLASS
  1
ACCMCONTEXT
  2
AcCmContext
  3
DesignerAssemblies
 90
    33792
280
     0
281
     0
  0
CLASS
  1
ACAMCOMPDEF
  2
AcAmCompDef
  3
DesignerAssemblies
 90
     1024
280
     0
281
     0
  0
CLASS
  1
ACAMCOMPDEFMGR
  2
AcAmCompDefMgr
  3
DesignerAssemblies
 90
     1024
280
     0
281
     0
  0
CLASS
  1
AMCONTEXTMGR
  2
AcAmContextMgr
  3
DesignerAssemblies
 90
     1024
280
     0
281
     0
  0
CLASS
  1
ACAMCONTEXTMODELER
  2
AcAmContextModeler
  3
DesignerAssemblies
 90
     1024
280
     0
281
     0
  0
CLASS
  1
ACMDATADICTIONARY
  2
AcmDataDictionary
  3
"AcmSymBB|Product Description: AutoCAD Mechanical|Company: Autodesk, Inc."
 90
     1024
280
     0
281
     0
  0
CLASS
  1
CATALOGSTATE
  2
AcAmCatalogState
  3
DesignerAssemblies
 90
    33792
280
     0
281
     0
  0
CLASS
  1
ACAMGRCOMPDEFSET
  2
AcAmGrCompDefSet
  3
DesignerAssemblies
 90
     1024
280
     0
281
     0
  0
CLASS
  1
AMDTBROWSERDBTAB
  2
AmdtBrowserDbTab
  3
McadcomServices
 90
     1024
280
     0
281
     0
  0
CLASS
  1
CBROWSERAPPOBJECT
  2
CBrowserAppObject
  3
McadcomServices
 90
     1024
280
     0
281
     0
  0
CLASS
  1
DM_PLACEHOLDER
  2
AcDmSelsetPlaceholder
  3
McadcomServices
 90
     1024
280
     0
281
     0
  0
CLASS
  1
ACMSTANDARDANSI
  2
AcmStandardANSI
  3
"Amdt_StdImp|Product Description: AutoCAD Mechanical|Company: Autodesk, Inc."
 90
     1024
280
     0
281
     0
  0
CLASS
  1
ACMSURFSTANDARDANSI
  2
AcmSurfTextStdANSI
  3
"Amdt_StdImp|Product Description: AutoCAD Mechanical|Company: Autodesk, Inc."
 90
     1024
280
     0
281
     0
  0
CLASS
  1
ACMFCFSTANDARDANSI
  2
AcmFCFStdANSI
  3
"Amdt_StdImp|Product Description: AutoCAD Mechanical|Company: Autodesk, Inc."
 90
     1024
280
     0
281
     0
  0
CLASS
  1
ACMWELDSTANDARDANSI
  2
AcmWeldingStdANSI
  3
"Amdt_StdImp|Product Description: AutoCAD Mechanical|Company: Autodesk, Inc."
 90
     1024
280
     0
281
     0
  0
CLASS
  1
ACMIDSTANDARDANSI
  2
AcmIdStdANSI
  3
"Amdt_StdImp|Product Description: AutoCAD Mechanical|Company: Autodesk, Inc."
 90
     1024
280
     0
281
     0
  0
CLASS
  1
ACMDATUMSTANDARDANSI
  2
AcmDatumStdANSI
  3
"Amdt_StdImp|Product Description: AutoCAD Mechanical|Company: Autodesk, Inc."
 90
     1024
280
     0
281
     0
  0
CLASS
  1
ACMBOMSTANDARDANSI
  2
AcmBOMStdANSI
  3
"Amdt_StdImp|Product Description: AutoCAD Mechanical|Company: Autodesk, Inc."
 90
     1024
280
     0
281
     0
  0
CLASS
  1
ACMDETAILSTANDARDANSI
  2
AmdtDetailSymStdANSI
  3
"Amdt_StdImp|Product Description: AutoCAD Mechanical|Company: Autodesk, Inc."
 90
     1024
280
     0
281
     0
  0
CLASS
  1
ACMSECTIONSTANDARDANSI
  2
AmdtSectionSymStdANSI
  3
"Amdt_StdImp|Product Description: AutoCAD Mechanical|Company: Autodesk, Inc."
 90
     1024
280
     0
281
     0
  0
CLASS
  1
ACMCENTERLINESTANDARDANSI
  2
AmdtCenterLineStdANSI
  3
"Amdt_StdImp|Product Description: AutoCAD Mechanical|Company: Autodesk, Inc."
 90
     1024
280
     0
281
     0
  0
CLASS
  1
ACMTHREADLINESTANDARDANSI
  2
AmdtThreadLineStdANSI
  3
"Amdt_StdImp|Product Description: AutoCAD Mechanical|Company: Autodesk, Inc."
 90
     1024
280
     0
281
     0
  0
CLASS
  1
ACMNOTESTANDARDANSI
  2
AmdtNoteStdANSI
  3
"Amdt_StdImp|Product Description: AutoCAD Mechanical|Company: Autodesk, Inc."
 90
     1024
280
     0
281
     0
  0
CLASS
  1
ACMTAPERSTANDARDANSI
  2
AcmTaperStdANSI
  3
"Amdt_StdImp|Product Description: AutoCAD Mechanical|Company: Autodesk, Inc."
 90
     1024
280
     0
281
     0
  0
CLASS
  1
ACMANOOTATIONVIEWSTANDARDANSI
  2
AmdtAnViewStdANSI
  3
"Amdt_StdImp|Product Description: AutoCAD Mechanical|Company: Autodesk, Inc."
 90
     1024
280
     0
281
     0
  0
CLASS
  1
ACAMGLAYSTD
  2
AcAmgLayStd
  3
"AmgLay|Product Description: AutoCAD Mechanical|Company: Autodesk, Inc."
 90
     1024
280
     0
281
     0
  0
CLASS
  1
ACAMGDIMSTD
  2
AcAmgDimStd
  3
"AmgDim|Product Description: AutoCAD Mechanical|Company: Autodesk, Inc."
 90
     1024
280
     0
281
     0
  0
CLASS
  1
AMGOBJPROPCFG
  2
AmgObjPropCfg
  3
"AmgLay|Product Description: AutoCAD Mechanical|Company: Autodesk, Inc."
 90
     1024
280
     0
281
     0
  0
CLASS
  1
ACAMGHOLECHARTSTDANSI
  2
AcAmgHoleChartStdANSI
  3
AmgDim|Product Description: AutoCAD Mechanical|Company: Autodesk, Inc.
 90
     1024
280
     0
281
     0
  0
CLASS
  1
ACAMGTITLESTD
  2
AcAmgTitleStd
  3
"AmgTitle|Product Description: AutoCAD Mechanical|Company: Autodesk, Inc."
 90
     1024
280
     0
281
     0
  0
CLASS
  1
AMDTNOTETEMPLATEDB
  2
AmdtNoteTemplateDB
  3
AcmSymBB|Product Description: AutoCAD Mechanical|Company: Autodesk, Inc.
 90
     1024
280
     0
281
     0
  0
CLASS
  1
ACAMGFILTERDAT
  2
AcAmgFilterDat
  3
"AcadM|Product Description: AutoCAD Mechanical|Company: Autodesk, Inc."
 90
    33792
280
     0
281
     0
  0
CLASS
  1
EXACXREFPANELOBJECT
  2
ExAcXREFPanelObject
  3
EXAC_ESW
 90
    33793
280
     0
281
     0
  0
CLASS
  1
NPOCOLLECTION
  2
AcDbImpNonPersistentObjectsCollection
  3
ObjectDBX Classes
 90
    33921
280
     0
281
     0
  0
CLASS
  1
ACDBSECTIONVIEWSTYLE
  2
AcDbSectionViewStyle
  3
ObjectDBX Classes
 90
     1025
280
     0
281
     0
  0
CLASS
  1
ACDBDETAILVIEWSTYLE
  2
AcDbDetailViewStyle
  3
ObjectDBX Classes
 90
     1025
280
     0
281
     0
  0
ENDSEC
  0
SECTION
  2
TABLES
  0
TABLE
  2
VPORT
  5
8
102
{ACAD_XDICTIONARY
360
528A
102
}
330
0
100
AcDbSymbolTable
 70
     1
  0
VPORT
  5
51D9
330
8
100
AcDbSymbolTableRecord
100
AcDbViewportTableRecord
  2
*Active
 70
     0
 10
0.0
 20
0.0
 11
1.0
 21
1.0
 12
4.568954692766041
 22
7.274126052928759
 13
0.0
 23
0.0
 14
0.01
 24
0.01
 15
0.5
 25
0.5
 16
0.0
 26
0.0
 36
1.0
 17
0.0
 27
0.0
 37
0.0
 40
2.544658468246172
 41
2.035582822085889
 42
50.0
 43
0.0
 44
0.0
 50
0.0
 51
0.0
 71
     0
 72
   100
 73
     1
 74
     3
 75
     0
 76
     0
 77
     0
 78
     2
281
     0
 65
     0
110
0.0
120
0.0
130
0.0
111
1.0
121
0.0
131
0.0
112
0.0
122
1.0
132
0.0
 79
     0
146
0.0
1001
ACAD_NAV_VCDISPLAY
1070
     3
  0
ENDTAB
  0
TABLE
  2
LTYPE
  5
5
330
0
100
AcDbSymbolTable
 70
    16
  0
LTYPE
  5
14
330
5
100
AcDbSymbolTableRecord
100
AcDbLinetypeTableRecord
  2
ByBlock
 70
     0
  3

 72
    65
 73
     0
 40
0.0
  0
LTYPE
  5
15
330
5
100
AcDbSymbolTableRecord
100
AcDbLinetypeTableRecord
  2
ByLayer
 70
     0
  3

 72
    65
 73
     0
 40
0.0
  0
LTYPE
  5
16
330
5
100
AcDbSymbolTableRecord
100
AcDbLinetypeTableRecord
  2
Continuous
 70
     0
  3
Solid line
 72
    65
 73
     0
 40
0.0
  0
LTYPE
  5
52E6
330
5
100
AcDbSymbolTableRecord
100
AcDbLinetypeTableRecord
  2
HIDDEN
 70
     0
  3
Hidden __ __ __ __ __ __ __ __ __ __ __ __ __ _
 72
    65
 73
     2
 40
0.375
 49
0.25
 74
     0
 49
-0.125
 74
     0
  0
LTYPE
  5
52E7
330
5
100
AcDbSymbolTableRecord
100
AcDbLinetypeTableRecord
  2
PHANTOM2
 70
     0
  3
Phantom (.5x) ___ _ _ ___ _ _ ___ _ _ ___ _ _
 72
    65
 73
     6
 40
1.25
 49
0.625
 74
     0
 49
-0.125
 74
     0
 49
0.125
 74
     0
 49
-0.125
 74
     0
 49
0.125
 74
     0
 49
-0.125
 74
     0
  0
LTYPE
  5
52E8
330
5
100
AcDbSymbolTableRecord
100
AcDbLinetypeTableRecord
  2
CENTER
 70
     0
  3
Center ____ _ ____ _ ____ _ ____ _ ____ _ ____
 72
    65
 73
     4
 40
2.0
 49
1.25
 74
     0
 49
-0.25
 74
     0
 49
0.25
 74
     0
 49
-0.25
 74
     0
  0
LTYPE
  5
5330
330
5
100
AcDbSymbolTableRecord
100
AcDbLinetypeTableRecord
  2
Amconstr
 70
     0
  3
_______________________
 72
    65
 73
     2
 40
9999.0
 49
9999.0
 74
     0
 49
0.0
 74
     0
  0
LTYPE
  5
5977
330
5
100
AcDbSymbolTableRecord
100
AcDbLinetypeTableRecord
  2
CENTER2
 70
     0
  3
Center (.5x) ___ _ ___ _ ___ _ ___ _ ___ _ ___
 72
    65
 73
     4
 40
1.125
 49
0.75
 74
     0
 49
-0.125
 74
     0
 49
0.125
 74
     0
 49
-0.125
 74
     0
  0
LTYPE
  5
5978
330
5
100
AcDbSymbolTableRecord
100
AcDbLinetypeTableRecord
  2
HIDDEN2
 70
     0
  3
Hidden (.5x) _ _ _ _ _ _ _ _ _ _ _ _ _ _ _ _ _
 72
    65
 73
     2
 40
0.1875
 49
0.125
 74
     0
 49
-0.0625
 74
     0
  0
LTYPE
  5
5979
330
5
100
AcDbSymbolTableRecord
100
AcDbLinetypeTableRecord
  2
Amzigzag2
 70
     0
  3
/\/-/\/-/\/-/\/-/\/-/\/
 72
    65
 73
     2
 40
0.4401
 49
0.0001
 74
     4
 75
   136
340
5334
 46
0.0016
 50
0.0
 44
0.0
 45
0.0
 49
-0.4400000000000003
 74
     0
  0
LTYPE
  5
5987
330
5
100
AcDbSymbolTableRecord
100
AcDbLinetypeTableRecord
  2
ACANSTGB
 70
     0
  3
__ . . __ . .
 72
    65
 73
     6
 40
0.35433070866
 49
0.15748031496
 74
     0
 49
-0.03937007874
 74
     0
 49
0.03937007874
 74
     0
 49
-0.03937007874
 74
     0
 49
0.03937007874
 74
     0
 49
-0.03937007874
 74
     0
  0
LTYPE
  5
5988
330
5
100
AcDbSymbolTableRecord
100
AcDbLinetypeTableRecord
  2
ACANSTGL
 70
     0
  3
_ _ _ _ _
 72
    65
 73
     2
 40
0.11811023622
 49
0.07874015748
 74
     0
 49
-0.03937007874
 74
     0
  0
LTYPE
  5
7FBD
330
5
100
AcDbSymbolTableRecord
100
AcDbLinetypeTableRecord
  2
AM_ISO02W050
 70
     0
  3
__ __ __ __ __ __ __ __ __ __ __ __ __ __ __
 72
    65
 73
     2
 40
7.5
 49
6.0
 74
     0
 49
-1.5
 74
     0
  0
LTYPE
  5
7FBE
330
5
100
AcDbSymbolTableRecord
100
AcDbLinetypeTableRecord
  2
AM_ISO08W050
 70
     0
  3
____ . ____ . ____ . ____ . ____ . ____ . ____
 72
    65
 73
     4
 40
18.0
 49
12.0
 74
     0
 49
-1.5
 74
     0
 49
3.0
 74
     0
 49
-1.5
 74
     0
  0
LTYPE
  5
7FBF
330
5
100
AcDbSymbolTableRecord
100
AcDbLinetypeTableRecord
  2
AM_ISO09W050
 70
     0
  3
_____ . . _____ . . _____ . . ____ .. ____
 72
    65
 73
     6
 40
22.5
 49
12.0
 74
     0
 49
-1.5
 74
     0
 49
3.0
 74
     0
 49
-1.5
 74
     0
 49
3.0
 74
     0
 49
-1.5
 74
     0
  0
LTYPE
  5
7FC0
330
5
100
AcDbSymbolTableRecord
100
AcDbLinetypeTableRecord
  2
AM_ISO08W050x2
 70
     0
  3
__ . __ . __ . __ . __ . __
 72
    65
 73
     4
 40
9.0
 49
6.0
 74
     0
 49
-0.75
 74
     0
 49
1.5
 74
     0
 49
-0.75
 74
     0
  0
LTYPE
  5
7FC1
330
5
100
AcDbSymbolTableRecord
100
AcDbLinetypeTableRecord
  2
AM_ISO02W050x2
 70
     0
  3
 _ _ _ _ _ _ _ _ _ _ _ _
 72
    65
 73
     2
 40
3.75
 49
3.0
 74
     0
 49
-0.75
 74
     0
  0
LTYPE
  5
7FC2
330
5
100
AcDbSymbolTableRecord
100
AcDbLinetypeTableRecord
  2
Amzigzag
 70
     0
  3
/\/-/\/-/\/-/\/-/\/-/\/
 72
    65
 73
     2
 40
11.0001
 49
0.0001
 74
     4
 75
   136
340
5334
 46
0.04
 50
0.0
 44
0.0
 45
0.0
 49
-11.0
 74
     0
  0
ENDTAB
  0
TABLE
  2
LAYER
  5
2
102
{ACAD_XDICTIONARY
360
18CC
102
}
330
0
100
AcDbSymbolTable
 70
    13
  0
LAYER
  5
10
102
{ACAD_XDICTIONARY
360
522E
102
}
330
2
100
AcDbSymbolTableRecord
100
AcDbLayerTableRecord
  2
0
 70
     0
 62
     7
  6
Continuous
370
    -3
390
F
1001
RAK
1000
{ACET-LAYISO
1070
     0
1070
     7
1000
Continuous
1071
       -3
1071
        1
1005
F
1000
ACET-LAYISO}
  0
LAYER
  5
A1
102
{ACAD_XDICTIONARY
360
5230
102
}
330
2
100
AcDbSymbolTableRecord
100
AcDbLayerTableRecord
  2
Border
 70
     0
 62
     5
  6
Continuous
370
    -3
390
F
1001
RAK
1000
{ACET-LAYISO
1070
     0
1070
     5
1000
Continuous
1071
       -3
1071
        1
1005
F
1000
ACET-LAYISO}
  0
LAYER
  5
A3
102
{ACAD_XDICTIONARY
360
5232
102
}
330
2
100
AcDbSymbolTableRecord
100
AcDbLayerTableRecord
  2
Text
 70
     0
 62
     3
  6
Continuous
370
    -3
390
F
1001
RAK
1000
{ACET-LAYISO
1070
     0
1070
     3
1000
Continuous
1071
       -3
1071
        1
1005
F
1000
ACET-LAYISO}
  0
LAYER
  5
FD
330
2
100
AcDbSymbolTableRecord
100
AcDbLayerTableRecord
  2
DEFPOINTS
 70
     0
 62
     7
  6
Continuous
290
     0
370
    -3
390
F
1001
RAK
1000
{ACET-LAYISO
1070
     0
1070
     7
1000
Continuous
1071
       -3
1071
        0
1005
F
1000
ACET-LAYISO}
  0
LAYER
  5
B20
102
{ACAD_XDICTIONARY
360
5234
102
}
330
2
100
AcDbSymbolTableRecord
100
AcDbLayerTableRecord
  2
PCB_TOP
 70
     0
 62
     5
  6
Continuous
370
    -3
390
F
1001
RAK
1000
{ACET-LAYISO
1070
     0
1070
     5
1000
Continuous
1070
     1
1071
       -3
1071
        1
1005
F
1000
ACET-LAYISO}
  0
LAYER
  5
B21
102
{ACAD_XDICTIONARY
360
5236
102
}
330
2
100
AcDbSymbolTableRecord
100
AcDbLayerTableRecord
  2
PCB_BOT
 70
     0
 62
     1
  6
Continuous
370
    -3
390
F
1001
RAK
1000
{ACET-LAYISO
1070
     0
1070
     1
1000
Continuous
1071
       -3
1071
        1
1005
F
1000
ACET-LAYISO}
  0
LAYER
  5
B8C
102
{ACAD_XDICTIONARY
360
5238
102
}
330
2
100
AcDbSymbolTableRecord
100
AcDbLayerTableRecord
  2
PCB_OUTLINE
 70
     0
 62
   142
  6
Continuous
370
    -3
390
F
1001
RAK
1000
{ACET-LAYISO
1070
     0
1070
   142
1000
Continuous
1071
       -3
1071
        1
1005
F
1000
ACET-LAYISO}
  0
LAYER
  5
CDE
102
{ACAD_XDICTIONARY
360
523A
102
}
330
2
100
AcDbSymbolTableRecord
100
AcDbLayerTableRecord
  2
REF
 70
     0
 62
     7
  6
Continuous
370
    -3
390
F
1001
RAK
1000
{ACET-LAYISO
1070
     0
1070
     7
1000
Continuous
1071
       -3
1071
        1
1005
F
1000
ACET-LAYISO}
  0
LAYER
  5
DC4
102
{ACAD_XDICTIONARY
360
523C
102
}
330
2
100
AcDbSymbolTableRecord
100
AcDbLayerTableRecord
  2
Layer1
 70
     0
 62
     1
  6
Continuous
370
    -3
390
F
1001
AcAecLayerStandard
1000

1000

1001
RAK
1000
{ACET-LAYISO
1070
     0
1070
     1
1000
Continuous
1071
       -3
1071
        1
1005
F
1000
ACET-LAYISO}
  0
LAYER
  5
DC5
102
{ACAD_XDICTIONARY
360
523E
102
}
330
2
100
AcDbSymbolTableRecord
100
AcDbLayerTableRecord
  2
DIMS
 70
     0
 62
    82
  6
Continuous
370
    -3
390
F
1001
RAK
1000
{ACET-LAYISO
1070
     0
1070
    82
1000
Continuous
1071
       -3
1071
        1
1005
F
1000
ACET-LAYISO}
  0
LAYER
  5
81A8
102
{ACAD_XDICTIONARY
360
81A9
102
}
330
2
100
AcDbSymbolTableRecord
100
AcDbLayerTableRecord
  2
Dimensions
 70
     0
 62
    -4
  6
Continuous
370
    -3
390
F
1001
RAK
1000
{ACET-LAYISO
1070
     0
1070
     4
1000
Continuous
1070
     1
1071
       -3
1071
        1
1005
F
1000
ACET-LAYISO}
  0
LAYER
  5
81AA
330
2
100
AcDbSymbolTableRecord
100
AcDbLayerTableRecord
  2
Part
 70
     0
 62
     1
  6
Continuous
370
    -3
390
F
1001
AcAecLayerStandard
1000

1000

  0
LAYER
  5
81AB
102
{ACAD_XDICTIONARY
360
81AC
102
}
330
2
100
AcDbSymbolTableRecord
100
AcDbLayerTableRecord
  2
INS1_TOP
 70
     0
 62
     1
  6
Continuous
370
    -3
390
F
1001
RAK
1000
{ACET-LAYISO
1070
     0
1070
     1
1000
Continuous
1071
       -3
1071
        1
1005
F
1000
ACET-LAYISO}
  0
ENDTAB
  0
TABLE
  2
STYLE
  5
3
330
0
100
AcDbSymbolTable
 70
     7
  0
STYLE
  5
11
330
3
100
AcDbSymbolTableRecord
100
AcDbTextStyleTableRecord
  2
Standard
 70
     0
 40
0.0
 41
1.0
 50
0.0
 71
     0
 42
0.04
  3
txt
  4

  0
STYLE
  5
A8
330
3
100
AcDbSymbolTableRecord
100
AcDbTextStyleTableRecord
  2
ROMANS
 70
     0
 40
0.0
 41
1.0
 50
0.0
 71
     0
 42
0.1
  3
C:\ACADWIN\FONTS\AU100S00.SHX
  4

  0
STYLE
  5
AA
330
3
100
AcDbSymbolTableRecord
100
AcDbTextStyleTableRecord
  2
ARIAL
 70
     0
 40
0.0
 41
1.0
 50
0.0
 71
     0
 42
0.2452744685283672
  3
ARIAL.TTF
  4

1001
ACAD
1000
Arial
1071
       34
  0
STYLE
  5
5334
330
3
100
AcDbSymbolTableRecord
100
AcDbTextStyleTableRecord
  2

 70
     1
 40
0.0
 41
1.0
 50
0.0
 71
     0
 42
0.04
  3
genltshp.shx
  4

  0
STYLE
  5
5986
330
3
100
AcDbSymbolTableRecord
100
AcDbTextStyleTableRecord
  2
ACANSGDT
 70
     0
 40
0.0
 41
1.0
 50
0.0
 71
     0
 42
0.04
  3
amgdt.shx
  4

  0
STYLE
  5
7FC4
330
3
100
AcDbSymbolTableRecord
100
AcDbTextStyleTableRecord
  2
ACANSTS
 70
     0
 40
1.0
 41
1.0
 50
0.0
 71
     0
 42
0.04
  3
romans.shx
  4

  0
STYLE
  5
81AD
330
3
100
AcDbSymbolTableRecord
100
AcDbTextStyleTableRecord
  2
Logo
 70
     0
 40
0.0
 41
1.0
 50
0.0
 71
     0
 42
0.0265519430585002
  3
framdit.ttf
  4

1001
ACAD
1000
Franklin Gothic Medium
1071
 16777250
  0
ENDTAB
  0
TABLE
  2
VIEW
  5
6
330
0
100
AcDbSymbolTable
 70
     0
  0
ENDTAB
  0
TABLE
  2
UCS
  5
7
330
0
100
AcDbSymbolTable
 70
     0
  0
ENDTAB
  0
TABLE
  2
APPID
  5
9
330
0
100
AcDbSymbolTable
 70
    26
  0
APPID
  5
12
330
9
100
AcDbSymbolTableRecord
100
AcDbRegAppTableRecord
  2
ACAD
 70
     0
  0
APPID
  5
AC
330
9
100
AcDbSymbolTableRecord
100
AcDbRegAppTableRecord
  2
RAK
 70
     0
  0
APPID
  5
840
330
9
100
AcDbSymbolTableRecord
100
AcDbRegAppTableRecord
  2
AcAecLayerStandard
 70
     0
  0
APPID
  5
DC6
330
9
100
AcDbSymbolTableRecord
100
AcDbRegAppTableRecord
  2
ACAD_PSEXT
 70
     0
  0
APPID
  5
5228
330
9
100
AcDbSymbolTableRecord
100
AcDbRegAppTableRecord
  2
ACAD_MLEADERVER
 70
     0
  0
APPID
  5
52B7
330
9
100
AcDbSymbolTableRecord
100
AcDbRegAppTableRecord
  2
MCAD_NO_VIS
 70
     0
  0
APPID
  5
52B8
330
9
100
AcDbSymbolTableRecord
100
AcDbRegAppTableRecord
  2
ACAD_TEMP_GRAPHIC
 70
     0
  0
APPID
  5
52EA
330
9
100
AcDbSymbolTableRecord
100
AcDbRegAppTableRecord
  2
AD_DRAW
 70
     0
  0
APPID
  5
52ED
330
9
100
AcDbSymbolTableRecord
100
AcDbRegAppTableRecord
  2
ACATTRIBSERVICES
 70
     0
  0
APPID
  5
530E
330
9
100
AcDbSymbolTableRecord
100
AcDbRegAppTableRecord
  2
DESIGNERASSEMBLIES
 70
     0
  0
APPID
  5
5314
330
9
100
AcDbSymbolTableRecord
100
AcDbRegAppTableRecord
  2
ACADM_DIM_EDIT
 70
     0
  0
APPID
  5
5315
330
9
100
AcDbSymbolTableRecord
100
AcDbRegAppTableRecord
  2
AMDT_DM_ADJ
 70
     0
  0
APPID
  5
534E
330
9
100
AcDbSymbolTableRecord
100
AcDbRegAppTableRecord
  2
GENIUS_GENSCREG_15
 70
     0
  0
APPID
  5
534F
330
9
100
AcDbSymbolTableRecord
100
AcDbRegAppTableRecord
  2
GENIUS_GENOBJ-N-SDF_13
 70
     0
  0
APPID
  5
5350
330
9
100
AcDbSymbolTableRecord
100
AcDbRegAppTableRecord
  2
GENIUS_GENODEF_13
 70
     0
  0
APPID
  5
535F
330
9
100
AcDbSymbolTableRecord
100
AcDbRegAppTableRecord
  2
ACAD_DSTYLE_DIMJAG
 70
     0
  0
APPID
  5
5360
330
9
100
AcDbSymbolTableRecord
100
AcDbRegAppTableRecord
  2
ACAD_DSTYLE_DIMTALN
 70
     0
  0
APPID
  5
5361
330
9
100
AcDbSymbolTableRecord
100
AcDbRegAppTableRecord
  2
ACAD_DSTYLE_DIMBREAK
 70
     0
  0
APPID
  5
5558
330
9
100
AcDbSymbolTableRecord
100
AcDbRegAppTableRecord
  2
ACAD_DSTYLE_DIMARC_LENGTH_SYMBOL
 70
     0
  0
APPID
  5
5559
330
9
100
AcDbSymbolTableRecord
100
AcDbRegAppTableRecord
  2
ACAD_DSTYLE_DIM_LINETYPE
 70
     0
  0
APPID
  5
555A
330
9
100
AcDbSymbolTableRecord
100
AcDbRegAppTableRecord
  2
ACAD_DSTYLE_DIM_EXT1_LINETYPE
 70
     0
  0
APPID
  5
555B
330
9
100
AcDbSymbolTableRecord
100
AcDbRegAppTableRecord
  2
ACAD_DSTYLE_DIM_EXT2_LINETYPE
 70
     0
  0
APPID
  5
55C3
330
9
100
AcDbSymbolTableRecord
100
AcDbRegAppTableRecord
  2
ACAD_EXEMPT_FROM_CAD_STANDARDS
 70
     0
  0
APPID
  5
602C
330
9
100
AcDbSymbolTableRecord
100
AcDbRegAppTableRecord
  2
ACLAYERTOOLS
 70
     0
  0
APPID
  5
6199
330
9
100
AcDbSymbolTableRecord
100
AcDbRegAppTableRecord
  2
ACAD_DSTYLE_DIMJOGGED_JOGANGLE_SYMBOL
 70
     0
  0
APPID
  5
80B8
330
9
100
AcDbSymbolTableRecord
100
AcDbRegAppTableRecord
  2
ACAD_NAV_VCDISPLAY
 70
     0
  0
ENDTAB
  0
TABLE
  2
DIMSTYLE
  5
A
330
0
100
AcDbSymbolTable
 70
    10
100
AcDbDimStyleTable
 71
     1
340
8A2
  0
DIMSTYLE
105
8A2
330
A
100
AcDbSymbolTableRecord
100
AcDbDimStyleTableRecord
  2
3 Decimal Places
 70
     0
 40
2.0
 41
0.125
 44
0.08
 78
     4
140
0.09
176
   256
177
   256
178
   256
271
     3
272
     3
284
     4
285
     4
286
     4
340
A8
371
    -1
372
    -1
  0
DIMSTYLE
105
5975
102
{ACAD_REACTORS
330
82CA
102
}
330
A
100
AcDbSymbolTableRecord
100
AcDbDimStyleTableRecord
  2
AM_ANSI
 70
     0
  4
mm
 41
0.12
 42
0.05
 43
0.5
 44
0.1
 47
0.1
 48
0.1
 78
     7
 79
     2
140
0.12
141
0.0
146
0.71
147
0.06
176
   256
177
   256
178
     2
274
     4
284
     7
340
11
371
    -1
372
    -1
1001
ACAD_DSTYLE_DIMARC_LENGTH_SYMBOL
1070
   379
1070
     1
1001
ACAD_DSTYLE_DIM_LINETYPE
1070
   380
1005
14
1001
ACAD_DSTYLE_DIM_EXT1_LINETYPE
1070
   381
1005
14
1001
ACAD_DSTYLE_DIM_EXT2_LINETYPE
1070
   382
1005
14
  0
DIMSTYLE
105
597A
330
A
100
AcDbSymbolTableRecord
100
AcDbDimStyleTableRecord
  2
AM_ANSI$3
 70
     0
  4
mm
 41
0.12
 42
0.05
 43
0.5
 44
0.1
 47
0.1
 48
0.1
 78
     7
 79
     2
140
0.12
141
0.0
146
0.71
147
0.06
176
   256
177
   256
178
     2
274
     4
284
     7
288
     1
289
     0
340
11
371
    -1
372
    -1
1001
ACAD_DSTYLE_DIMARC_LENGTH_SYMBOL
1070
   379
1070
     1
1001
ACAD_DSTYLE_DIM_LINETYPE
1070
   380
1005
14
1001
ACAD_DSTYLE_DIM_EXT1_LINETYPE
1070
   381
1005
14
1001
ACAD_DSTYLE_DIM_EXT2_LINETYPE
1070
   382
1005
14
  0
DIMSTYLE
105
597B
330
A
100
AcDbSymbolTableRecord
100
AcDbDimStyleTableRecord
  2
AM_ANSI$4
 70
     0
  4
mm
 41
0.12
 42
0.05
 43
0.5
 44
0.1
 47
0.1
 48
0.1
 78
     7
 79
     2
140
0.12
141
0.0
146
0.71
147
0.06
176
   256
177
   256
178
     2
274
     4
284
     7
288
     1
289
     0
340
11
371
    -1
372
    -1
1001
ACAD_DSTYLE_DIMARC_LENGTH_SYMBOL
1070
   379
1070
     1
1001
ACAD_DSTYLE_DIM_LINETYPE
1070
   380
1005
14
1001
ACAD_DSTYLE_DIM_EXT1_LINETYPE
1070
   381
1005
14
1001
ACAD_DSTYLE_DIM_EXT2_LINETYPE
1070
   382
1005
14
  0
DIMSTYLE
105
597C
330
A
100
AcDbSymbolTableRecord
100
AcDbDimStyleTableRecord
  2
AM_ANSI$7
 70
     0
  4
mm
 41
0.12
 42
0.05
 43
0.5
 44
0.1
 47
0.1
 48
0.1
 78
     7
 79
     2
140
0.12
141
0.0
146
0.71
147
0.06
176
   256
177
   256
178
     2
274
     4
284
     7
340
11
371
    -1
372
    -1
1001
ACAD_DSTYLE_DIMARC_LENGTH_SYMBOL
1070
   379
1070
     1
1001
ACAD_DSTYLE_DIM_LINETYPE
1070
   380
1005
14
1001
ACAD_DSTYLE_DIM_EXT1_LINETYPE
1070
   381
1005
14
1001
ACAD_DSTYLE_DIM_EXT2_LINETYPE
1070
   382
1005
14
  0
DIMSTYLE
105
597D
330
A
100
AcDbSymbolTableRecord
100
AcDbDimStyleTableRecord
  2
AM_ANSI$SF
 70
     0
  4
mm
 41
0.12
 42
0.05
 43
0.5
 44
0.1
 47
0.1
 48
0.1
 75
     1
 76
     1
 78
     7
 79
     2
140
0.12
141
0.0
146
0.71
147
0.06
176
   256
177
   256
178
     2
274
     4
284
     7
340
11
371
    -1
372
    -1
1001
ACAD_DSTYLE_DIMARC_LENGTH_SYMBOL
1070
   379
1070
     1
1001
ACAD_DSTYLE_DIM_LINETYPE
1070
   380
1005
14
1001
ACAD_DSTYLE_DIM_EXT1_LINETYPE
1070
   381
1005
14
1001
ACAD_DSTYLE_DIM_EXT2_LINETYPE
1070
   382
1005
14
  0
DIMSTYLE
105
5982
330
A
100
AcDbSymbolTableRecord
100
AcDbDimStyleTableRecord
  2
AM_ANSI$SH
 70
     0
  4
mm
 41
0.12
 42
0.05
 43
0.5
 44
0.1
 47
0.1
 48
0.1
 75
     1
 76
     1
 78
     7
 79
     2
140
0.12
141
0.0
146
0.71
147
0.06
173
     1
176
   256
177
   256
178
     2
274
     4
284
     7
340
11
343
597E
371
    -1
372
    -1
1001
ACAD_DSTYLE_DIMARC_LENGTH_SYMBOL
1070
   379
1070
     1
1001
ACAD_DSTYLE_DIM_LINETYPE
1070
   380
1005
14
1001
ACAD_DSTYLE_DIM_EXT1_LINETYPE
1070
   381
1005
14
1001
ACAD_DSTYLE_DIM_EXT2_LINETYPE
1070
   382
1005
14
  0
DIMSTYLE
105
81AE
330
A
100
AcDbSymbolTableRecord
100
AcDbDimStyleTableRecord
  2
2 Decimal Places
 70
     0
 40
0.35
 41
0.125
 44
0.08
 73
     0
 74
     0
 78
     4
140
0.075
170
     1
176
   256
177
   256
178
   256
271
     2
272
     2
284
     4
285
     4
286
     4
340
A8
371
    -1
372
    -1
1001
ACAD_DSTYLE_DIMJAG
1070
   388
1040
1.5
1001
ACAD_DSTYLE_DIMTALN
1070
   392
1070
     0
  0
DIMSTYLE
105
81AF
330
A
100
AcDbSymbolTableRecord
100
AcDbDimStyleTableRecord
  2
2 Dec Hole
 70
     0
 40
0.35
 41
0.125
 44
0.08
 78
     4
140
0.075
170
     1
176
   256
177
   256
178
   256
271
     2
272
     2
279
     1
284
     4
285
     4
286
     4
289
     2
340
A8
371
    -1
372
    -1
1001
ACAD_DSTYLE_DIMJAG
1070
   388
1040
1.5
1001
ACAD_DSTYLE_DIMTALN
1070
   392
1070
     0
  0
DIMSTYLE
105
8243
330
A
100
AcDbSymbolTableRecord
100
AcDbDimStyleTableRecord
  2
Standard
 70
     0
340
11
  0
ENDTAB
  0
TABLE
  2
BLOCK_RECORD
  5
1
330
0
100
AcDbSymbolTable
 70
     6
  0
BLOCK_RECORD
  5
1F
102
{ACAD_XDICTIONARY
360
1956
102
}
330
1
100
AcDbSymbolTableRecord
100
AcDbBlockTableRecord
  2
*Model_Space
340
22
  0
BLOCK_RECORD
  5
5D
330
1
100
AcDbSymbolTableRecord
100
AcDbBlockTableRecord
  2
*Paper_Space
340
5E
  0
BLOCK_RECORD
  5
58
330
1
100
AcDbSymbolTableRecord
100
AcDbBlockTableRecord
  2
*Paper_Space0
340
59
  0
BLOCK_RECORD
  5
597E
330
1
100
AcDbSymbolTableRecord
100
AcDbBlockTableRecord
  2
GENAXEH
340
0
  0
BLOCK_RECORD
  5
7C11
330
1
100
AcDbSymbolTableRecord
100
AcDbBlockTableRecord
  2
*D2
340
0
  0
BLOCK_RECORD
  5
7C93
330
1
100
AcDbSymbolTableRecord
100
AcDbBlockTableRecord
  2
*D3
340
0
  0
BLOCK_RECORD
  5
81B0
102
{ACAD_XDICTIONARY
360
81F4
102
}
330
1
100
AcDbSymbolTableRecord
100
AcDbBlockTableRecord
  2
A$C167835CE
340
0
102
{BLKREFS
331
81F9
102
}
1001
ACAD
1000
DesignCenter Data
1002
{
1070
     1
1070
     1
1002
}
  0
ENDTAB
  0
ENDSEC
  0
SECTION
  2
BLOCKS
  0
BLOCK
  5
20
330
1F
100
AcDbEntity
  8
0
100
AcDbBlockBegin
  2
*Model_Space
 70
     0
 10
0.0
 20
0.0
 30
0.0
  3
*Model_Space
  1

  0
ENDBLK
  5
21
330
1F
100
AcDbEntity
  8
0
100
AcDbBlockEnd
  0
BLOCK
  5
5F
330
5D
100
AcDbEntity
 67
     1
  8
0
100
AcDbBlockBegin
  2
*Paper_Space
 70
     0
 10
0.0
 20
0.0
 30
0.0
  3
*Paper_Space
  1

  0
ENDBLK
  5
60
330
5D
100
AcDbEntity
 67
     1
  8
0
100
AcDbBlockEnd
  0
BLOCK
  5
5A
330
58
100
AcDbEntity
 67
     1
  8
0
100
AcDbBlockBegin
  2
*Paper_Space0
 70
     0
 10
0.0
 20
0.0
 30
0.0
  3
*Paper_Space0
  1

  0
ENDBLK
  5
5B
330
58
100
AcDbEntity
 67
     1
  8
0
100
AcDbBlockEnd
  0
BLOCK
  5
5980
330
597E
100
AcDbEntity
  8
0
100
AcDbBlockBegin
  2
GENAXEH
 70
     0
 10
0.0
 20
0.0
 30
0.0
  3
GENAXEH
  1

  0
LINE
  5
597F
330
597E
100
AcDbEntity
  8
0
100
AcDbLine
 10
-1.0
 20
0.0
 30
0.0
 11
1.0
 21
0.0
 31
0.0
  0
ENDBLK
  5
5981
330
597E
100
AcDbEntity
  8
0
100
AcDbBlockEnd
  0
BLOCK
  5
7C12
330
7C11
100
AcDbEntity
  8
0
100
AcDbBlockBegin
  2
*D2
 70
     1
 10
0.0
 20
0.0
 30
0.0
  3
*D2
  1

  0
LINE
  5
7C1F
330
7C11
100
AcDbEntity
  8
DIMS
  6
ByBlock
100
AcDbLine
 10
3.483367266772833
 20
4.034338003148693
 30
0.0
 11
3.483367266772833
 21
4.587978644206277
 31
0.0
  0
LINE
  5
7C20
330
7C11
100
AcDbEntity
  8
DIMS
  6
ByBlock
100
AcDbLine
 10
5.431367266772895
 20
4.034338003148693
 30
0.0
 11
5.431367266772895
 21
4.587978644206277
 31
0.0
  0
LINE
  5
7C21
330
7C11
100
AcDbEntity
  8
DIMS
  6
ByBlock
100
AcDbLine
 10
3.733367266772833
 20
4.427978644206277
 30
0.0
 11
3.934510123915721
 21
4.427978644206277
 31
0.0
  0
LINE
  5
7C22
330
7C11
100
AcDbEntity
  8
DIMS
  6
ByBlock
100
AcDbLine
 10
5.181367266772893
 20
4.427978644206277
 30
0.0
 11
4.980224409630006
 21
4.427978644206277
 31
0.0
  0
SOLID
  5
7C23
330
7C11
100
AcDbEntity
  8
DIMS
100
AcDbTrace
 10
3.733367266772833
 20
4.469645310872943
 30
0.0
 11
3.733367266772833
 21
4.386311977539609
 31
0.0
 12
3.483367266772833
 22
4.427978644206277
 32
0.0
 13
3.483367266772833
 23
4.427978644206277
 33
0.0
  0
SOLID
  5
7C24
330
7C11
100
AcDbEntity
  8
DIMS
100
AcDbTrace
 10
5.181367266772893
 20
4.469645310872943
 30
0.0
 11
5.181367266772893
 21
4.386311977539609
 31
0.0
 12
5.431367266772895
 22
4.427978644206277
 32
0.0
 13
5.431367266772895
 23
4.427978644206277
 33
0.0
  0
MTEXT
  5
7C25
330
7C11
100
AcDbEntity
  8
DIMS
100
AcDbMText
 10
4.457367266772862
 20
4.427978644206277
 30
0.0
 40
0.18
 41
0.0
 71
     5
 72
     1
  1
\A1;1.948
  7
ROMANS
 73
     1
 44
1.0
1001
ACAD
1000
MTEXTBEGIN
1070
    73
1070
     1
1070
    44
1040
1.0
1070
    74
1070
     0
1000
MTEXTEND
  0
POINT
  5
7C26
330
7C11
100
AcDbEntity
  8
DEFPOINTS
 62
     0
100
AcDbPoint
 10
3.483367266772833
 20
3.909338003148693
 30
0.0
  0
POINT
  5
7C27
330
7C11
100
AcDbEntity
  8
DEFPOINTS
 62
     0
100
AcDbPoint
 10
5.431367266772895
 20
3.909338003148693
 30
0.0
  0
POINT
  5
7C28
330
7C11
100
AcDbEntity
  8
DEFPOINTS
 62
     0
100
AcDbPoint
 10
5.431367266772895
 20
4.427978644206277
 30
0.0
  0
ENDBLK
  5
7C13
330
7C11
100
AcDbEntity
  8
0
100
AcDbBlockEnd
  0
BLOCK
  5
7C94
330
7C93
100
AcDbEntity
  8
0
100
AcDbBlockBegin
  2
*D3
 70
     1
 10
0.0
 20
0.0
 30
0.0
  3
*D3
  1

  0
LINE
  5
7CA1
330
7C93
100
AcDbEntity
  8
DIMS
  6
ByBlock
100
AcDbLine
 10
3.358367266772833
 20
3.909338003148693
 30
0.0
 11
2.678611071842003
 21
3.909338003148694
 31
0.0
  0
LINE
  5
7CA2
330
7C93
100
AcDbEntity
  8
DIMS
  6
ByBlock
100
AcDbLine
 10
3.358367266772833
 20
2.729338003148769
 30
0.0
 11
2.678611071842003
 21
2.729338003148769
 31
0.0
  0
LINE
  5
7CA3
330
7C93
100
AcDbEntity
  8
DIMS
  6
ByBlock
100
AcDbLine
 10
2.838611071842001
 20
3.659338003148694
 30
0.0
 11
2.838611071842001
 21
3.591293851266026
 31
0.0
  0
LINE
  5
7CA4
330
7C93
100
AcDbEntity
  8
DIMS
  6
ByBlock
100
AcDbLine
 10
2.838611071842001
 20
2.97933800314877
 30
0.0
 11
2.838611071842001
 21
3.051293851266026
 31
0.0
  0
SOLID
  5
7CA5
330
7C93
100
AcDbEntity
  8
DIMS
100
AcDbTrace
 10
2.796944405175337
 20
3.659338003148694
 30
0.0
 11
2.880277738508669
 21
3.659338003148694
 31
0.0
 12
2.838611071842001
 22
3.909338003148694
 32
0.0
 13
2.838611071842001
 23
3.909338003148694
 33
0.0
  0
SOLID
  5
7CA6
330
7C93
100
AcDbEntity
  8
DIMS
100
AcDbTrace
 10
2.796944405175334
 20
2.97933800314877
 30
0.0
 11
2.880277738508669
 21
2.97933800314877
 31
0.0
 12
2.838611071842001
 22
2.729338003148769
 32
0.0
 13
2.838611071842001
 23
2.729338003148769
 33
0.0
  0
MTEXT
  5
7CA7
330
7C93
100
AcDbEntity
  8
DIMS
100
AcDbMText
 10
2.838611071842001
 20
3.321293851266027
 30
0.0
 40
0.18
 41
0.0
 71
     5
 72
     1
  1
\A1;1.180
  7
ROMANS
 73
     1
 44
1.0
1001
ACAD
1000
MTEXTBEGIN
1070
    73
1070
     1
1070
    44
1040
1.0
1070
    74
1070
     0
1000
MTEXTEND
  0
POINT
  5
7CA8
330
7C93
100
AcDbEntity
  8
DEFPOINTS
 62
     0
100
AcDbPoint
 10
3.483367266772833
 20
3.909338003148693
 30
0.0
  0
POINT
  5
7CA9
330
7C93
100
AcDbEntity
  8
DEFPOINTS
 62
     0
100
AcDbPoint
 10
3.483367266772833
 20
2.729338003148769
 30
0.0
  0
POINT
  5
7CAA
330
7C93
100
AcDbEntity
  8
DEFPOINTS
 62
     0
100
AcDbPoint
 10
2.838611071842001
 20
2.729338003148769
 30
0.0
  0
ENDBLK
  5
7C95
330
7C93
100
AcDbEntity
  8
0
100
AcDbBlockEnd
  0
BLOCK
  5
81F6
330
81B0
100
AcDbEntity
  8
0
100
AcDbBlockBegin
  2
A$C167835CE
 70
     0
 10
0.0
 20
0.0
 30
0.0
  3
A$C167835CE
  1

  0
CIRCLE
  5
81B1
330
81B0
100
AcDbEntity
  8
Part
100
AcDbCircle
 10
-0.0152199976622871
 20
0.2851785725968148
 30
0.0
 40
0.01
  0
LINE
  5
81B2
330
81B0
100
AcDbEntity
  8
Part
100
AcDbLine
 10
1.288140312644441
 20
0.2400000000001035
 30
0.0
 11
1.329665596738728
 21
0.2400000000001035
 31
0.0
  0
CIRCLE
  5
81B3
330
81B0
100
AcDbEntity
  8
Part
100
AcDbCircle
 10
1.305219997662179
 20
-0.0151785725967546
 30
0.0
 40
0.01
  0
CIRCLE
  5
81B4
330
81B0
100
AcDbEntity
  8
Part
100
AcDbCircle
 10
-0.015219997662248
 20
-0.0151785725968874
 30
0.0
 40
0.01
  0
CIRCLE
  5
81B5
330
81B0
100
AcDbEntity
  8
Part
100
AcDbCircle
 10
1.305219997662163
 20
0.285178572597206
 30
0.0
 40
0.01
  0
CIRCLE
  5
81B6
330
81B0
100
AcDbEntity
  8
Part
100
AcDbCircle
 10
1.305219997662169
 20
-0.0151785725967759
 30
0.0
 40
0.01
  0
CIRCLE
  5
81B7
330
81B0
100
AcDbEntity
  8
Part
100
AcDbCircle
 10
-0.0152199976622587
 20
-0.0151785725969087
 30
0.0
 40
0.01
  0
CIRCLE
  5
81B8
330
81B0
100
AcDbEntity
  8
Part
100
AcDbCircle
 10
1.305219997662153
 20
0.2851785725971847
 30
0.0
 40
0.01
  0
ARC
  5
81B9
330
81B0
100
AcDbEntity
  8
Part
100
AcDbCircle
 10
-0.0747681465285073
 20
0.3447681337795159
 30
0.0
 40
0.0624999999999998
100
AcDbArc
 50
288.4387282926618
 51
341.5612840271058
  0
LINE
  5
81BA
330
81B0
100
AcDbEntity
  8
Part
100
AcDbLine
 10
-0.0154767400105929
 20
0.3249999999999444
 30
0.0
 11
0.0597499999999567
 21
0.3249999999999267
 31
0.0
  0
ARC
  5
81BB
330
81B0
100
AcDbEntity
  8
Part
100
AcDbCircle
 10
0.0823159231335122
 20
0.3447681337795798
 30
0.0
 40
0.0299999999999994
100
AcDbArc
 50
221.2189130524553
 51
269.9999999999862
  0
LINE
  5
81BC
330
81B0
100
AcDbEntity
  8
Part
100
AcDbLine
 10
0.0823159231335122
 20
0.3147681337795805
 30
0.0
 11
1.207684076866389
 21
0.3147681337797012
 31
0.0
  0
ARC
  5
81BD
330
81B0
100
AcDbEntity
  8
Part
100
AcDbCircle
 10
1.207684076866392
 20
0.3447681337797037
 30
0.0
 40
0.0300000000000022
100
AcDbArc
 50
269.9999999999934
 51
318.7810869475224
  0
LINE
  5
81BE
330
81B0
100
AcDbEntity
  8
Part
100
AcDbLine
 10
1.230249999999947
 20
0.3250000000000435
 30
0.0
 11
1.305476740010494
 21
0.3250000000000257
 31
0.0
  0
ARC
  5
81BF
330
81B0
100
AcDbEntity
  8
Part
100
AcDbCircle
 10
1.364768146528323
 20
0.34476813377986
 30
0.0
 40
0.0624999999999989
100
AcDbArc
 50
198.4387159731506
 51
251.5612717073685
  0
LINE
  5
81C0
330
81B0
100
AcDbEntity
  8
Part
100
AcDbLine
 10
1.344999999999919
 20
0.2854767315124878
 30
0.0
 11
1.344999999999938
 21
0.2099999999999185
 31
0.0
  0
LINE
  5
81C1
330
81B0
100
AcDbEntity
  8
Part
100
AcDbLine
 10
1.344999999999914
 20
0.0599999999999479
 30
0.0
 11
1.344999999999926
 21
-0.0154767315121225
 31
0.0
  0
ARC
  5
81C2
330
81B0
100
AcDbEntity
  8
Part
100
AcDbCircle
 10
1.36476814652835
 20
-0.0747681337794886
 30
0.0
 40
0.0624999999999987
100
AcDbArc
 50
108.4387282926483
 51
161.5612840270439
  0
LINE
  5
81C3
330
81B0
100
AcDbEntity
  8
Part
100
AcDbLine
 10
1.305476740010454
 20
-0.0549999999998532
 30
0.0
 11
1.230249999999932
 21
-0.0549999999998532
 31
0.0
  0
LINE
  5
81C4
330
81B0
100
AcDbEntity
  8
Part
100
AcDbLine
 10
0.0597499999999425
 20
-0.0550000000000446
 30
0.0
 11
-0.0154767400105644
 21
-0.0550000000000446
 31
0.0
  0
ARC
  5
81C5
330
81B0
100
AcDbEntity
  8
Part
100
AcDbCircle
 10
-0.0747681465284824
 20
-0.0747681337796054
 30
0.0
 40
0.0625000000000001
100
AcDbArc
 50
18.4387159728864
 51
71.56127170735171
  0
LINE
  5
81C6
330
81B0
100
AcDbEntity
  8
Part
100
AcDbLine
 10
-0.0550000000000619
 20
-0.0154767315122366
 30
0.0
 11
-0.055000000000021
 21
0.0599999999999013
 31
0.0
  0
LINE
  5
81C7
330
81B0
100
AcDbEntity
  8
Part
100
AcDbLine
 10
-0.0550000000000512
 20
0.2099999999998954
 30
0.0
 11
-0.055000000000069
 21
0.2854767315121534
 31
0.0
  0
ARC
  5
81C8
330
81B0
100
AcDbEntity
  8
Part
100
AcDbCircle
 10
0.0823159231335229
 20
-0.0747681337795894
 30
0.0
 40
0.0299999999999994
100
AcDbArc
 50
90.00000000001376
 51
138.7810869475445
  0
LINE
  5
81C9
330
81B0
100
AcDbEntity
  8
Part
100
AcDbLine
 10
0.0823159231335229
 20
-0.04476813377959
 30
0.0
 11
1.207684076866399
 21
-0.04476813377933
 31
0.0
  0
ARC
  5
81CA
330
81B0
100
AcDbEntity
  8
Part
100
AcDbCircle
 10
1.207684076866403
 20
-0.0747681337793322
 30
0.0
 40
0.0300000000000022
100
AcDbArc
 50
41.21891305247765
 51
90.00000000000667
  0
CIRCLE
  5
81CB
330
81B0
100
AcDbEntity
  8
Part
100
AcDbCircle
 10
1.305219997662159
 20
-0.0151785725968283
 30
0.0
 40
0.0099999999999999
  0
CIRCLE
  5
81CC
330
81B0
100
AcDbEntity
  8
Part
100
AcDbCircle
 10
-0.0152199976622693
 20
-0.0151785725969611
 30
0.0
 40
0.0099999999999999
  0
CIRCLE
  5
81CD
330
81B0
100
AcDbEntity
  8
Part
100
AcDbCircle
 10
1.305219997662142
 20
0.2851785725971323
 30
0.0
 40
0.0099999999999999
  0
CIRCLE
  5
81CE
330
81B0
100
AcDbEntity
  8
Part
100
AcDbCircle
 10
-0.0152199976622871
 20
0.2851785725968148
 30
0.0
 40
0.0099999999999999
  0
ARC
  5
81CF
330
81B0
100
AcDbEntity
  8
Part
100
AcDbCircle
 10
-0.0747681337797008
 20
0.1874340768663336
 30
0.0
 40
0.0299999999999994
100
AcDbArc
 50
0.0000000000161063
 51
48.78108694754466
  0
ARC
  5
81D0
330
81B0
100
AcDbEntity
  8
Part
100
AcDbCircle
 10
-0.0747681337796848
 20
0.0825659231334517
 30
0.0
 40
0.0299999999999994
100
AcDbArc
 50
311.2189130524882
 51
0.0000000000161063
  0
LINE
  5
81D1
330
81B0
100
AcDbEntity
  8
Part
100
AcDbLine
 10
-0.0447681337797015
 20
0.1874340768663421
 30
0.0
 11
-0.0447681337796855
 21
0.0825659231334601
 31
0.0
  0
ARC
  5
81D2
330
81B0
100
AcDbEntity
  8
Part
100
AcDbCircle
 10
1.36476813377961
 20
0.1874340768663758
 30
0.0
 40
0.0299999999999994
100
AcDbArc
 50
131.2189130524553
 51
179.9999999999855
  0
ARC
  5
81D3
330
81B0
100
AcDbEntity
  8
Part
100
AcDbCircle
 10
1.364768133779577
 20
0.0825659231334983
 30
0.0
 40
0.0299999999999994
100
AcDbArc
 50
179.9999999999851
 51
228.7810869475118
  0
LINE
  5
81D4
330
81B0
100
AcDbEntity
  8
Part
100
AcDbLine
 10
-0.0550000000000459
 20
0.0299999999999012
 30
0.0
 11
0.0299999999999443
 21
0.0299999999999012
 31
0.0
  0
LINE
  5
81D5
330
81B0
100
AcDbEntity
  8
Part
100
AcDbLine
 10
1.259999999999959
 20
0.0300000000000926
 30
0.0
 11
1.344999999999946
 21
0.0300000000000926
 31
0.0
  0
LINE
  5
81D6
330
81B0
100
AcDbEntity
  8
Part
100
AcDbLine
 10
1.34499999999993
 20
0.2400000000001066
 30
0.0
 11
1.259999999999944
 21
0.2400000000000675
 31
0.0
  0
LINE
  5
81D7
330
81B0
100
AcDbEntity
  8
Part
100
AcDbLine
 10
0.0299999999999248
 20
0.2399999999998956
 30
0.0
 11
-0.0550000000000619
 21
0.2399999999998956
 31
0.0
  0
LINE
  5
81D8
330
81B0
100
AcDbEntity
  8
Part
100
AcDbLine
 10
0.0299999999999443
 20
0.0299999999999012
 30
0.0
 11
0.0299999999999408
 21
-0.0500000000000007
 31
0.0
  0
LINE
  5
81D9
330
81B0
100
AcDbEntity
  8
Part
100
AcDbLine
 10
0.0299999999999301
 20
0.3199999999999259
 30
0.0
 11
0.0299999999999248
 21
0.2399999999998956
 31
0.0
  0
LINE
  5
81DA
330
81B0
100
AcDbEntity
  8
Part
100
AcDbLine
 10
1.259999999999959
 20
0.0300000000000926
 30
0.0
 11
1.259999999999952
 21
-0.0499999999998839
 31
0.0
  0
LINE
  5
81DB
330
81B0
100
AcDbEntity
  8
Part
100
AcDbLine
 10
1.259999999999936
 20
0.3200000000000427
 30
0.0
 11
1.259999999999944
 21
0.2400000000000675
 31
0.0
  0
LINE
  5
81DC
330
81B0
100
AcDbEntity
  8
Part
100
AcDbLine
 10
0.0299999999999301
 20
0.3199999999999259
 30
0.0
 11
0.0653884440219281
 21
0.3199999999999259
 31
0.0
  0
LINE
  5
81DD
330
81B0
100
AcDbEntity
  8
Part
100
AcDbLine
 10
1.22461155597797
 20
0.3200000000000427
 30
0.0
 11
1.259999999999936
 21
0.3200000000000427
 31
0.0
  0
LINE
  5
81DE
330
81B0
100
AcDbEntity
  8
Part
100
AcDbLine
 10
1.259999999999952
 20
-0.0499999999998839
 30
0.0
 11
1.224611555978293
 21
-0.0499999999998839
 31
0.0
  0
LINE
  5
81DF
330
81B0
100
AcDbEntity
  8
Part
100
AcDbLine
 10
0.0653884440218429
 20
-0.0500000000000007
 30
0.0
 11
0.0299999999999408
 21
-0.0500000000000007
 31
0.0
  0
LINE
  5
81E0
330
81B0
100
AcDbEntity
  8
Part
100
AcDbLine
 10
-0.0000000000000551
 20
0.2699999999999252
 30
0.0
 11
-0.0500000000000558
 21
0.2699999999999252
 31
0.0
  0
LINE
  5
81E1
330
81B0
100
AcDbEntity
  8
Part
100
AcDbLine
 10
-0.0500000000000558
 20
0.2699999999999252
 30
0.0
 11
-0.0500000000000593
 21
0.2873853060560132
 31
0.0
  0
LINE
  5
81E2
330
81B0
100
AcDbEntity
  8
Part
100
AcDbLine
 10
-0.0173853133022188
 20
0.3199999999999259
 30
0.0
 11
-0.0000000000000551
 21
0.3199999999999259
 31
0.0
  0
LINE
  5
81E3
330
81B0
100
AcDbEntity
  8
Part
100
AcDbLine
 10
-0.0000000000000551
 20
0.3199999999999259
 30
0.0
 11
-0.0000000000000551
 21
0.2699999999999252
 31
0.0
  0
LINE
  5
81E4
330
81B0
100
AcDbEntity
  8
Part
100
AcDbLine
 10
0.0
 20
0.0
 30
0.0
 11
-0.0500000000000007
 21
-0.000000000000028
 31
0.0
  0
LINE
  5
81E5
330
81B0
100
AcDbEntity
  8
Part
100
AcDbLine
 10
-0.0500000000000007
 20
-0.000000000000028
 30
0.0
 11
-0.0499999999999936
 21
-0.017385306056116
 31
0.0
  0
LINE
  5
81E6
330
81B0
100
AcDbEntity
  8
Part
100
AcDbLine
 10
-0.0173853133021353
 20
-0.0500000000000105
 30
0.0
 11
0.0000000000000284
 21
-0.0500000000000007
 31
0.0
  0
LINE
  5
81E7
330
81B0
100
AcDbEntity
  8
Part
100
AcDbLine
 10
0.0000000000000284
 20
-0.0500000000000007
 30
0.0
 11
0.0
 21
0.0
 31
0.0
  0
LINE
  5
81E8
330
81B0
100
AcDbEntity
  8
Part
100
AcDbLine
 10
1.290000000000004
 20
0.2700000000002343
 30
0.0
 11
1.340000000000005
 21
0.2700000000002645
 31
0.0
  0
LINE
  5
81E9
330
81B0
100
AcDbEntity
  8
Part
100
AcDbLine
 10
1.340000000000005
 20
0.2700000000002645
 30
0.0
 11
1.339999999999998
 21
0.2873853060563525
 31
0.0
  0
LINE
  5
81EA
330
81B0
100
AcDbEntity
  8
Part
100
AcDbLine
 10
1.307385313302139
 20
0.3200000000002456
 30
0.0
 11
1.289999999999975
 21
0.320000000000235
 31
0.0
  0
LINE
  5
81EB
330
81B0
100
AcDbEntity
  8
Part
100
AcDbLine
 10
1.289999999999975
 20
0.320000000000235
 30
0.0
 11
1.290000000000004
 21
0.2700000000002343
 31
0.0
  0
LINE
  5
81EC
330
81B0
100
AcDbEntity
  8
Part
100
AcDbLine
 10
1.290000000000065
 20
0.0000000000003091
 30
0.0
 11
1.340000000000065
 21
0.0000000000003111
 31
0.0
  0
LINE
  5
81ED
330
81B0
100
AcDbEntity
  8
Part
100
AcDbLine
 10
1.340000000000065
 20
0.0000000000003111
 30
0.0
 11
1.34000000000007
 21
-0.0173853060557769
 31
0.0
  0
LINE
  5
81EE
330
81B0
100
AcDbEntity
  8
Part
100
AcDbLine
 10
1.307385313302231
 20
-0.049999999999691
 30
0.0
 11
1.290000000000067
 21
-0.0499999999996916
 31
0.0
  0
LINE
  5
81EF
330
81B0
100
AcDbEntity
  8
Part
100
AcDbLine
 10
1.290000000000067
 20
-0.0499999999996916
 30
0.0
 11
1.290000000000065
 21
0.0000000000003091
 31
0.0
  0
LINE
  5
81F0
330
81B0
100
AcDbEntity
  8
Part
100
AcDbLine
 10
1.33476813377961
 20
0.1874340768663831
 30
0.0
 11
1.3347681337796
 21
0.0825659231335012
 31
0.0
  0
TEXT
  5
81F1
330
81B0
100
AcDbEntity
  8
INS1_TOP
100
AcDbText
 10
0.5026514418949484
 20
0.178556581914532
 30
0.0
 40
0.045
  1
Innovative
 51
15.0
  7
ARIAL
 72
     1
 11
0.6459393000122744
 21
0.201056581914532
 31
0.0
100
AcDbText
 73
     2
  0
TEXT
  5
81F2
330
81B0
100
AcDbEntity
  8
INS1_TOP
100
AcDbText
 10
0.5367263054693004
 20
0.1181167612458694
 30
0.0
 40
0.0375
  1
IPP-7095
  7
ARIAL
 72
     1
 11
0.6459393000122744
 21
0.1368667612458694
 31
0.0
100
AcDbText
 73
     2
  0
TEXT
  5
81F3
330
81B0
100
AcDbEntity
  8
INS1_TOP
100
AcDbText
 10
0.4493968375293277
 20
0.0621684576290783
 30
0.0
 40
0.0375
  1
600 - 1600 MHZ 
  7
ARIAL
 72
     1
 11
0.6459393000122744
 21
0.0809184576290783
 31
0.0
100
AcDbText
 73
     2
  0
ENDBLK
  5
81F7
330
81B0
100
AcDbEntity
  8
0
100
AcDbBlockEnd
  0
ENDSEC
  0
SECTION
  2
ENTITIES
  0
TEXT
  5
1E24
330
1F
100
AcDbEntity
  8
Text
100
AcDbText
 10
2.382810732740899
 20
7.917122312456028
 30
0.0
 40
0.12
  1
VIEW: LOOKING THRU FROM TOP TO BOTTOM
  7
ROMANS
 72
     1
 11
4.437096447026613
 21
7.917122312456028
 31
0.0
100
AcDbText
  0
TEXT
  5
1E25
330
1F
100
AcDbEntity
  8
Text
100
AcDbText
 10
2.735096447026613
 20
8.277025920756937
 30
0.0
 40
0.12
  1
%%UTOP & BOTTOM ARTWORK SCALE 1:1
  7
ROMANS
 72
     1
 11
4.437096447026613
 21
8.277025920756937
 31
0.0
100
AcDbText
  0
CIRCLE
  5
246B
330
1F
100
AcDbEntity
  8
PCB_TOP
100
AcDbCircle
 10
3.02864228411187
 20
6.999338003148668
 30
0.0
 40
0.1445408511444538
  0
CIRCLE
  5
246C
330
1F
100
AcDbEntity
  8
PCB_OUTLINE
100
AcDbCircle
 10
3.02864228411187
 20
6.999338003148668
 30
0.0
 40
0.1445408511444538
  0
CIRCLE
  5
246D
330
1F
100
AcDbEntity
  8
PCB_BOT
100
AcDbCircle
 10
3.02864228411187
 20
6.999338003148668
 30
0.0
 40
0.1445408511444538
  0
LINE
  5
246E
330
1F
100
AcDbEntity
  8
PCB_TOP
100
AcDbLine
 10
3.233367266772846
 20
6.999338003148698
 30
0.0
 11
2.823917301450907
 21
6.999338003148698
 31
0.0
  0
LINE
  5
246F
330
1F
100
AcDbEntity
  8
PCB_TOP
100
AcDbLine
 10
2.88387986059398
 20
6.854575579630837
 30
0.0
 11
3.173404707629745
 21
7.144100426666572
 31
0.0
  0
LINE
  5
2470
330
1F
100
AcDbEntity
  8
PCB_TOP
100
AcDbLine
 10
2.883879860593994
 20
7.144100426666572
 30
0.0
 11
3.173404707629745
 21
6.854575579630822
 31
0.0
  0
LINE
  5
2471
330
1F
100
AcDbEntity
  8
PCB_OUTLINE
100
AcDbLine
 10
2.883879860593994
 20
7.144100426666572
 30
0.0
 11
3.173404707629745
 21
6.854575579630822
 31
0.0
  0
LINE
  5
2472
330
1F
100
AcDbEntity
  8
PCB_OUTLINE
100
AcDbLine
 10
3.233367266772846
 20
6.999338003148698
 30
0.0
 11
2.823917301450907
 21
6.999338003148698
 31
0.0
  0
LINE
  5
2473
330
1F
100
AcDbEntity
  8
PCB_OUTLINE
100
AcDbLine
 10
2.88387986059398
 20
6.854575579630837
 30
0.0
 11
3.173404707629745
 21
7.144100426666572
 31
0.0
  0
HATCH
  5
2474
330
1F
100
AcDbEntity
  8
PCB_TOP
100
AcDbHatch
 10
0.0
 20
0.0
 30
0.0
210
0.0
220
0.0
230
1.0
  2
SOLID
 70
     1
 71
     0
 91
        3
 92
        7
 72
     1
 73
     1
 93
        3
 10
3.028642284111858
 20
7.143878854293141
 42
0.1989123673796765
 10
2.926436468109129
 20
7.101543819151403
 42
0.0
 10
3.028642284111858
 20
6.999338003148682
 42
0.0
 97
        0
 92
        7
 72
     1
 73
     1
 93
        3
 10
2.926436468109129
 20
7.101543819151403
 42
0.1989123673796716
 10
2.884101432967386
 20
6.999338003148682
 42
0.0
 10
3.028642284111851
 20
6.999338003148682
 42
0.0
 97
        0
 92
        7
 72
     1
 73
     1
 93
        3
 10
3.130848100114568
 20
7.101543819151397
 42
0.1989123673796498
 10
3.028642284111854
 20
7.143878854293141
 42
0.0
 10
3.028642284111854
 20
6.999338003148698
 42
0.0
 97
        0
 75
     0
 76
     1
 47
0.0001896584045076
 98
        3
 10
2.996580430987259
 20
7.096788047547272
 10
2.950266619414586
 20
7.058097742251644
 10
3.061115823554
 20
7.067959944893228
  0
HATCH
  5
2475
330
1F
100
AcDbEntity
  8
PCB_OUTLINE
100
AcDbHatch
 10
0.0
 20
0.0
 30
0.0
210
0.0
220
0.0
230
1.0
  2
SOLID
 70
     1
 71
     0
 91
        2
 92
        7
 72
     1
 73
     1
 93
        3
 10
3.028642284111866
 20
6.999338003148705
 42
0.0
 10
2.926436468109118
 20
6.897132187145967
 42
0.1989123673796946
 10
3.028642284111854
 20
6.854797152004227
 42
0.0
 97
        0
 92
        7
 72
     1
 73
     1
 93
        3
 10
3.028642284111837
 20
6.999338003148682
 42
0.0
 10
2.884101432967386
 20
6.999338003148682
 42
0.1989123673796509
 10
2.926436468109118
 20
6.897132187145967
 42
0.0
 97
        0
 75
     0
 76
     1
 47
0.0001896584045076
 98
        2
 10
3.003413584493538
 20
6.89499146514586
 10
2.932804169906128
 20
6.948095821768499
  0
LINE
  5
2476
330
1F
100
AcDbEntity
  8
PCB_BOT
100
AcDbLine
 10
2.88387986059398
 20
7.144100426666558
 30
0.0
 11
3.17340470762973
 21
6.854575579630807
 31
0.0
  0
LINE
  5
2477
330
1F
100
AcDbEntity
  8
PCB_BOT
100
AcDbLine
 10
2.883879860593966
 20
6.854575579630822
 30
0.0
 11
3.17340470762973
 21
7.144100426666558
 31
0.0
  0
LINE
  5
2478
330
1F
100
AcDbEntity
  8
PCB_BOT
100
AcDbLine
 10
3.233367266772833
 20
6.999338003148682
 30
0.0
 11
2.823917301450892
 21
6.999338003148682
 31
0.0
  0
LINE
  5
2479
330
1F
100
AcDbEntity
  8
PCB_TOP
100
AcDbLine
 10
3.02864228411187
 20
7.204062985809673
 30
0.0
 11
3.02864228411187
 21
6.794613020487719
 31
0.0
  0
LINE
  5
247A
330
1F
100
AcDbEntity
  8
PCB_OUTLINE
100
AcDbLine
 10
3.02864228411187
 20
7.204062985809673
 30
0.0
 11
3.02864228411187
 21
6.794613020487719
 31
0.0
  0
LINE
  5
247B
330
1F
100
AcDbEntity
  8
PCB_BOT
100
AcDbLine
 10
3.028642284111854
 20
7.204062985809659
 30
0.0
 11
3.028642284111854
 21
6.794613020487705
 31
0.0
  0
HATCH
  5
247C
330
1F
100
AcDbEntity
  8
PCB_BOT
100
AcDbHatch
 10
0.0
 20
0.0
 30
0.0
210
0.0
220
0.0
230
1.0
  2
SOLID
 70
     1
 71
     0
 91
        3
 92
        7
 72
     1
 73
     1
 93
        3
 10
3.028642284111858
 20
6.999338003148682
 42
0.0
 10
3.028642284111854
 20
6.854797152004227
 42
0.1989123673796551
 10
3.130848100114568
 20
6.897132187145972
 42
0.0
 97
        0
 92
        7
 72
     1
 73
     1
 93
        3
 10
3.173183135256297
 20
6.999338003148682
 42
0.0
 10
3.028642284111854
 20
6.999338003148674
 42
0.0
 10
3.130848100114568
 20
6.897132187145967
 42
0.1989123673796482
 97
        0
 92
        7
 72
     1
 73
     1
 93
        3
 10
3.130848100114563
 20
7.101543819151397
 42
0.0
 10
3.028642284111841
 20
6.999338003148682
 42
0.0
 10
3.173183135256297
 20
6.999338003148682
 42
0.1989123673796509
 97
        0
 75
     0
 76
     1
 47
0.0001896584045076
 98
        3
 10
3.075541262052106
 20
6.917750436219302
 10
3.126410347606289
 20
6.949613104663652
 10
3.122614205110361
 20
7.006510668524152
  0
CIRCLE
  5
247D
330
1F
100
AcDbEntity
  8
PCB_TOP
100
AcDbCircle
 10
5.886092249433874
 20
6.999338003148668
 30
0.0
 40
0.1445408511444538
  0
CIRCLE
  5
247E
330
1F
100
AcDbEntity
  8
PCB_OUTLINE
100
AcDbCircle
 10
5.886092249433874
 20
6.999338003148668
 30
0.0
 40
0.1445408511444538
  0
CIRCLE
  5
247F
330
1F
100
AcDbEntity
  8
PCB_BOT
100
AcDbCircle
 10
5.886092249433874
 20
6.999338003148668
 30
0.0
 40
0.1445408511444538
  0
LINE
  5
2480
330
1F
100
AcDbEntity
  8
PCB_TOP
100
AcDbLine
 10
6.090817232094849
 20
6.999338003148698
 30
0.0
 11
5.68136726677291
 21
6.999338003148698
 31
0.0
  0
LINE
  5
2481
330
1F
100
AcDbEntity
  8
PCB_TOP
100
AcDbLine
 10
5.741329825915983
 20
6.854575579630836
 30
0.0
 11
6.030854672951747
 21
7.144100426666572
 31
0.0
  0
LINE
  5
2482
330
1F
100
AcDbEntity
  8
PCB_TOP
100
AcDbLine
 10
5.741329825915999
 20
7.144100426666572
 30
0.0
 11
6.030854672951747
 21
6.854575579630822
 31
0.0
  0
LINE
  5
2483
330
1F
100
AcDbEntity
  8
PCB_OUTLINE
100
AcDbLine
 10
5.741329825915999
 20
7.144100426666572
 30
0.0
 11
6.030854672951747
 21
6.854575579630822
 31
0.0
  0
LINE
  5
2484
330
1F
100
AcDbEntity
  8
PCB_OUTLINE
100
AcDbLine
 10
6.090817232094849
 20
6.999338003148698
 30
0.0
 11
5.68136726677291
 21
6.999338003148698
 31
0.0
  0
LINE
  5
2485
330
1F
100
AcDbEntity
  8
PCB_OUTLINE
100
AcDbLine
 10
5.741329825915983
 20
6.854575579630836
 30
0.0
 11
6.030854672951747
 21
7.144100426666572
 31
0.0
  0
HATCH
  5
2486
330
1F
100
AcDbEntity
  8
PCB_TOP
100
AcDbHatch
 10
0.0
 20
0.0
 30
0.0
210
0.0
220
0.0
230
1.0
  2
SOLID
 70
     1
 71
     0
 91
        3
 92
        7
 72
     1
 73
     1
 93
        3
 10
5.886092249433861
 20
7.143878854293139
 42
0.1989123673796765
 10
5.783886433431132
 20
7.101543819151406
 42
0.0
 10
5.886092249433861
 20
6.999338003148682
 42
0.0
 97
        0
 92
        7
 72
     1
 73
     1
 93
        3
 10
5.783886433431132
 20
7.101543819151406
 42
0.1989123673796716
 10
5.741551398289391
 20
6.999338003148682
 42
0.0
 10
5.886092249433853
 20
6.999338003148682
 42
0.0
 97
        0
 92
        7
 72
     1
 73
     1
 93
        3
 10
5.988298065436572
 20
7.101543819151397
 42
0.1989123673796498
 10
5.886092249433858
 20
7.143878854293139
 42
0.0
 10
5.886092249433858
 20
6.999338003148698
 42
0.0
 97
        0
 75
     0
 76
     1
 47
0.0001896584045076
 98
        3
 10
5.854030396309265
 20
7.096788047547274
 10
5.80771658473659
 20
7.058097742251643
 10
5.918565788876002
 20
7.067959944893227
  0
HATCH
  5
2487
330
1F
100
AcDbEntity
  8
PCB_OUTLINE
100
AcDbHatch
 10
0.0
 20
0.0
 30
0.0
210
0.0
220
0.0
230
1.0
  2
SOLID
 70
     1
 71
     0
 91
        2
 92
        7
 72
     1
 73
     1
 93
        3
 10
5.88609224943387
 20
6.999338003148703
 42
0.0
 10
5.783886433431121
 20
6.897132187145967
 42
0.1989123673796946
 10
5.886092249433858
 20
6.854797152004227
 42
0.0
 97
        0
 92
        7
 72
     1
 73
     1
 93
        3
 10
5.886092249433843
 20
6.999338003148682
 42
0.0
 10
5.741551398289391
 20
6.999338003148682
 42
0.1989123673796509
 10
5.783886433431121
 20
6.897132187145967
 42
0.0
 97
        0
 75
     0
 76
     1
 47
0.0001896584045076
 98
        2
 10
5.860863549815541
 20
6.89499146514586
 10
5.790254135228133
 20
6.948095821768499
  0
LINE
  5
2488
330
1F
100
AcDbEntity
  8
PCB_BOT
100
AcDbLine
 10
5.741329825915983
 20
7.144100426666558
 30
0.0
 11
6.030854672951733
 21
6.854575579630807
 31
0.0
  0
LINE
  5
2489
330
1F
100
AcDbEntity
  8
PCB_BOT
100
AcDbLine
 10
5.741329825915969
 20
6.854575579630822
 30
0.0
 11
6.030854672951733
 21
7.144100426666558
 31
0.0
  0
LINE
  5
248A
330
1F
100
AcDbEntity
  8
PCB_BOT
100
AcDbLine
 10
6.090817232094836
 20
6.999338003148682
 30
0.0
 11
5.681367266772896
 21
6.999338003148682
 31
0.0
  0
LINE
  5
248B
330
1F
100
AcDbEntity
  8
PCB_TOP
100
AcDbLine
 10
5.886092249433874
 20
7.204062985809673
 30
0.0
 11
5.886092249433874
 21
6.794613020487719
 31
0.0
  0
LINE
  5
248C
330
1F
100
AcDbEntity
  8
PCB_OUTLINE
100
AcDbLine
 10
5.886092249433874
 20
7.204062985809673
 30
0.0
 11
5.886092249433874
 21
6.794613020487719
 31
0.0
  0
LINE
  5
248D
330
1F
100
AcDbEntity
  8
PCB_BOT
100
AcDbLine
 10
5.886092249433858
 20
7.20406298580966
 30
0.0
 11
5.886092249433858
 21
6.794613020487705
 31
0.0
  0
HATCH
  5
248E
330
1F
100
AcDbEntity
  8
PCB_BOT
100
AcDbHatch
 10
0.0
 20
0.0
 30
0.0
210
0.0
220
0.0
230
1.0
  2
SOLID
 70
     1
 71
     0
 91
        3
 92
        7
 72
     1
 73
     1
 93
        3
 10
5.886092249433861
 20
6.999338003148682
 42
0.0
 10
5.886092249433858
 20
6.854797152004227
 42
0.1989123673796551
 10
5.988298065436572
 20
6.897132187145972
 42
0.0
 97
        0
 92
        7
 72
     1
 73
     1
 93
        3
 10
6.030633100578301
 20
6.999338003148682
 42
0.0
 10
5.886092249433858
 20
6.999338003148674
 42
0.0
 10
5.988298065436572
 20
6.897132187145967
 42
0.1989123673796482
 97
        0
 92
        7
 72
     1
 73
     1
 93
        3
 10
5.988298065436566
 20
7.101543819151397
 42
0.0
 10
5.886092249433845
 20
6.999338003148682
 42
0.0
 10
6.030633100578301
 20
6.999338003148682
 42
0.1989123673796509
 97
        0
 75
     0
 76
     1
 47
0.0001896584045076
 98
        3
 10
5.93299122737411
 20
6.917750436219303
 10
5.983860312928293
 20
6.949613104663649
 10
5.980064170432363
 20
7.006510668524152
  0
TEXT
  5
248F
330
1F
100
AcDbEntity
  8
PCB_BOT
100
AcDbText
 10
5.684502519857984
 20
6.344901207404118
 30
0.0
 40
0.0598654767621127
  1
PCB_BOT
  7
ROMANS
100
AcDbText
  0
TEXT
  5
2490
330
1F
100
AcDbEntity
  8
PCB_OUTLINE
100
AcDbText
 10
5.684502519857984
 20
6.45502462876492
 30
0.0
 40
0.0598654767621127
  1
PCB_OUTLINE
  7
ROMANS
100
AcDbText
  0
TEXT
  5
2491
330
1F
100
AcDbEntity
  8
PCB_TOP
100
AcDbText
 10
5.684502519857984
 20
6.568651513196519
 30
0.0
 40
0.0598654767621127
  1
PCB_TOP
  7
ROMANS
100
AcDbText
  0
LINE
  5
6D14
330
1F
100
AcDbEntity
  8
PCB_BOT
100
AcDbLine
 10
3.483367266772833
 20
7.589338003148617
 30
0.0
 11
5.431367266772896
 21
7.589338003148673
 31
0.0
  0
LINE
  5
6D15
330
1F
100
AcDbEntity
  8
PCB_BOT
100
AcDbLine
 10
5.431367266772896
 20
7.589338003148673
 30
0.0
 11
5.431367266772896
 21
6.409338003148692
 31
0.0
  0
LINE
  5
6D16
330
1F
100
AcDbEntity
  8
PCB_BOT
100
AcDbLine
 10
5.431367266772896
 20
6.409338003148692
 30
0.0
 11
3.483367266772833
 21
6.409338003148692
 31
0.0
  0
LINE
  5
6D17
330
1F
100
AcDbEntity
  8
PCB_BOT
100
AcDbLine
 10
3.483367266772833
 20
6.409338003148692
 30
0.0
 11
3.483367266772833
 21
7.589338003148617
 31
0.0
  0
CIRCLE
  5
6D46
330
1F
100
AcDbEntity
  8
PCB_OUTLINE
100
AcDbCircle
 10
3.907367266772832
 20
7.054338003148617
 30
0.0
 40
0.0125
  0
CIRCLE
  5
6D47
330
1F
100
AcDbEntity
  8
PCB_OUTLINE
100
AcDbCircle
 10
3.907367266772832
 20
7.109338003148617
 30
0.0
 40
0.0125
  0
CIRCLE
  5
6D48
330
1F
100
AcDbEntity
  8
PCB_OUTLINE
100
AcDbCircle
 10
3.907367266772832
 20
7.164338003148618
 30
0.0
 40
0.0125
  0
CIRCLE
  5
6D49
330
1F
100
AcDbEntity
  8
PCB_OUTLINE
100
AcDbCircle
 10
3.907367266772832
 20
7.219338003148617
 30
0.0
 40
0.0125
  0
CIRCLE
  5
6D4A
330
1F
100
AcDbEntity
  8
PCB_OUTLINE
100
AcDbCircle
 10
3.907367266772832
 20
7.274338003148617
 30
0.0
 40
0.0125
  0
CIRCLE
  5
6D4B
330
1F
100
AcDbEntity
  8
PCB_OUTLINE
100
AcDbCircle
 10
3.907367266772832
 20
7.329338003148618
 30
0.0
 40
0.0125
  0
CIRCLE
  5
6D4C
330
1F
100
AcDbEntity
  8
PCB_OUTLINE
100
AcDbCircle
 10
3.907367266772832
 20
7.384338003148617
 30
0.0
 40
0.0125
  0
CIRCLE
  5
6D4D
330
1F
100
AcDbEntity
  8
PCB_OUTLINE
100
AcDbCircle
 10
3.907367266772832
 20
7.439338003148617
 30
0.0
 40
0.0125
  0
CIRCLE
  5
6D4E
330
1F
100
AcDbEntity
  8
PCB_OUTLINE
100
AcDbCircle
 10
3.907367266772832
 20
7.494338003148617
 30
0.0
 40
0.0125
  0
CIRCLE
  5
6D4F
330
1F
100
AcDbEntity
  8
PCB_OUTLINE
100
AcDbCircle
 10
3.907367266772832
 20
7.549338003148617
 30
0.0
 40
0.0125
  0
CIRCLE
  5
6D50
330
1F
100
AcDbEntity
  8
PCB_OUTLINE
100
AcDbCircle
 10
3.96236726677283
 20
7.054338003148617
 30
0.0
 40
0.0125
  0
CIRCLE
  5
6D51
330
1F
100
AcDbEntity
  8
PCB_OUTLINE
100
AcDbCircle
 10
3.96236726677283
 20
7.109338003148617
 30
0.0
 40
0.0125
  0
CIRCLE
  5
6D52
330
1F
100
AcDbEntity
  8
PCB_OUTLINE
100
AcDbCircle
 10
3.96236726677283
 20
7.164338003148618
 30
0.0
 40
0.0125
  0
CIRCLE
  5
6D53
330
1F
100
AcDbEntity
  8
PCB_OUTLINE
100
AcDbCircle
 10
3.96236726677283
 20
7.219338003148617
 30
0.0
 40
0.0125
  0
CIRCLE
  5
6D54
330
1F
100
AcDbEntity
  8
PCB_OUTLINE
100
AcDbCircle
 10
3.96236726677283
 20
7.274338003148617
 30
0.0
 40
0.0125
  0
CIRCLE
  5
6D55
330
1F
100
AcDbEntity
  8
PCB_OUTLINE
100
AcDbCircle
 10
3.96236726677283
 20
7.329338003148618
 30
0.0
 40
0.0125
  0
CIRCLE
  5
6D56
330
1F
100
AcDbEntity
  8
PCB_OUTLINE
100
AcDbCircle
 10
3.96236726677283
 20
7.384338003148617
 30
0.0
 40
0.0125
  0
CIRCLE
  5
6D57
330
1F
100
AcDbEntity
  8
PCB_OUTLINE
100
AcDbCircle
 10
3.96236726677283
 20
7.439338003148617
 30
0.0
 40
0.0125
  0
CIRCLE
  5
6D58
330
1F
100
AcDbEntity
  8
PCB_OUTLINE
100
AcDbCircle
 10
3.96236726677283
 20
7.494338003148617
 30
0.0
 40
0.0125
  0
CIRCLE
  5
6D59
330
1F
100
AcDbEntity
  8
PCB_OUTLINE
100
AcDbCircle
 10
3.96236726677283
 20
7.549338003148617
 30
0.0
 40
0.0125
  0
CIRCLE
  5
6D5A
330
1F
100
AcDbEntity
  8
PCB_OUTLINE
100
AcDbCircle
 10
4.017367266772832
 20
7.054338003148617
 30
0.0
 40
0.0125
  0
CIRCLE
  5
6D5B
330
1F
100
AcDbEntity
  8
PCB_OUTLINE
100
AcDbCircle
 10
4.017367266772832
 20
7.109338003148617
 30
0.0
 40
0.0125
  0
CIRCLE
  5
6D5C
330
1F
100
AcDbEntity
  8
PCB_OUTLINE
100
AcDbCircle
 10
4.017367266772832
 20
7.164338003148618
 30
0.0
 40
0.0125
  0
CIRCLE
  5
6D5D
330
1F
100
AcDbEntity
  8
PCB_OUTLINE
100
AcDbCircle
 10
4.017367266772832
 20
7.219338003148617
 30
0.0
 40
0.0125
  0
CIRCLE
  5
6D5E
330
1F
100
AcDbEntity
  8
PCB_OUTLINE
100
AcDbCircle
 10
4.017367266772832
 20
7.274338003148617
 30
0.0
 40
0.0125
  0
CIRCLE
  5
6D5F
330
1F
100
AcDbEntity
  8
PCB_OUTLINE
100
AcDbCircle
 10
4.017367266772832
 20
7.329338003148618
 30
0.0
 40
0.0125
  0
CIRCLE
  5
6D60
330
1F
100
AcDbEntity
  8
PCB_OUTLINE
100
AcDbCircle
 10
4.017367266772832
 20
7.384338003148617
 30
0.0
 40
0.0125
  0
CIRCLE
  5
6D61
330
1F
100
AcDbEntity
  8
PCB_OUTLINE
100
AcDbCircle
 10
4.017367266772832
 20
7.439338003148617
 30
0.0
 40
0.0125
  0
CIRCLE
  5
6D62
330
1F
100
AcDbEntity
  8
PCB_OUTLINE
100
AcDbCircle
 10
4.017367266772832
 20
7.494338003148617
 30
0.0
 40
0.0125
  0
CIRCLE
  5
6D63
330
1F
100
AcDbEntity
  8
PCB_OUTLINE
100
AcDbCircle
 10
4.017367266772832
 20
7.549338003148617
 30
0.0
 40
0.0125
  0
CIRCLE
  5
6D64
330
1F
100
AcDbEntity
  8
PCB_OUTLINE
100
AcDbCircle
 10
4.072367266772832
 20
7.054338003148617
 30
0.0
 40
0.0125
  0
CIRCLE
  5
6D65
330
1F
100
AcDbEntity
  8
PCB_OUTLINE
100
AcDbCircle
 10
4.072367266772832
 20
7.109338003148617
 30
0.0
 40
0.0125
  0
CIRCLE
  5
6D66
330
1F
100
AcDbEntity
  8
PCB_OUTLINE
100
AcDbCircle
 10
4.072367266772832
 20
7.164338003148618
 30
0.0
 40
0.0125
  0
CIRCLE
  5
6D67
330
1F
100
AcDbEntity
  8
PCB_OUTLINE
100
AcDbCircle
 10
4.072367266772832
 20
7.219338003148617
 30
0.0
 40
0.0125
  0
CIRCLE
  5
6D68
330
1F
100
AcDbEntity
  8
PCB_OUTLINE
100
AcDbCircle
 10
4.072367266772832
 20
7.274338003148617
 30
0.0
 40
0.0125
  0
CIRCLE
  5
6D69
330
1F
100
AcDbEntity
  8
PCB_OUTLINE
100
AcDbCircle
 10
4.072367266772832
 20
7.329338003148618
 30
0.0
 40
0.0125
  0
CIRCLE
  5
6D6A
330
1F
100
AcDbEntity
  8
PCB_OUTLINE
100
AcDbCircle
 10
4.072367266772832
 20
7.384338003148617
 30
0.0
 40
0.0125
  0
CIRCLE
  5
6D6B
330
1F
100
AcDbEntity
  8
PCB_OUTLINE
100
AcDbCircle
 10
4.072367266772832
 20
7.439338003148617
 30
0.0
 40
0.0125
  0
CIRCLE
  5
6D6C
330
1F
100
AcDbEntity
  8
PCB_OUTLINE
100
AcDbCircle
 10
4.072367266772832
 20
7.494338003148617
 30
0.0
 40
0.0125
  0
CIRCLE
  5
6D6D
330
1F
100
AcDbEntity
  8
PCB_OUTLINE
100
AcDbCircle
 10
4.072367266772832
 20
7.549338003148617
 30
0.0
 40
0.0125
  0
CIRCLE
  5
6D6E
330
1F
100
AcDbEntity
  8
PCB_OUTLINE
100
AcDbCircle
 10
4.12736726677283
 20
7.054338003148617
 30
0.0
 40
0.0125
  0
CIRCLE
  5
6D6F
330
1F
100
AcDbEntity
  8
PCB_OUTLINE
100
AcDbCircle
 10
4.12736726677283
 20
7.109338003148617
 30
0.0
 40
0.0125
  0
CIRCLE
  5
6D70
330
1F
100
AcDbEntity
  8
PCB_OUTLINE
100
AcDbCircle
 10
4.12736726677283
 20
7.164338003148618
 30
0.0
 40
0.0125
  0
CIRCLE
  5
6D71
330
1F
100
AcDbEntity
  8
PCB_OUTLINE
100
AcDbCircle
 10
4.12736726677283
 20
7.219338003148617
 30
0.0
 40
0.0125
  0
CIRCLE
  5
6D72
330
1F
100
AcDbEntity
  8
PCB_OUTLINE
100
AcDbCircle
 10
4.12736726677283
 20
7.274338003148617
 30
0.0
 40
0.0125
  0
CIRCLE
  5
6D73
330
1F
100
AcDbEntity
  8
PCB_OUTLINE
100
AcDbCircle
 10
4.12736726677283
 20
7.329338003148618
 30
0.0
 40
0.0125
  0
CIRCLE
  5
6D74
330
1F
100
AcDbEntity
  8
PCB_OUTLINE
100
AcDbCircle
 10
4.12736726677283
 20
7.384338003148617
 30
0.0
 40
0.0125
  0
CIRCLE
  5
6D75
330
1F
100
AcDbEntity
  8
PCB_OUTLINE
100
AcDbCircle
 10
4.12736726677283
 20
7.439338003148617
 30
0.0
 40
0.0125
  0
CIRCLE
  5
6D76
330
1F
100
AcDbEntity
  8
PCB_OUTLINE
100
AcDbCircle
 10
4.12736726677283
 20
7.494338003148617
 30
0.0
 40
0.0125
  0
CIRCLE
  5
6D77
330
1F
100
AcDbEntity
  8
PCB_OUTLINE
100
AcDbCircle
 10
4.12736726677283
 20
7.549338003148617
 30
0.0
 40
0.0125
  0
CIRCLE
  5
6D78
330
1F
100
AcDbEntity
  8
PCB_OUTLINE
100
AcDbCircle
 10
4.182367266772832
 20
7.054338003148617
 30
0.0
 40
0.0125
  0
CIRCLE
  5
6D79
330
1F
100
AcDbEntity
  8
PCB_OUTLINE
100
AcDbCircle
 10
4.182367266772832
 20
7.109338003148617
 30
0.0
 40
0.0125
  0
CIRCLE
  5
6D7A
330
1F
100
AcDbEntity
  8
PCB_OUTLINE
100
AcDbCircle
 10
4.182367266772832
 20
7.164338003148618
 30
0.0
 40
0.0125
  0
CIRCLE
  5
6D7B
330
1F
100
AcDbEntity
  8
PCB_OUTLINE
100
AcDbCircle
 10
4.182367266772832
 20
7.219338003148617
 30
0.0
 40
0.0125
  0
CIRCLE
  5
6D7C
330
1F
100
AcDbEntity
  8
PCB_OUTLINE
100
AcDbCircle
 10
4.182367266772832
 20
7.274338003148617
 30
0.0
 40
0.0125
  0
CIRCLE
  5
6D7D
330
1F
100
AcDbEntity
  8
PCB_OUTLINE
100
AcDbCircle
 10
4.182367266772832
 20
7.329338003148618
 30
0.0
 40
0.0125
  0
CIRCLE
  5
6D7E
330
1F
100
AcDbEntity
  8
PCB_OUTLINE
100
AcDbCircle
 10
4.182367266772832
 20
7.384338003148617
 30
0.0
 40
0.0125
  0
CIRCLE
  5
6D7F
330
1F
100
AcDbEntity
  8
PCB_OUTLINE
100
AcDbCircle
 10
4.182367266772832
 20
7.439338003148617
 30
0.0
 40
0.0125
  0
CIRCLE
  5
6D80
330
1F
100
AcDbEntity
  8
PCB_OUTLINE
100
AcDbCircle
 10
4.182367266772832
 20
7.494338003148617
 30
0.0
 40
0.0125
  0
CIRCLE
  5
6D81
330
1F
100
AcDbEntity
  8
PCB_OUTLINE
100
AcDbCircle
 10
4.182367266772832
 20
7.549338003148617
 30
0.0
 40
0.0125
  0
CIRCLE
  5
6D82
330
1F
100
AcDbEntity
  8
PCB_OUTLINE
100
AcDbCircle
 10
4.237367266772832
 20
7.054338003148617
 30
0.0
 40
0.0125
  0
CIRCLE
  5
6D83
330
1F
100
AcDbEntity
  8
PCB_OUTLINE
100
AcDbCircle
 10
4.237367266772832
 20
7.109338003148617
 30
0.0
 40
0.0125
  0
CIRCLE
  5
6D84
330
1F
100
AcDbEntity
  8
PCB_OUTLINE
100
AcDbCircle
 10
4.237367266772832
 20
7.164338003148618
 30
0.0
 40
0.0125
  0
CIRCLE
  5
6D85
330
1F
100
AcDbEntity
  8
PCB_OUTLINE
100
AcDbCircle
 10
4.237367266772832
 20
7.219338003148617
 30
0.0
 40
0.0125
  0
CIRCLE
  5
6D86
330
1F
100
AcDbEntity
  8
PCB_OUTLINE
100
AcDbCircle
 10
4.237367266772832
 20
7.274338003148617
 30
0.0
 40
0.0125
  0
CIRCLE
  5
6D87
330
1F
100
AcDbEntity
  8
PCB_OUTLINE
100
AcDbCircle
 10
4.237367266772832
 20
7.329338003148618
 30
0.0
 40
0.0125
  0
CIRCLE
  5
6D88
330
1F
100
AcDbEntity
  8
PCB_OUTLINE
100
AcDbCircle
 10
4.237367266772832
 20
7.384338003148617
 30
0.0
 40
0.0125
  0
CIRCLE
  5
6D89
330
1F
100
AcDbEntity
  8
PCB_OUTLINE
100
AcDbCircle
 10
4.237367266772832
 20
7.439338003148617
 30
0.0
 40
0.0125
  0
CIRCLE
  5
6D8A
330
1F
100
AcDbEntity
  8
PCB_OUTLINE
100
AcDbCircle
 10
4.237367266772832
 20
7.494338003148617
 30
0.0
 40
0.0125
  0
CIRCLE
  5
6D8B
330
1F
100
AcDbEntity
  8
PCB_OUTLINE
100
AcDbCircle
 10
4.237367266772832
 20
7.549338003148617
 30
0.0
 40
0.0125
  0
CIRCLE
  5
6D8C
330
1F
100
AcDbEntity
  8
PCB_OUTLINE
100
AcDbCircle
 10
4.29236726677283
 20
7.054338003148617
 30
0.0
 40
0.0125
  0
CIRCLE
  5
6D8D
330
1F
100
AcDbEntity
  8
PCB_OUTLINE
100
AcDbCircle
 10
4.29236726677283
 20
7.109338003148617
 30
0.0
 40
0.0125
  0
CIRCLE
  5
6D8E
330
1F
100
AcDbEntity
  8
PCB_OUTLINE
100
AcDbCircle
 10
4.29236726677283
 20
7.164338003148618
 30
0.0
 40
0.0125
  0
CIRCLE
  5
6D8F
330
1F
100
AcDbEntity
  8
PCB_OUTLINE
100
AcDbCircle
 10
4.29236726677283
 20
7.219338003148617
 30
0.0
 40
0.0125
  0
CIRCLE
  5
6D90
330
1F
100
AcDbEntity
  8
PCB_OUTLINE
100
AcDbCircle
 10
4.29236726677283
 20
7.274338003148617
 30
0.0
 40
0.0125
  0
CIRCLE
  5
6D91
330
1F
100
AcDbEntity
  8
PCB_OUTLINE
100
AcDbCircle
 10
4.29236726677283
 20
7.329338003148618
 30
0.0
 40
0.0125
  0
CIRCLE
  5
6D92
330
1F
100
AcDbEntity
  8
PCB_OUTLINE
100
AcDbCircle
 10
4.29236726677283
 20
7.384338003148617
 30
0.0
 40
0.0125
  0
CIRCLE
  5
6D93
330
1F
100
AcDbEntity
  8
PCB_OUTLINE
100
AcDbCircle
 10
4.29236726677283
 20
7.439338003148617
 30
0.0
 40
0.0125
  0
CIRCLE
  5
6D94
330
1F
100
AcDbEntity
  8
PCB_OUTLINE
100
AcDbCircle
 10
4.29236726677283
 20
7.494338003148617
 30
0.0
 40
0.0125
  0
CIRCLE
  5
6D95
330
1F
100
AcDbEntity
  8
PCB_OUTLINE
100
AcDbCircle
 10
4.29236726677283
 20
7.549338003148617
 30
0.0
 40
0.0125
  0
CIRCLE
  5
6D96
330
1F
100
AcDbEntity
  8
PCB_OUTLINE
100
AcDbCircle
 10
4.347367266772832
 20
7.054338003148617
 30
0.0
 40
0.0125
  0
CIRCLE
  5
6D97
330
1F
100
AcDbEntity
  8
PCB_OUTLINE
100
AcDbCircle
 10
4.347367266772832
 20
7.109338003148617
 30
0.0
 40
0.0125
  0
CIRCLE
  5
6D98
330
1F
100
AcDbEntity
  8
PCB_OUTLINE
100
AcDbCircle
 10
4.347367266772832
 20
7.164338003148618
 30
0.0
 40
0.0125
  0
CIRCLE
  5
6D99
330
1F
100
AcDbEntity
  8
PCB_OUTLINE
100
AcDbCircle
 10
4.347367266772832
 20
7.219338003148617
 30
0.0
 40
0.0125
  0
CIRCLE
  5
6D9A
330
1F
100
AcDbEntity
  8
PCB_OUTLINE
100
AcDbCircle
 10
4.347367266772832
 20
7.274338003148617
 30
0.0
 40
0.0125
  0
CIRCLE
  5
6D9B
330
1F
100
AcDbEntity
  8
PCB_OUTLINE
100
AcDbCircle
 10
4.347367266772832
 20
7.329338003148618
 30
0.0
 40
0.0125
  0
CIRCLE
  5
6D9C
330
1F
100
AcDbEntity
  8
PCB_OUTLINE
100
AcDbCircle
 10
4.347367266772832
 20
7.384338003148617
 30
0.0
 40
0.0125
  0
CIRCLE
  5
6D9D
330
1F
100
AcDbEntity
  8
PCB_OUTLINE
100
AcDbCircle
 10
4.347367266772832
 20
7.439338003148617
 30
0.0
 40
0.0125
  0
CIRCLE
  5
6D9E
330
1F
100
AcDbEntity
  8
PCB_OUTLINE
100
AcDbCircle
 10
4.347367266772832
 20
7.494338003148617
 30
0.0
 40
0.0125
  0
CIRCLE
  5
6D9F
330
1F
100
AcDbEntity
  8
PCB_OUTLINE
100
AcDbCircle
 10
4.347367266772832
 20
7.549338003148617
 30
0.0
 40
0.0125
  0
CIRCLE
  5
6DA0
330
1F
100
AcDbEntity
  8
PCB_OUTLINE
100
AcDbCircle
 10
4.402367266772832
 20
7.054338003148617
 30
0.0
 40
0.0125
  0
CIRCLE
  5
6DA1
330
1F
100
AcDbEntity
  8
PCB_OUTLINE
100
AcDbCircle
 10
4.402367266772832
 20
7.109338003148617
 30
0.0
 40
0.0125
  0
CIRCLE
  5
6DA2
330
1F
100
AcDbEntity
  8
PCB_OUTLINE
100
AcDbCircle
 10
4.402367266772832
 20
7.164338003148618
 30
0.0
 40
0.0125
  0
CIRCLE
  5
6DA3
330
1F
100
AcDbEntity
  8
PCB_OUTLINE
100
AcDbCircle
 10
4.402367266772832
 20
7.219338003148617
 30
0.0
 40
0.0125
  0
CIRCLE
  5
6DA4
330
1F
100
AcDbEntity
  8
PCB_OUTLINE
100
AcDbCircle
 10
4.402367266772832
 20
7.274338003148617
 30
0.0
 40
0.0125
  0
CIRCLE
  5
6DA5
330
1F
100
AcDbEntity
  8
PCB_OUTLINE
100
AcDbCircle
 10
4.402367266772832
 20
7.329338003148618
 30
0.0
 40
0.0125
  0
CIRCLE
  5
6DA6
330
1F
100
AcDbEntity
  8
PCB_OUTLINE
100
AcDbCircle
 10
4.402367266772832
 20
7.384338003148617
 30
0.0
 40
0.0125
  0
CIRCLE
  5
6DA7
330
1F
100
AcDbEntity
  8
PCB_OUTLINE
100
AcDbCircle
 10
4.402367266772832
 20
7.439338003148617
 30
0.0
 40
0.0125
  0
CIRCLE
  5
6DA8
330
1F
100
AcDbEntity
  8
PCB_OUTLINE
100
AcDbCircle
 10
4.402367266772832
 20
7.494338003148617
 30
0.0
 40
0.0125
  0
CIRCLE
  5
6DA9
330
1F
100
AcDbEntity
  8
PCB_OUTLINE
100
AcDbCircle
 10
4.402367266772832
 20
7.549338003148617
 30
0.0
 40
0.0125
  0
CIRCLE
  5
6DAA
330
1F
100
AcDbEntity
  8
PCB_OUTLINE
100
AcDbCircle
 10
4.842367266772829
 20
7.054338003148617
 30
0.0
 40
0.0125
  0
CIRCLE
  5
6DAB
330
1F
100
AcDbEntity
  8
PCB_OUTLINE
100
AcDbCircle
 10
4.842367266772829
 20
7.109338003148617
 30
0.0
 40
0.0125
  0
CIRCLE
  5
6DAC
330
1F
100
AcDbEntity
  8
PCB_OUTLINE
100
AcDbCircle
 10
4.842367266772829
 20
7.164338003148618
 30
0.0
 40
0.0125
  0
CIRCLE
  5
6DAD
330
1F
100
AcDbEntity
  8
PCB_OUTLINE
100
AcDbCircle
 10
4.842367266772829
 20
7.219338003148617
 30
0.0
 40
0.0125
  0
CIRCLE
  5
6DAE
330
1F
100
AcDbEntity
  8
PCB_OUTLINE
100
AcDbCircle
 10
4.842367266772829
 20
7.274338003148617
 30
0.0
 40
0.0125
  0
CIRCLE
  5
6DAF
330
1F
100
AcDbEntity
  8
PCB_OUTLINE
100
AcDbCircle
 10
4.842367266772829
 20
7.329338003148618
 30
0.0
 40
0.0125
  0
CIRCLE
  5
6DB0
330
1F
100
AcDbEntity
  8
PCB_OUTLINE
100
AcDbCircle
 10
4.842367266772829
 20
7.384338003148617
 30
0.0
 40
0.0125
  0
CIRCLE
  5
6DB1
330
1F
100
AcDbEntity
  8
PCB_OUTLINE
100
AcDbCircle
 10
4.842367266772829
 20
7.439338003148617
 30
0.0
 40
0.0125
  0
CIRCLE
  5
6DB2
330
1F
100
AcDbEntity
  8
PCB_OUTLINE
100
AcDbCircle
 10
4.842367266772829
 20
7.494338003148617
 30
0.0
 40
0.0125
  0
CIRCLE
  5
6DB3
330
1F
100
AcDbEntity
  8
PCB_OUTLINE
100
AcDbCircle
 10
4.842367266772829
 20
7.549338003148617
 30
0.0
 40
0.0125
  0
CIRCLE
  5
6DB4
330
1F
100
AcDbEntity
  8
PCB_OUTLINE
100
AcDbCircle
 10
4.787367266772831
 20
7.054338003148617
 30
0.0
 40
0.0125
  0
CIRCLE
  5
6DB5
330
1F
100
AcDbEntity
  8
PCB_OUTLINE
100
AcDbCircle
 10
4.787367266772831
 20
7.109338003148617
 30
0.0
 40
0.0125
  0
CIRCLE
  5
6DB6
330
1F
100
AcDbEntity
  8
PCB_OUTLINE
100
AcDbCircle
 10
4.787367266772831
 20
7.164338003148618
 30
0.0
 40
0.0125
  0
CIRCLE
  5
6DB7
330
1F
100
AcDbEntity
  8
PCB_OUTLINE
100
AcDbCircle
 10
4.787367266772831
 20
7.219338003148617
 30
0.0
 40
0.0125
  0
CIRCLE
  5
6DB8
330
1F
100
AcDbEntity
  8
PCB_OUTLINE
100
AcDbCircle
 10
4.787367266772831
 20
7.274338003148617
 30
0.0
 40
0.0125
  0
CIRCLE
  5
6DB9
330
1F
100
AcDbEntity
  8
PCB_OUTLINE
100
AcDbCircle
 10
4.787367266772831
 20
7.329338003148618
 30
0.0
 40
0.0125
  0
CIRCLE
  5
6DBA
330
1F
100
AcDbEntity
  8
PCB_OUTLINE
100
AcDbCircle
 10
4.787367266772831
 20
7.384338003148617
 30
0.0
 40
0.0125
  0
CIRCLE
  5
6DBB
330
1F
100
AcDbEntity
  8
PCB_OUTLINE
100
AcDbCircle
 10
4.787367266772831
 20
7.439338003148617
 30
0.0
 40
0.0125
  0
CIRCLE
  5
6DBC
330
1F
100
AcDbEntity
  8
PCB_OUTLINE
100
AcDbCircle
 10
4.787367266772831
 20
7.494338003148617
 30
0.0
 40
0.0125
  0
CIRCLE
  5
6DBD
330
1F
100
AcDbEntity
  8
PCB_OUTLINE
100
AcDbCircle
 10
4.787367266772831
 20
7.549338003148617
 30
0.0
 40
0.0125
  0
CIRCLE
  5
6DBE
330
1F
100
AcDbEntity
  8
PCB_OUTLINE
100
AcDbCircle
 10
4.732367266772832
 20
7.054338003148617
 30
0.0
 40
0.0125
  0
CIRCLE
  5
6DBF
330
1F
100
AcDbEntity
  8
PCB_OUTLINE
100
AcDbCircle
 10
4.732367266772832
 20
7.109338003148617
 30
0.0
 40
0.0125
  0
CIRCLE
  5
6DC0
330
1F
100
AcDbEntity
  8
PCB_OUTLINE
100
AcDbCircle
 10
4.732367266772832
 20
7.164338003148618
 30
0.0
 40
0.0125
  0
CIRCLE
  5
6DC1
330
1F
100
AcDbEntity
  8
PCB_OUTLINE
100
AcDbCircle
 10
4.732367266772832
 20
7.219338003148617
 30
0.0
 40
0.0125
  0
CIRCLE
  5
6DC2
330
1F
100
AcDbEntity
  8
PCB_OUTLINE
100
AcDbCircle
 10
4.732367266772832
 20
7.274338003148617
 30
0.0
 40
0.0125
  0
CIRCLE
  5
6DC3
330
1F
100
AcDbEntity
  8
PCB_OUTLINE
100
AcDbCircle
 10
4.732367266772832
 20
7.329338003148618
 30
0.0
 40
0.0125
  0
CIRCLE
  5
6DC4
330
1F
100
AcDbEntity
  8
PCB_OUTLINE
100
AcDbCircle
 10
4.732367266772832
 20
7.384338003148617
 30
0.0
 40
0.0125
  0
CIRCLE
  5
6DC5
330
1F
100
AcDbEntity
  8
PCB_OUTLINE
100
AcDbCircle
 10
4.732367266772832
 20
7.439338003148617
 30
0.0
 40
0.0125
  0
CIRCLE
  5
6DC6
330
1F
100
AcDbEntity
  8
PCB_OUTLINE
100
AcDbCircle
 10
4.732367266772832
 20
7.494338003148617
 30
0.0
 40
0.0125
  0
CIRCLE
  5
6DC7
330
1F
100
AcDbEntity
  8
PCB_OUTLINE
100
AcDbCircle
 10
4.732367266772832
 20
7.549338003148617
 30
0.0
 40
0.0125
  0
CIRCLE
  5
6DC8
330
1F
100
AcDbEntity
  8
PCB_OUTLINE
100
AcDbCircle
 10
4.677367266772832
 20
7.054338003148617
 30
0.0
 40
0.0125
  0
CIRCLE
  5
6DC9
330
1F
100
AcDbEntity
  8
PCB_OUTLINE
100
AcDbCircle
 10
4.677367266772832
 20
7.109338003148617
 30
0.0
 40
0.0125
  0
CIRCLE
  5
6DCA
330
1F
100
AcDbEntity
  8
PCB_OUTLINE
100
AcDbCircle
 10
4.677367266772832
 20
7.164338003148618
 30
0.0
 40
0.0125
  0
CIRCLE
  5
6DCB
330
1F
100
AcDbEntity
  8
PCB_OUTLINE
100
AcDbCircle
 10
4.677367266772832
 20
7.219338003148617
 30
0.0
 40
0.0125
  0
CIRCLE
  5
6DCC
330
1F
100
AcDbEntity
  8
PCB_OUTLINE
100
AcDbCircle
 10
4.677367266772832
 20
7.274338003148617
 30
0.0
 40
0.0125
  0
CIRCLE
  5
6DCD
330
1F
100
AcDbEntity
  8
PCB_OUTLINE
100
AcDbCircle
 10
4.677367266772832
 20
7.329338003148618
 30
0.0
 40
0.0125
  0
CIRCLE
  5
6DCE
330
1F
100
AcDbEntity
  8
PCB_OUTLINE
100
AcDbCircle
 10
4.677367266772832
 20
7.384338003148617
 30
0.0
 40
0.0125
  0
CIRCLE
  5
6DCF
330
1F
100
AcDbEntity
  8
PCB_OUTLINE
100
AcDbCircle
 10
4.677367266772832
 20
7.439338003148617
 30
0.0
 40
0.0125
  0
CIRCLE
  5
6DD0
330
1F
100
AcDbEntity
  8
PCB_OUTLINE
100
AcDbCircle
 10
4.677367266772832
 20
7.494338003148617
 30
0.0
 40
0.0125
  0
CIRCLE
  5
6DD1
330
1F
100
AcDbEntity
  8
PCB_OUTLINE
100
AcDbCircle
 10
4.677367266772832
 20
7.549338003148617
 30
0.0
 40
0.0125
  0
CIRCLE
  5
6DD2
330
1F
100
AcDbEntity
  8
PCB_OUTLINE
100
AcDbCircle
 10
4.622367266772831
 20
7.054338003148617
 30
0.0
 40
0.0125
  0
CIRCLE
  5
6DD3
330
1F
100
AcDbEntity
  8
PCB_OUTLINE
100
AcDbCircle
 10
4.622367266772831
 20
7.109338003148617
 30
0.0
 40
0.0125
  0
CIRCLE
  5
6DD4
330
1F
100
AcDbEntity
  8
PCB_OUTLINE
100
AcDbCircle
 10
4.622367266772831
 20
7.164338003148618
 30
0.0
 40
0.0125
  0
CIRCLE
  5
6DD5
330
1F
100
AcDbEntity
  8
PCB_OUTLINE
100
AcDbCircle
 10
4.622367266772831
 20
7.219338003148617
 30
0.0
 40
0.0125
  0
CIRCLE
  5
6DD6
330
1F
100
AcDbEntity
  8
PCB_OUTLINE
100
AcDbCircle
 10
4.622367266772831
 20
7.274338003148617
 30
0.0
 40
0.0125
  0
CIRCLE
  5
6DD7
330
1F
100
AcDbEntity
  8
PCB_OUTLINE
100
AcDbCircle
 10
4.622367266772831
 20
7.329338003148618
 30
0.0
 40
0.0125
  0
CIRCLE
  5
6DD8
330
1F
100
AcDbEntity
  8
PCB_OUTLINE
100
AcDbCircle
 10
4.622367266772831
 20
7.384338003148617
 30
0.0
 40
0.0125
  0
CIRCLE
  5
6DD9
330
1F
100
AcDbEntity
  8
PCB_OUTLINE
100
AcDbCircle
 10
4.622367266772831
 20
7.439338003148617
 30
0.0
 40
0.0125
  0
CIRCLE
  5
6DDA
330
1F
100
AcDbEntity
  8
PCB_OUTLINE
100
AcDbCircle
 10
4.622367266772831
 20
7.494338003148617
 30
0.0
 40
0.0125
  0
CIRCLE
  5
6DDB
330
1F
100
AcDbEntity
  8
PCB_OUTLINE
100
AcDbCircle
 10
4.622367266772831
 20
7.549338003148617
 30
0.0
 40
0.0125
  0
CIRCLE
  5
6DDC
330
1F
100
AcDbEntity
  8
PCB_OUTLINE
100
AcDbCircle
 10
4.567367266772832
 20
7.054338003148617
 30
0.0
 40
0.0125
  0
CIRCLE
  5
6DDD
330
1F
100
AcDbEntity
  8
PCB_OUTLINE
100
AcDbCircle
 10
4.567367266772832
 20
7.109338003148617
 30
0.0
 40
0.0125
  0
CIRCLE
  5
6DDE
330
1F
100
AcDbEntity
  8
PCB_OUTLINE
100
AcDbCircle
 10
4.567367266772832
 20
7.164338003148618
 30
0.0
 40
0.0125
  0
CIRCLE
  5
6DDF
330
1F
100
AcDbEntity
  8
PCB_OUTLINE
100
AcDbCircle
 10
4.567367266772832
 20
7.219338003148617
 30
0.0
 40
0.0125
  0
CIRCLE
  5
6DE0
330
1F
100
AcDbEntity
  8
PCB_OUTLINE
100
AcDbCircle
 10
4.567367266772832
 20
7.274338003148617
 30
0.0
 40
0.0125
  0
CIRCLE
  5
6DE1
330
1F
100
AcDbEntity
  8
PCB_OUTLINE
100
AcDbCircle
 10
4.567367266772832
 20
7.329338003148618
 30
0.0
 40
0.0125
  0
CIRCLE
  5
6DE2
330
1F
100
AcDbEntity
  8
PCB_OUTLINE
100
AcDbCircle
 10
4.567367266772832
 20
7.384338003148617
 30
0.0
 40
0.0125
  0
CIRCLE
  5
6DE3
330
1F
100
AcDbEntity
  8
PCB_OUTLINE
100
AcDbCircle
 10
4.567367266772832
 20
7.439338003148617
 30
0.0
 40
0.0125
  0
CIRCLE
  5
6DE4
330
1F
100
AcDbEntity
  8
PCB_OUTLINE
100
AcDbCircle
 10
4.567367266772832
 20
7.494338003148617
 30
0.0
 40
0.0125
  0
CIRCLE
  5
6DE5
330
1F
100
AcDbEntity
  8
PCB_OUTLINE
100
AcDbCircle
 10
4.567367266772832
 20
7.549338003148617
 30
0.0
 40
0.0125
  0
CIRCLE
  5
6DE6
330
1F
100
AcDbEntity
  8
PCB_OUTLINE
100
AcDbCircle
 10
4.512367266772832
 20
7.054338003148617
 30
0.0
 40
0.0125
  0
CIRCLE
  5
6DE7
330
1F
100
AcDbEntity
  8
PCB_OUTLINE
100
AcDbCircle
 10
4.512367266772832
 20
7.109338003148617
 30
0.0
 40
0.0125
  0
CIRCLE
  5
6DE8
330
1F
100
AcDbEntity
  8
PCB_OUTLINE
100
AcDbCircle
 10
4.512367266772832
 20
7.164338003148618
 30
0.0
 40
0.0125
  0
CIRCLE
  5
6DE9
330
1F
100
AcDbEntity
  8
PCB_OUTLINE
100
AcDbCircle
 10
4.512367266772832
 20
7.219338003148617
 30
0.0
 40
0.0125
  0
CIRCLE
  5
6DEA
330
1F
100
AcDbEntity
  8
PCB_OUTLINE
100
AcDbCircle
 10
4.512367266772832
 20
7.274338003148617
 30
0.0
 40
0.0125
  0
CIRCLE
  5
6DEB
330
1F
100
AcDbEntity
  8
PCB_OUTLINE
100
AcDbCircle
 10
4.512367266772832
 20
7.329338003148618
 30
0.0
 40
0.0125
  0
CIRCLE
  5
6DEC
330
1F
100
AcDbEntity
  8
PCB_OUTLINE
100
AcDbCircle
 10
4.512367266772832
 20
7.384338003148617
 30
0.0
 40
0.0125
  0
CIRCLE
  5
6DED
330
1F
100
AcDbEntity
  8
PCB_OUTLINE
100
AcDbCircle
 10
4.512367266772832
 20
7.439338003148617
 30
0.0
 40
0.0125
  0
CIRCLE
  5
6DEE
330
1F
100
AcDbEntity
  8
PCB_OUTLINE
100
AcDbCircle
 10
4.512367266772832
 20
7.494338003148617
 30
0.0
 40
0.0125
  0
CIRCLE
  5
6DEF
330
1F
100
AcDbEntity
  8
PCB_OUTLINE
100
AcDbCircle
 10
4.512367266772832
 20
7.549338003148617
 30
0.0
 40
0.0125
  0
CIRCLE
  5
6DF0
330
1F
100
AcDbEntity
  8
PCB_OUTLINE
100
AcDbCircle
 10
4.457367266772831
 20
7.054338003148617
 30
0.0
 40
0.0125
  0
CIRCLE
  5
6DF1
330
1F
100
AcDbEntity
  8
PCB_OUTLINE
100
AcDbCircle
 10
4.457367266772831
 20
7.109338003148617
 30
0.0
 40
0.0125
  0
CIRCLE
  5
6DF2
330
1F
100
AcDbEntity
  8
PCB_OUTLINE
100
AcDbCircle
 10
4.457367266772831
 20
7.164338003148618
 30
0.0
 40
0.0125
  0
CIRCLE
  5
6DF3
330
1F
100
AcDbEntity
  8
PCB_OUTLINE
100
AcDbCircle
 10
4.457367266772831
 20
7.219338003148617
 30
0.0
 40
0.0125
  0
CIRCLE
  5
6DF4
330
1F
100
AcDbEntity
  8
PCB_OUTLINE
100
AcDbCircle
 10
4.457367266772831
 20
7.274338003148617
 30
0.0
 40
0.0125
  0
CIRCLE
  5
6DF5
330
1F
100
AcDbEntity
  8
PCB_OUTLINE
100
AcDbCircle
 10
4.457367266772831
 20
7.329338003148618
 30
0.0
 40
0.0125
  0
CIRCLE
  5
6DF6
330
1F
100
AcDbEntity
  8
PCB_OUTLINE
100
AcDbCircle
 10
4.457367266772831
 20
7.384338003148617
 30
0.0
 40
0.0125
  0
CIRCLE
  5
6DF7
330
1F
100
AcDbEntity
  8
PCB_OUTLINE
100
AcDbCircle
 10
4.457367266772831
 20
7.439338003148617
 30
0.0
 40
0.0125
  0
CIRCLE
  5
6DF8
330
1F
100
AcDbEntity
  8
PCB_OUTLINE
100
AcDbCircle
 10
4.457367266772831
 20
7.494338003148617
 30
0.0
 40
0.0125
  0
CIRCLE
  5
6DF9
330
1F
100
AcDbEntity
  8
PCB_OUTLINE
100
AcDbCircle
 10
4.457367266772831
 20
7.549338003148617
 30
0.0
 40
0.0125
  0
CIRCLE
  5
6DFA
330
1F
100
AcDbEntity
  8
PCB_OUTLINE
100
AcDbCircle
 10
4.897367266772834
 20
7.054338003148617
 30
0.0
 40
0.0125
  0
CIRCLE
  5
6DFB
330
1F
100
AcDbEntity
  8
PCB_OUTLINE
100
AcDbCircle
 10
4.897367266772834
 20
7.109338003148617
 30
0.0
 40
0.0125
  0
CIRCLE
  5
6DFC
330
1F
100
AcDbEntity
  8
PCB_OUTLINE
100
AcDbCircle
 10
4.897367266772834
 20
7.164338003148618
 30
0.0
 40
0.0125
  0
CIRCLE
  5
6DFD
330
1F
100
AcDbEntity
  8
PCB_OUTLINE
100
AcDbCircle
 10
4.897367266772834
 20
7.219338003148617
 30
0.0
 40
0.0125
  0
CIRCLE
  5
6DFE
330
1F
100
AcDbEntity
  8
PCB_OUTLINE
100
AcDbCircle
 10
4.897367266772834
 20
7.274338003148617
 30
0.0
 40
0.0125
  0
CIRCLE
  5
6DFF
330
1F
100
AcDbEntity
  8
PCB_OUTLINE
100
AcDbCircle
 10
4.897367266772834
 20
7.329338003148618
 30
0.0
 40
0.0125
  0
CIRCLE
  5
6E00
330
1F
100
AcDbEntity
  8
PCB_OUTLINE
100
AcDbCircle
 10
4.897367266772834
 20
7.384338003148617
 30
0.0
 40
0.0125
  0
CIRCLE
  5
6E01
330
1F
100
AcDbEntity
  8
PCB_OUTLINE
100
AcDbCircle
 10
4.897367266772834
 20
7.439338003148617
 30
0.0
 40
0.0125
  0
CIRCLE
  5
6E02
330
1F
100
AcDbEntity
  8
PCB_OUTLINE
100
AcDbCircle
 10
4.897367266772834
 20
7.494338003148617
 30
0.0
 40
0.0125
  0
CIRCLE
  5
6E03
330
1F
100
AcDbEntity
  8
PCB_OUTLINE
100
AcDbCircle
 10
4.897367266772834
 20
7.549338003148617
 30
0.0
 40
0.0125
  0
CIRCLE
  5
6E04
330
1F
100
AcDbEntity
  8
PCB_OUTLINE
100
AcDbCircle
 10
4.952367266772832
 20
7.054338003148617
 30
0.0
 40
0.0125
  0
CIRCLE
  5
6E05
330
1F
100
AcDbEntity
  8
PCB_OUTLINE
100
AcDbCircle
 10
4.952367266772832
 20
7.109338003148617
 30
0.0
 40
0.0125
  0
CIRCLE
  5
6E06
330
1F
100
AcDbEntity
  8
PCB_OUTLINE
100
AcDbCircle
 10
4.952367266772832
 20
7.164338003148618
 30
0.0
 40
0.0125
  0
CIRCLE
  5
6E07
330
1F
100
AcDbEntity
  8
PCB_OUTLINE
100
AcDbCircle
 10
4.952367266772832
 20
7.219338003148617
 30
0.0
 40
0.0125
  0
CIRCLE
  5
6E08
330
1F
100
AcDbEntity
  8
PCB_OUTLINE
100
AcDbCircle
 10
4.952367266772832
 20
7.274338003148617
 30
0.0
 40
0.0125
  0
CIRCLE
  5
6E09
330
1F
100
AcDbEntity
  8
PCB_OUTLINE
100
AcDbCircle
 10
4.952367266772832
 20
7.329338003148618
 30
0.0
 40
0.0125
  0
CIRCLE
  5
6E0A
330
1F
100
AcDbEntity
  8
PCB_OUTLINE
100
AcDbCircle
 10
4.952367266772832
 20
7.384338003148617
 30
0.0
 40
0.0125
  0
CIRCLE
  5
6E0B
330
1F
100
AcDbEntity
  8
PCB_OUTLINE
100
AcDbCircle
 10
4.952367266772832
 20
7.439338003148617
 30
0.0
 40
0.0125
  0
CIRCLE
  5
6E0C
330
1F
100
AcDbEntity
  8
PCB_OUTLINE
100
AcDbCircle
 10
4.952367266772832
 20
7.494338003148617
 30
0.0
 40
0.0125
  0
CIRCLE
  5
6E0D
330
1F
100
AcDbEntity
  8
PCB_OUTLINE
100
AcDbCircle
 10
4.952367266772832
 20
7.549338003148617
 30
0.0
 40
0.0125
  0
CIRCLE
  5
6E0E
330
1F
100
AcDbEntity
  8
PCB_OUTLINE
100
AcDbCircle
 10
5.007367266772834
 20
7.054338003148617
 30
0.0
 40
0.0125
  0
CIRCLE
  5
6E0F
330
1F
100
AcDbEntity
  8
PCB_OUTLINE
100
AcDbCircle
 10
5.007367266772834
 20
7.109338003148617
 30
0.0
 40
0.0125
  0
CIRCLE
  5
6E10
330
1F
100
AcDbEntity
  8
PCB_OUTLINE
100
AcDbCircle
 10
5.007367266772834
 20
7.164338003148618
 30
0.0
 40
0.0125
  0
CIRCLE
  5
6E11
330
1F
100
AcDbEntity
  8
PCB_OUTLINE
100
AcDbCircle
 10
5.007367266772834
 20
7.219338003148617
 30
0.0
 40
0.0125
  0
CIRCLE
  5
6E12
330
1F
100
AcDbEntity
  8
PCB_OUTLINE
100
AcDbCircle
 10
5.007367266772834
 20
7.274338003148617
 30
0.0
 40
0.0125
  0
CIRCLE
  5
6E13
330
1F
100
AcDbEntity
  8
PCB_OUTLINE
100
AcDbCircle
 10
5.007367266772834
 20
7.329338003148618
 30
0.0
 40
0.0125
  0
CIRCLE
  5
6E14
330
1F
100
AcDbEntity
  8
PCB_OUTLINE
100
AcDbCircle
 10
5.007367266772834
 20
7.384338003148617
 30
0.0
 40
0.0125
  0
CIRCLE
  5
6E15
330
1F
100
AcDbEntity
  8
PCB_OUTLINE
100
AcDbCircle
 10
5.007367266772834
 20
7.439338003148617
 30
0.0
 40
0.0125
  0
CIRCLE
  5
6E16
330
1F
100
AcDbEntity
  8
PCB_OUTLINE
100
AcDbCircle
 10
5.007367266772834
 20
7.494338003148617
 30
0.0
 40
0.0125
  0
CIRCLE
  5
6E17
330
1F
100
AcDbEntity
  8
PCB_OUTLINE
100
AcDbCircle
 10
5.007367266772834
 20
7.549338003148617
 30
0.0
 40
0.0125
  0
CIRCLE
  5
6E18
330
1F
100
AcDbEntity
  8
PCB_OUTLINE
100
AcDbCircle
 10
3.907367266772832
 20
6.999338003148618
 30
0.0
 40
0.0125
  0
CIRCLE
  5
6E19
330
1F
100
AcDbEntity
  8
PCB_OUTLINE
100
AcDbCircle
 10
3.907367266772832
 20
6.944338003148617
 30
0.0
 40
0.0125
  0
CIRCLE
  5
6E1A
330
1F
100
AcDbEntity
  8
PCB_OUTLINE
100
AcDbCircle
 10
3.907367266772832
 20
6.889338003148617
 30
0.0
 40
0.0125
  0
CIRCLE
  5
6E1B
330
1F
100
AcDbEntity
  8
PCB_OUTLINE
100
AcDbCircle
 10
3.907367266772832
 20
6.834338003148618
 30
0.0
 40
0.0125
  0
CIRCLE
  5
6E1C
330
1F
100
AcDbEntity
  8
PCB_OUTLINE
100
AcDbCircle
 10
3.907367266772832
 20
6.779338003148617
 30
0.0
 40
0.0125
  0
CIRCLE
  5
6E1D
330
1F
100
AcDbEntity
  8
PCB_OUTLINE
100
AcDbCircle
 10
3.907367266772832
 20
6.724338003148617
 30
0.0
 40
0.0125
  0
CIRCLE
  5
6E1E
330
1F
100
AcDbEntity
  8
PCB_OUTLINE
100
AcDbCircle
 10
3.907367266772832
 20
6.669338003148618
 30
0.0
 40
0.0125
  0
CIRCLE
  5
6E1F
330
1F
100
AcDbEntity
  8
PCB_OUTLINE
100
AcDbCircle
 10
3.96236726677283
 20
6.999338003148618
 30
0.0
 40
0.0125
  0
CIRCLE
  5
6E20
330
1F
100
AcDbEntity
  8
PCB_OUTLINE
100
AcDbCircle
 10
3.96236726677283
 20
6.944338003148617
 30
0.0
 40
0.0125
  0
CIRCLE
  5
6E21
330
1F
100
AcDbEntity
  8
PCB_OUTLINE
100
AcDbCircle
 10
3.96236726677283
 20
6.889338003148617
 30
0.0
 40
0.0125
  0
CIRCLE
  5
6E22
330
1F
100
AcDbEntity
  8
PCB_OUTLINE
100
AcDbCircle
 10
3.96236726677283
 20
6.834338003148618
 30
0.0
 40
0.0125
  0
CIRCLE
  5
6E23
330
1F
100
AcDbEntity
  8
PCB_OUTLINE
100
AcDbCircle
 10
3.96236726677283
 20
6.779338003148617
 30
0.0
 40
0.0125
  0
CIRCLE
  5
6E24
330
1F
100
AcDbEntity
  8
PCB_OUTLINE
100
AcDbCircle
 10
3.96236726677283
 20
6.724338003148617
 30
0.0
 40
0.0125
  0
CIRCLE
  5
6E25
330
1F
100
AcDbEntity
  8
PCB_OUTLINE
100
AcDbCircle
 10
3.96236726677283
 20
6.669338003148618
 30
0.0
 40
0.0125
  0
CIRCLE
  5
6E26
330
1F
100
AcDbEntity
  8
PCB_OUTLINE
100
AcDbCircle
 10
4.017367266772832
 20
6.999338003148618
 30
0.0
 40
0.0125
  0
CIRCLE
  5
6E27
330
1F
100
AcDbEntity
  8
PCB_OUTLINE
100
AcDbCircle
 10
4.017367266772832
 20
6.944338003148617
 30
0.0
 40
0.0125
  0
CIRCLE
  5
6E28
330
1F
100
AcDbEntity
  8
PCB_OUTLINE
100
AcDbCircle
 10
4.017367266772832
 20
6.889338003148617
 30
0.0
 40
0.0125
  0
CIRCLE
  5
6E29
330
1F
100
AcDbEntity
  8
PCB_OUTLINE
100
AcDbCircle
 10
4.017367266772832
 20
6.834338003148618
 30
0.0
 40
0.0125
  0
CIRCLE
  5
6E2A
330
1F
100
AcDbEntity
  8
PCB_OUTLINE
100
AcDbCircle
 10
4.017367266772832
 20
6.779338003148617
 30
0.0
 40
0.0125
  0
CIRCLE
  5
6E2B
330
1F
100
AcDbEntity
  8
PCB_OUTLINE
100
AcDbCircle
 10
4.017367266772832
 20
6.724338003148617
 30
0.0
 40
0.0125
  0
CIRCLE
  5
6E2C
330
1F
100
AcDbEntity
  8
PCB_OUTLINE
100
AcDbCircle
 10
4.017367266772832
 20
6.669338003148618
 30
0.0
 40
0.0125
  0
CIRCLE
  5
6E2D
330
1F
100
AcDbEntity
  8
PCB_OUTLINE
100
AcDbCircle
 10
4.072367266772832
 20
6.999338003148618
 30
0.0
 40
0.0125
  0
CIRCLE
  5
6E2E
330
1F
100
AcDbEntity
  8
PCB_OUTLINE
100
AcDbCircle
 10
4.072367266772832
 20
6.944338003148617
 30
0.0
 40
0.0125
  0
CIRCLE
  5
6E2F
330
1F
100
AcDbEntity
  8
PCB_OUTLINE
100
AcDbCircle
 10
4.072367266772832
 20
6.889338003148617
 30
0.0
 40
0.0125
  0
CIRCLE
  5
6E30
330
1F
100
AcDbEntity
  8
PCB_OUTLINE
100
AcDbCircle
 10
4.072367266772832
 20
6.834338003148618
 30
0.0
 40
0.0125
  0
CIRCLE
  5
6E31
330
1F
100
AcDbEntity
  8
PCB_OUTLINE
100
AcDbCircle
 10
4.072367266772832
 20
6.779338003148617
 30
0.0
 40
0.0125
  0
CIRCLE
  5
6E32
330
1F
100
AcDbEntity
  8
PCB_OUTLINE
100
AcDbCircle
 10
4.072367266772832
 20
6.724338003148617
 30
0.0
 40
0.0125
  0
CIRCLE
  5
6E33
330
1F
100
AcDbEntity
  8
PCB_OUTLINE
100
AcDbCircle
 10
4.072367266772832
 20
6.669338003148618
 30
0.0
 40
0.0125
  0
CIRCLE
  5
6E34
330
1F
100
AcDbEntity
  8
PCB_OUTLINE
100
AcDbCircle
 10
4.12736726677283
 20
6.999338003148618
 30
0.0
 40
0.0125
  0
CIRCLE
  5
6E35
330
1F
100
AcDbEntity
  8
PCB_OUTLINE
100
AcDbCircle
 10
4.12736726677283
 20
6.944338003148617
 30
0.0
 40
0.0125
  0
CIRCLE
  5
6E36
330
1F
100
AcDbEntity
  8
PCB_OUTLINE
100
AcDbCircle
 10
4.12736726677283
 20
6.889338003148617
 30
0.0
 40
0.0125
  0
CIRCLE
  5
6E37
330
1F
100
AcDbEntity
  8
PCB_OUTLINE
100
AcDbCircle
 10
4.12736726677283
 20
6.834338003148618
 30
0.0
 40
0.0125
  0
CIRCLE
  5
6E38
330
1F
100
AcDbEntity
  8
PCB_OUTLINE
100
AcDbCircle
 10
4.12736726677283
 20
6.779338003148617
 30
0.0
 40
0.0125
  0
CIRCLE
  5
6E39
330
1F
100
AcDbEntity
  8
PCB_OUTLINE
100
AcDbCircle
 10
4.12736726677283
 20
6.724338003148617
 30
0.0
 40
0.0125
  0
CIRCLE
  5
6E3A
330
1F
100
AcDbEntity
  8
PCB_OUTLINE
100
AcDbCircle
 10
4.12736726677283
 20
6.669338003148618
 30
0.0
 40
0.0125
  0
CIRCLE
  5
6E3B
330
1F
100
AcDbEntity
  8
PCB_OUTLINE
100
AcDbCircle
 10
4.182367266772832
 20
6.999338003148618
 30
0.0
 40
0.0125
  0
CIRCLE
  5
6E3C
330
1F
100
AcDbEntity
  8
PCB_OUTLINE
100
AcDbCircle
 10
4.182367266772832
 20
6.944338003148617
 30
0.0
 40
0.0125
  0
CIRCLE
  5
6E3D
330
1F
100
AcDbEntity
  8
PCB_OUTLINE
100
AcDbCircle
 10
4.182367266772832
 20
6.889338003148617
 30
0.0
 40
0.0125
  0
CIRCLE
  5
6E3E
330
1F
100
AcDbEntity
  8
PCB_OUTLINE
100
AcDbCircle
 10
4.182367266772832
 20
6.834338003148618
 30
0.0
 40
0.0125
  0
CIRCLE
  5
6E3F
330
1F
100
AcDbEntity
  8
PCB_OUTLINE
100
AcDbCircle
 10
4.182367266772832
 20
6.779338003148617
 30
0.0
 40
0.0125
  0
CIRCLE
  5
6E40
330
1F
100
AcDbEntity
  8
PCB_OUTLINE
100
AcDbCircle
 10
4.182367266772832
 20
6.724338003148617
 30
0.0
 40
0.0125
  0
CIRCLE
  5
6E41
330
1F
100
AcDbEntity
  8
PCB_OUTLINE
100
AcDbCircle
 10
4.182367266772832
 20
6.669338003148618
 30
0.0
 40
0.0125
  0
CIRCLE
  5
6E42
330
1F
100
AcDbEntity
  8
PCB_OUTLINE
100
AcDbCircle
 10
4.237367266772832
 20
6.999338003148618
 30
0.0
 40
0.0125
  0
CIRCLE
  5
6E43
330
1F
100
AcDbEntity
  8
PCB_OUTLINE
100
AcDbCircle
 10
4.237367266772832
 20
6.944338003148617
 30
0.0
 40
0.0125
  0
CIRCLE
  5
6E44
330
1F
100
AcDbEntity
  8
PCB_OUTLINE
100
AcDbCircle
 10
4.237367266772832
 20
6.889338003148617
 30
0.0
 40
0.0125
  0
CIRCLE
  5
6E45
330
1F
100
AcDbEntity
  8
PCB_OUTLINE
100
AcDbCircle
 10
4.237367266772832
 20
6.834338003148618
 30
0.0
 40
0.0125
  0
CIRCLE
  5
6E46
330
1F
100
AcDbEntity
  8
PCB_OUTLINE
100
AcDbCircle
 10
4.237367266772832
 20
6.779338003148617
 30
0.0
 40
0.0125
  0
CIRCLE
  5
6E47
330
1F
100
AcDbEntity
  8
PCB_OUTLINE
100
AcDbCircle
 10
4.237367266772832
 20
6.724338003148617
 30
0.0
 40
0.0125
  0
CIRCLE
  5
6E48
330
1F
100
AcDbEntity
  8
PCB_OUTLINE
100
AcDbCircle
 10
4.237367266772832
 20
6.669338003148618
 30
0.0
 40
0.0125
  0
CIRCLE
  5
6E49
330
1F
100
AcDbEntity
  8
PCB_OUTLINE
100
AcDbCircle
 10
4.29236726677283
 20
6.999338003148618
 30
0.0
 40
0.0125
  0
CIRCLE
  5
6E4A
330
1F
100
AcDbEntity
  8
PCB_OUTLINE
100
AcDbCircle
 10
4.29236726677283
 20
6.944338003148617
 30
0.0
 40
0.0125
  0
CIRCLE
  5
6E4B
330
1F
100
AcDbEntity
  8
PCB_OUTLINE
100
AcDbCircle
 10
4.29236726677283
 20
6.889338003148617
 30
0.0
 40
0.0125
  0
CIRCLE
  5
6E4C
330
1F
100
AcDbEntity
  8
PCB_OUTLINE
100
AcDbCircle
 10
4.29236726677283
 20
6.834338003148618
 30
0.0
 40
0.0125
  0
CIRCLE
  5
6E4D
330
1F
100
AcDbEntity
  8
PCB_OUTLINE
100
AcDbCircle
 10
4.29236726677283
 20
6.779338003148617
 30
0.0
 40
0.0125
  0
CIRCLE
  5
6E4E
330
1F
100
AcDbEntity
  8
PCB_OUTLINE
100
AcDbCircle
 10
4.29236726677283
 20
6.724338003148617
 30
0.0
 40
0.0125
  0
CIRCLE
  5
6E4F
330
1F
100
AcDbEntity
  8
PCB_OUTLINE
100
AcDbCircle
 10
4.29236726677283
 20
6.669338003148618
 30
0.0
 40
0.0125
  0
CIRCLE
  5
6E50
330
1F
100
AcDbEntity
  8
PCB_OUTLINE
100
AcDbCircle
 10
4.347367266772832
 20
6.999338003148618
 30
0.0
 40
0.0125
  0
CIRCLE
  5
6E51
330
1F
100
AcDbEntity
  8
PCB_OUTLINE
100
AcDbCircle
 10
4.347367266772832
 20
6.944338003148617
 30
0.0
 40
0.0125
  0
CIRCLE
  5
6E52
330
1F
100
AcDbEntity
  8
PCB_OUTLINE
100
AcDbCircle
 10
4.347367266772832
 20
6.889338003148617
 30
0.0
 40
0.0125
  0
CIRCLE
  5
6E53
330
1F
100
AcDbEntity
  8
PCB_OUTLINE
100
AcDbCircle
 10
4.347367266772832
 20
6.834338003148618
 30
0.0
 40
0.0125
  0
CIRCLE
  5
6E54
330
1F
100
AcDbEntity
  8
PCB_OUTLINE
100
AcDbCircle
 10
4.347367266772832
 20
6.779338003148617
 30
0.0
 40
0.0125
  0
CIRCLE
  5
6E55
330
1F
100
AcDbEntity
  8
PCB_OUTLINE
100
AcDbCircle
 10
4.347367266772832
 20
6.724338003148617
 30
0.0
 40
0.0125
  0
CIRCLE
  5
6E56
330
1F
100
AcDbEntity
  8
PCB_OUTLINE
100
AcDbCircle
 10
4.347367266772832
 20
6.669338003148618
 30
0.0
 40
0.0125
  0
CIRCLE
  5
6E57
330
1F
100
AcDbEntity
  8
PCB_OUTLINE
100
AcDbCircle
 10
4.402367266772832
 20
6.999338003148618
 30
0.0
 40
0.0125
  0
CIRCLE
  5
6E58
330
1F
100
AcDbEntity
  8
PCB_OUTLINE
100
AcDbCircle
 10
4.402367266772832
 20
6.944338003148617
 30
0.0
 40
0.0125
  0
CIRCLE
  5
6E59
330
1F
100
AcDbEntity
  8
PCB_OUTLINE
100
AcDbCircle
 10
4.402367266772832
 20
6.889338003148617
 30
0.0
 40
0.0125
  0
CIRCLE
  5
6E5A
330
1F
100
AcDbEntity
  8
PCB_OUTLINE
100
AcDbCircle
 10
4.402367266772832
 20
6.834338003148618
 30
0.0
 40
0.0125
  0
CIRCLE
  5
6E5B
330
1F
100
AcDbEntity
  8
PCB_OUTLINE
100
AcDbCircle
 10
4.402367266772832
 20
6.779338003148617
 30
0.0
 40
0.0125
  0
CIRCLE
  5
6E5C
330
1F
100
AcDbEntity
  8
PCB_OUTLINE
100
AcDbCircle
 10
4.402367266772832
 20
6.724338003148617
 30
0.0
 40
0.0125
  0
CIRCLE
  5
6E5D
330
1F
100
AcDbEntity
  8
PCB_OUTLINE
100
AcDbCircle
 10
4.402367266772832
 20
6.669338003148618
 30
0.0
 40
0.0125
  0
CIRCLE
  5
6E5E
330
1F
100
AcDbEntity
  8
PCB_OUTLINE
100
AcDbCircle
 10
4.842367266772829
 20
6.999338003148618
 30
0.0
 40
0.0125
  0
CIRCLE
  5
6E5F
330
1F
100
AcDbEntity
  8
PCB_OUTLINE
100
AcDbCircle
 10
4.842367266772829
 20
6.944338003148617
 30
0.0
 40
0.0125
  0
CIRCLE
  5
6E60
330
1F
100
AcDbEntity
  8
PCB_OUTLINE
100
AcDbCircle
 10
4.842367266772829
 20
6.889338003148617
 30
0.0
 40
0.0125
  0
CIRCLE
  5
6E61
330
1F
100
AcDbEntity
  8
PCB_OUTLINE
100
AcDbCircle
 10
4.842367266772829
 20
6.834338003148618
 30
0.0
 40
0.0125
  0
CIRCLE
  5
6E62
330
1F
100
AcDbEntity
  8
PCB_OUTLINE
100
AcDbCircle
 10
4.842367266772829
 20
6.779338003148617
 30
0.0
 40
0.0125
  0
CIRCLE
  5
6E63
330
1F
100
AcDbEntity
  8
PCB_OUTLINE
100
AcDbCircle
 10
4.842367266772829
 20
6.724338003148617
 30
0.0
 40
0.0125
  0
CIRCLE
  5
6E64
330
1F
100
AcDbEntity
  8
PCB_OUTLINE
100
AcDbCircle
 10
4.842367266772829
 20
6.669338003148618
 30
0.0
 40
0.0125
  0
CIRCLE
  5
6E65
330
1F
100
AcDbEntity
  8
PCB_OUTLINE
100
AcDbCircle
 10
4.787367266772831
 20
6.999338003148618
 30
0.0
 40
0.0125
  0
CIRCLE
  5
6E66
330
1F
100
AcDbEntity
  8
PCB_OUTLINE
100
AcDbCircle
 10
4.787367266772831
 20
6.944338003148617
 30
0.0
 40
0.0125
  0
CIRCLE
  5
6E67
330
1F
100
AcDbEntity
  8
PCB_OUTLINE
100
AcDbCircle
 10
4.787367266772831
 20
6.889338003148617
 30
0.0
 40
0.0125
  0
CIRCLE
  5
6E68
330
1F
100
AcDbEntity
  8
PCB_OUTLINE
100
AcDbCircle
 10
4.787367266772831
 20
6.834338003148618
 30
0.0
 40
0.0125
  0
CIRCLE
  5
6E69
330
1F
100
AcDbEntity
  8
PCB_OUTLINE
100
AcDbCircle
 10
4.787367266772831
 20
6.779338003148617
 30
0.0
 40
0.0125
  0
CIRCLE
  5
6E6A
330
1F
100
AcDbEntity
  8
PCB_OUTLINE
100
AcDbCircle
 10
4.787367266772831
 20
6.724338003148617
 30
0.0
 40
0.0125
  0
CIRCLE
  5
6E6B
330
1F
100
AcDbEntity
  8
PCB_OUTLINE
100
AcDbCircle
 10
4.787367266772831
 20
6.669338003148618
 30
0.0
 40
0.0125
  0
CIRCLE
  5
6E6C
330
1F
100
AcDbEntity
  8
PCB_OUTLINE
100
AcDbCircle
 10
4.732367266772832
 20
6.999338003148618
 30
0.0
 40
0.0125
  0
CIRCLE
  5
6E6D
330
1F
100
AcDbEntity
  8
PCB_OUTLINE
100
AcDbCircle
 10
4.732367266772832
 20
6.944338003148617
 30
0.0
 40
0.0125
  0
CIRCLE
  5
6E6E
330
1F
100
AcDbEntity
  8
PCB_OUTLINE
100
AcDbCircle
 10
4.732367266772832
 20
6.889338003148617
 30
0.0
 40
0.0125
  0
CIRCLE
  5
6E6F
330
1F
100
AcDbEntity
  8
PCB_OUTLINE
100
AcDbCircle
 10
4.732367266772832
 20
6.834338003148618
 30
0.0
 40
0.0125
  0
CIRCLE
  5
6E70
330
1F
100
AcDbEntity
  8
PCB_OUTLINE
100
AcDbCircle
 10
4.732367266772832
 20
6.779338003148617
 30
0.0
 40
0.0125
  0
CIRCLE
  5
6E71
330
1F
100
AcDbEntity
  8
PCB_OUTLINE
100
AcDbCircle
 10
4.732367266772832
 20
6.724338003148617
 30
0.0
 40
0.0125
  0
CIRCLE
  5
6E72
330
1F
100
AcDbEntity
  8
PCB_OUTLINE
100
AcDbCircle
 10
4.732367266772832
 20
6.669338003148618
 30
0.0
 40
0.0125
  0
CIRCLE
  5
6E73
330
1F
100
AcDbEntity
  8
PCB_OUTLINE
100
AcDbCircle
 10
4.677367266772832
 20
6.999338003148618
 30
0.0
 40
0.0125
  0
CIRCLE
  5
6E74
330
1F
100
AcDbEntity
  8
PCB_OUTLINE
100
AcDbCircle
 10
4.677367266772832
 20
6.944338003148617
 30
0.0
 40
0.0125
  0
CIRCLE
  5
6E75
330
1F
100
AcDbEntity
  8
PCB_OUTLINE
100
AcDbCircle
 10
4.677367266772832
 20
6.889338003148617
 30
0.0
 40
0.0125
  0
CIRCLE
  5
6E76
330
1F
100
AcDbEntity
  8
PCB_OUTLINE
100
AcDbCircle
 10
4.677367266772832
 20
6.834338003148618
 30
0.0
 40
0.0125
  0
CIRCLE
  5
6E77
330
1F
100
AcDbEntity
  8
PCB_OUTLINE
100
AcDbCircle
 10
4.677367266772832
 20
6.779338003148617
 30
0.0
 40
0.0125
  0
CIRCLE
  5
6E78
330
1F
100
AcDbEntity
  8
PCB_OUTLINE
100
AcDbCircle
 10
4.677367266772832
 20
6.724338003148617
 30
0.0
 40
0.0125
  0
CIRCLE
  5
6E79
330
1F
100
AcDbEntity
  8
PCB_OUTLINE
100
AcDbCircle
 10
4.677367266772832
 20
6.669338003148618
 30
0.0
 40
0.0125
  0
CIRCLE
  5
6E7A
330
1F
100
AcDbEntity
  8
PCB_OUTLINE
100
AcDbCircle
 10
4.622367266772831
 20
6.999338003148618
 30
0.0
 40
0.0125
  0
CIRCLE
  5
6E7B
330
1F
100
AcDbEntity
  8
PCB_OUTLINE
100
AcDbCircle
 10
4.622367266772831
 20
6.944338003148617
 30
0.0
 40
0.0125
  0
CIRCLE
  5
6E7C
330
1F
100
AcDbEntity
  8
PCB_OUTLINE
100
AcDbCircle
 10
4.622367266772831
 20
6.889338003148617
 30
0.0
 40
0.0125
  0
CIRCLE
  5
6E7D
330
1F
100
AcDbEntity
  8
PCB_OUTLINE
100
AcDbCircle
 10
4.622367266772831
 20
6.834338003148618
 30
0.0
 40
0.0125
  0
CIRCLE
  5
6E7E
330
1F
100
AcDbEntity
  8
PCB_OUTLINE
100
AcDbCircle
 10
4.622367266772831
 20
6.779338003148617
 30
0.0
 40
0.0125
  0
CIRCLE
  5
6E7F
330
1F
100
AcDbEntity
  8
PCB_OUTLINE
100
AcDbCircle
 10
4.622367266772831
 20
6.724338003148617
 30
0.0
 40
0.0125
  0
CIRCLE
  5
6E80
330
1F
100
AcDbEntity
  8
PCB_OUTLINE
100
AcDbCircle
 10
4.622367266772831
 20
6.669338003148618
 30
0.0
 40
0.0125
  0
CIRCLE
  5
6E81
330
1F
100
AcDbEntity
  8
PCB_OUTLINE
100
AcDbCircle
 10
4.567367266772832
 20
6.999338003148618
 30
0.0
 40
0.0125
  0
CIRCLE
  5
6E82
330
1F
100
AcDbEntity
  8
PCB_OUTLINE
100
AcDbCircle
 10
4.567367266772832
 20
6.944338003148617
 30
0.0
 40
0.0125
  0
CIRCLE
  5
6E83
330
1F
100
AcDbEntity
  8
PCB_OUTLINE
100
AcDbCircle
 10
4.567367266772832
 20
6.889338003148617
 30
0.0
 40
0.0125
  0
CIRCLE
  5
6E84
330
1F
100
AcDbEntity
  8
PCB_OUTLINE
100
AcDbCircle
 10
4.567367266772832
 20
6.834338003148618
 30
0.0
 40
0.0125
  0
CIRCLE
  5
6E85
330
1F
100
AcDbEntity
  8
PCB_OUTLINE
100
AcDbCircle
 10
4.567367266772832
 20
6.779338003148617
 30
0.0
 40
0.0125
  0
CIRCLE
  5
6E86
330
1F
100
AcDbEntity
  8
PCB_OUTLINE
100
AcDbCircle
 10
4.567367266772832
 20
6.724338003148617
 30
0.0
 40
0.0125
  0
CIRCLE
  5
6E87
330
1F
100
AcDbEntity
  8
PCB_OUTLINE
100
AcDbCircle
 10
4.567367266772832
 20
6.669338003148618
 30
0.0
 40
0.0125
  0
CIRCLE
  5
6E88
330
1F
100
AcDbEntity
  8
PCB_OUTLINE
100
AcDbCircle
 10
4.512367266772832
 20
6.999338003148618
 30
0.0
 40
0.0125
  0
CIRCLE
  5
6E89
330
1F
100
AcDbEntity
  8
PCB_OUTLINE
100
AcDbCircle
 10
4.512367266772832
 20
6.944338003148617
 30
0.0
 40
0.0125
  0
CIRCLE
  5
6E8A
330
1F
100
AcDbEntity
  8
PCB_OUTLINE
100
AcDbCircle
 10
4.512367266772832
 20
6.889338003148617
 30
0.0
 40
0.0125
  0
CIRCLE
  5
6E8B
330
1F
100
AcDbEntity
  8
PCB_OUTLINE
100
AcDbCircle
 10
4.512367266772832
 20
6.834338003148618
 30
0.0
 40
0.0125
  0
CIRCLE
  5
6E8C
330
1F
100
AcDbEntity
  8
PCB_OUTLINE
100
AcDbCircle
 10
4.512367266772832
 20
6.779338003148617
 30
0.0
 40
0.0125
  0
CIRCLE
  5
6E8D
330
1F
100
AcDbEntity
  8
PCB_OUTLINE
100
AcDbCircle
 10
4.512367266772832
 20
6.724338003148617
 30
0.0
 40
0.0125
  0
CIRCLE
  5
6E8E
330
1F
100
AcDbEntity
  8
PCB_OUTLINE
100
AcDbCircle
 10
4.512367266772832
 20
6.669338003148618
 30
0.0
 40
0.0125
  0
CIRCLE
  5
6E8F
330
1F
100
AcDbEntity
  8
PCB_OUTLINE
100
AcDbCircle
 10
4.457367266772831
 20
6.999338003148618
 30
0.0
 40
0.0125
  0
CIRCLE
  5
6E90
330
1F
100
AcDbEntity
  8
PCB_OUTLINE
100
AcDbCircle
 10
4.457367266772831
 20
6.944338003148617
 30
0.0
 40
0.0125
  0
CIRCLE
  5
6E91
330
1F
100
AcDbEntity
  8
PCB_OUTLINE
100
AcDbCircle
 10
4.457367266772831
 20
6.889338003148617
 30
0.0
 40
0.0125
  0
CIRCLE
  5
6E92
330
1F
100
AcDbEntity
  8
PCB_OUTLINE
100
AcDbCircle
 10
4.457367266772831
 20
6.834338003148618
 30
0.0
 40
0.0125
  0
CIRCLE
  5
6E93
330
1F
100
AcDbEntity
  8
PCB_OUTLINE
100
AcDbCircle
 10
4.457367266772831
 20
6.779338003148617
 30
0.0
 40
0.0125
  0
CIRCLE
  5
6E94
330
1F
100
AcDbEntity
  8
PCB_OUTLINE
100
AcDbCircle
 10
4.457367266772831
 20
6.724338003148617
 30
0.0
 40
0.0125
  0
CIRCLE
  5
6E95
330
1F
100
AcDbEntity
  8
PCB_OUTLINE
100
AcDbCircle
 10
4.457367266772831
 20
6.669338003148618
 30
0.0
 40
0.0125
  0
CIRCLE
  5
6E96
330
1F
100
AcDbEntity
  8
PCB_OUTLINE
100
AcDbCircle
 10
4.897367266772834
 20
6.999338003148618
 30
0.0
 40
0.0125
  0
CIRCLE
  5
6E97
330
1F
100
AcDbEntity
  8
PCB_OUTLINE
100
AcDbCircle
 10
4.897367266772834
 20
6.944338003148617
 30
0.0
 40
0.0125
  0
CIRCLE
  5
6E98
330
1F
100
AcDbEntity
  8
PCB_OUTLINE
100
AcDbCircle
 10
4.897367266772834
 20
6.889338003148617
 30
0.0
 40
0.0125
  0
CIRCLE
  5
6E99
330
1F
100
AcDbEntity
  8
PCB_OUTLINE
100
AcDbCircle
 10
4.897367266772834
 20
6.834338003148618
 30
0.0
 40
0.0125
  0
CIRCLE
  5
6E9A
330
1F
100
AcDbEntity
  8
PCB_OUTLINE
100
AcDbCircle
 10
4.897367266772834
 20
6.779338003148617
 30
0.0
 40
0.0125
  0
CIRCLE
  5
6E9B
330
1F
100
AcDbEntity
  8
PCB_OUTLINE
100
AcDbCircle
 10
4.897367266772834
 20
6.724338003148617
 30
0.0
 40
0.0125
  0
CIRCLE
  5
6E9C
330
1F
100
AcDbEntity
  8
PCB_OUTLINE
100
AcDbCircle
 10
4.897367266772834
 20
6.669338003148618
 30
0.0
 40
0.0125
  0
CIRCLE
  5
6E9D
330
1F
100
AcDbEntity
  8
PCB_OUTLINE
100
AcDbCircle
 10
4.952367266772832
 20
6.999338003148618
 30
0.0
 40
0.0125
  0
CIRCLE
  5
6E9E
330
1F
100
AcDbEntity
  8
PCB_OUTLINE
100
AcDbCircle
 10
4.952367266772832
 20
6.944338003148617
 30
0.0
 40
0.0125
  0
CIRCLE
  5
6E9F
330
1F
100
AcDbEntity
  8
PCB_OUTLINE
100
AcDbCircle
 10
4.952367266772832
 20
6.889338003148617
 30
0.0
 40
0.0125
  0
CIRCLE
  5
6EA0
330
1F
100
AcDbEntity
  8
PCB_OUTLINE
100
AcDbCircle
 10
4.952367266772832
 20
6.834338003148618
 30
0.0
 40
0.0125
  0
CIRCLE
  5
6EA1
330
1F
100
AcDbEntity
  8
PCB_OUTLINE
100
AcDbCircle
 10
4.952367266772832
 20
6.779338003148617
 30
0.0
 40
0.0125
  0
CIRCLE
  5
6EA2
330
1F
100
AcDbEntity
  8
PCB_OUTLINE
100
AcDbCircle
 10
4.952367266772832
 20
6.724338003148617
 30
0.0
 40
0.0125
  0
CIRCLE
  5
6EA3
330
1F
100
AcDbEntity
  8
PCB_OUTLINE
100
AcDbCircle
 10
4.952367266772832
 20
6.669338003148618
 30
0.0
 40
0.0125
  0
CIRCLE
  5
6EA4
330
1F
100
AcDbEntity
  8
PCB_OUTLINE
100
AcDbCircle
 10
5.007367266772834
 20
6.999338003148618
 30
0.0
 40
0.0125
  0
CIRCLE
  5
6EA5
330
1F
100
AcDbEntity
  8
PCB_OUTLINE
100
AcDbCircle
 10
5.007367266772834
 20
6.944338003148617
 30
0.0
 40
0.0125
  0
CIRCLE
  5
6EA6
330
1F
100
AcDbEntity
  8
PCB_OUTLINE
100
AcDbCircle
 10
5.007367266772834
 20
6.889338003148617
 30
0.0
 40
0.0125
  0
CIRCLE
  5
6EA7
330
1F
100
AcDbEntity
  8
PCB_OUTLINE
100
AcDbCircle
 10
5.007367266772834
 20
6.834338003148618
 30
0.0
 40
0.0125
  0
CIRCLE
  5
6EA8
330
1F
100
AcDbEntity
  8
PCB_OUTLINE
100
AcDbCircle
 10
5.007367266772834
 20
6.779338003148617
 30
0.0
 40
0.0125
  0
CIRCLE
  5
6EA9
330
1F
100
AcDbEntity
  8
PCB_OUTLINE
100
AcDbCircle
 10
5.007367266772834
 20
6.724338003148617
 30
0.0
 40
0.0125
  0
CIRCLE
  5
6EAA
330
1F
100
AcDbEntity
  8
PCB_OUTLINE
100
AcDbCircle
 10
5.007367266772834
 20
6.669338003148618
 30
0.0
 40
0.0125
  0
CIRCLE
  5
6EAB
330
1F
100
AcDbEntity
  8
PCB_OUTLINE
100
AcDbCircle
 10
3.907367266772832
 20
6.449338003148617
 30
0.0
 40
0.0125
  0
CIRCLE
  5
6EAC
330
1F
100
AcDbEntity
  8
PCB_OUTLINE
100
AcDbCircle
 10
3.907367266772832
 20
6.504338003148617
 30
0.0
 40
0.0125
  0
CIRCLE
  5
6EAD
330
1F
100
AcDbEntity
  8
PCB_OUTLINE
100
AcDbCircle
 10
3.907367266772832
 20
6.559338003148617
 30
0.0
 40
0.0125
  0
CIRCLE
  5
6EAE
330
1F
100
AcDbEntity
  8
PCB_OUTLINE
100
AcDbCircle
 10
3.907367266772832
 20
6.614338003148617
 30
0.0
 40
0.0125
  0
CIRCLE
  5
6EAF
330
1F
100
AcDbEntity
  8
PCB_OUTLINE
100
AcDbCircle
 10
3.96236726677283
 20
6.449338003148617
 30
0.0
 40
0.0125
  0
CIRCLE
  5
6EB0
330
1F
100
AcDbEntity
  8
PCB_OUTLINE
100
AcDbCircle
 10
3.96236726677283
 20
6.504338003148617
 30
0.0
 40
0.0125
  0
CIRCLE
  5
6EB1
330
1F
100
AcDbEntity
  8
PCB_OUTLINE
100
AcDbCircle
 10
3.96236726677283
 20
6.559338003148617
 30
0.0
 40
0.0125
  0
CIRCLE
  5
6EB2
330
1F
100
AcDbEntity
  8
PCB_OUTLINE
100
AcDbCircle
 10
3.96236726677283
 20
6.614338003148617
 30
0.0
 40
0.0125
  0
CIRCLE
  5
6EB3
330
1F
100
AcDbEntity
  8
PCB_OUTLINE
100
AcDbCircle
 10
4.017367266772832
 20
6.449338003148617
 30
0.0
 40
0.0125
  0
CIRCLE
  5
6EB4
330
1F
100
AcDbEntity
  8
PCB_OUTLINE
100
AcDbCircle
 10
4.017367266772832
 20
6.504338003148617
 30
0.0
 40
0.0125
  0
CIRCLE
  5
6EB5
330
1F
100
AcDbEntity
  8
PCB_OUTLINE
100
AcDbCircle
 10
4.017367266772832
 20
6.559338003148617
 30
0.0
 40
0.0125
  0
CIRCLE
  5
6EB6
330
1F
100
AcDbEntity
  8
PCB_OUTLINE
100
AcDbCircle
 10
4.017367266772832
 20
6.614338003148617
 30
0.0
 40
0.0125
  0
CIRCLE
  5
6EB7
330
1F
100
AcDbEntity
  8
PCB_OUTLINE
100
AcDbCircle
 10
4.072367266772832
 20
6.449338003148617
 30
0.0
 40
0.0125
  0
CIRCLE
  5
6EB8
330
1F
100
AcDbEntity
  8
PCB_OUTLINE
100
AcDbCircle
 10
4.072367266772832
 20
6.504338003148617
 30
0.0
 40
0.0125
  0
CIRCLE
  5
6EB9
330
1F
100
AcDbEntity
  8
PCB_OUTLINE
100
AcDbCircle
 10
4.072367266772832
 20
6.559338003148617
 30
0.0
 40
0.0125
  0
CIRCLE
  5
6EBA
330
1F
100
AcDbEntity
  8
PCB_OUTLINE
100
AcDbCircle
 10
4.072367266772832
 20
6.614338003148617
 30
0.0
 40
0.0125
  0
CIRCLE
  5
6EBB
330
1F
100
AcDbEntity
  8
PCB_OUTLINE
100
AcDbCircle
 10
4.12736726677283
 20
6.449338003148617
 30
0.0
 40
0.0125
  0
CIRCLE
  5
6EBC
330
1F
100
AcDbEntity
  8
PCB_OUTLINE
100
AcDbCircle
 10
4.12736726677283
 20
6.504338003148617
 30
0.0
 40
0.0125
  0
CIRCLE
  5
6EBD
330
1F
100
AcDbEntity
  8
PCB_OUTLINE
100
AcDbCircle
 10
4.12736726677283
 20
6.559338003148617
 30
0.0
 40
0.0125
  0
CIRCLE
  5
6EBE
330
1F
100
AcDbEntity
  8
PCB_OUTLINE
100
AcDbCircle
 10
4.12736726677283
 20
6.614338003148617
 30
0.0
 40
0.0125
  0
CIRCLE
  5
6EBF
330
1F
100
AcDbEntity
  8
PCB_OUTLINE
100
AcDbCircle
 10
4.182367266772832
 20
6.449338003148617
 30
0.0
 40
0.0125
  0
CIRCLE
  5
6EC0
330
1F
100
AcDbEntity
  8
PCB_OUTLINE
100
AcDbCircle
 10
4.182367266772832
 20
6.504338003148617
 30
0.0
 40
0.0125
  0
CIRCLE
  5
6EC1
330
1F
100
AcDbEntity
  8
PCB_OUTLINE
100
AcDbCircle
 10
4.182367266772832
 20
6.559338003148617
 30
0.0
 40
0.0125
  0
CIRCLE
  5
6EC2
330
1F
100
AcDbEntity
  8
PCB_OUTLINE
100
AcDbCircle
 10
4.182367266772832
 20
6.614338003148617
 30
0.0
 40
0.0125
  0
CIRCLE
  5
6EC3
330
1F
100
AcDbEntity
  8
PCB_OUTLINE
100
AcDbCircle
 10
4.237367266772832
 20
6.449338003148617
 30
0.0
 40
0.0125
  0
CIRCLE
  5
6EC4
330
1F
100
AcDbEntity
  8
PCB_OUTLINE
100
AcDbCircle
 10
4.237367266772832
 20
6.504338003148617
 30
0.0
 40
0.0125
  0
CIRCLE
  5
6EC5
330
1F
100
AcDbEntity
  8
PCB_OUTLINE
100
AcDbCircle
 10
4.237367266772832
 20
6.559338003148617
 30
0.0
 40
0.0125
  0
CIRCLE
  5
6EC6
330
1F
100
AcDbEntity
  8
PCB_OUTLINE
100
AcDbCircle
 10
4.237367266772832
 20
6.614338003148617
 30
0.0
 40
0.0125
  0
CIRCLE
  5
6EC7
330
1F
100
AcDbEntity
  8
PCB_OUTLINE
100
AcDbCircle
 10
4.29236726677283
 20
6.449338003148617
 30
0.0
 40
0.0125
  0
CIRCLE
  5
6EC8
330
1F
100
AcDbEntity
  8
PCB_OUTLINE
100
AcDbCircle
 10
4.29236726677283
 20
6.504338003148617
 30
0.0
 40
0.0125
  0
CIRCLE
  5
6EC9
330
1F
100
AcDbEntity
  8
PCB_OUTLINE
100
AcDbCircle
 10
4.29236726677283
 20
6.559338003148617
 30
0.0
 40
0.0125
  0
CIRCLE
  5
6ECA
330
1F
100
AcDbEntity
  8
PCB_OUTLINE
100
AcDbCircle
 10
4.29236726677283
 20
6.614338003148617
 30
0.0
 40
0.0125
  0
CIRCLE
  5
6ECB
330
1F
100
AcDbEntity
  8
PCB_OUTLINE
100
AcDbCircle
 10
4.347367266772832
 20
6.449338003148617
 30
0.0
 40
0.0125
  0
CIRCLE
  5
6ECC
330
1F
100
AcDbEntity
  8
PCB_OUTLINE
100
AcDbCircle
 10
4.347367266772832
 20
6.504338003148617
 30
0.0
 40
0.0125
  0
CIRCLE
  5
6ECD
330
1F
100
AcDbEntity
  8
PCB_OUTLINE
100
AcDbCircle
 10
4.347367266772832
 20
6.559338003148617
 30
0.0
 40
0.0125
  0
CIRCLE
  5
6ECE
330
1F
100
AcDbEntity
  8
PCB_OUTLINE
100
AcDbCircle
 10
4.347367266772832
 20
6.614338003148617
 30
0.0
 40
0.0125
  0
CIRCLE
  5
6ECF
330
1F
100
AcDbEntity
  8
PCB_OUTLINE
100
AcDbCircle
 10
4.402367266772832
 20
6.449338003148617
 30
0.0
 40
0.0125
  0
CIRCLE
  5
6ED0
330
1F
100
AcDbEntity
  8
PCB_OUTLINE
100
AcDbCircle
 10
4.402367266772832
 20
6.504338003148617
 30
0.0
 40
0.0125
  0
CIRCLE
  5
6ED1
330
1F
100
AcDbEntity
  8
PCB_OUTLINE
100
AcDbCircle
 10
4.402367266772832
 20
6.559338003148617
 30
0.0
 40
0.0125
  0
CIRCLE
  5
6ED2
330
1F
100
AcDbEntity
  8
PCB_OUTLINE
100
AcDbCircle
 10
4.402367266772832
 20
6.614338003148617
 30
0.0
 40
0.0125
  0
CIRCLE
  5
6ED3
330
1F
100
AcDbEntity
  8
PCB_OUTLINE
100
AcDbCircle
 10
4.842367266772829
 20
6.449338003148617
 30
0.0
 40
0.0125
  0
CIRCLE
  5
6ED4
330
1F
100
AcDbEntity
  8
PCB_OUTLINE
100
AcDbCircle
 10
4.842367266772829
 20
6.504338003148617
 30
0.0
 40
0.0125
  0
CIRCLE
  5
6ED5
330
1F
100
AcDbEntity
  8
PCB_OUTLINE
100
AcDbCircle
 10
4.842367266772829
 20
6.559338003148617
 30
0.0
 40
0.0125
  0
CIRCLE
  5
6ED6
330
1F
100
AcDbEntity
  8
PCB_OUTLINE
100
AcDbCircle
 10
4.842367266772829
 20
6.614338003148617
 30
0.0
 40
0.0125
  0
CIRCLE
  5
6ED7
330
1F
100
AcDbEntity
  8
PCB_OUTLINE
100
AcDbCircle
 10
4.787367266772831
 20
6.449338003148617
 30
0.0
 40
0.0125
  0
CIRCLE
  5
6ED8
330
1F
100
AcDbEntity
  8
PCB_OUTLINE
100
AcDbCircle
 10
4.787367266772831
 20
6.504338003148617
 30
0.0
 40
0.0125
  0
CIRCLE
  5
6ED9
330
1F
100
AcDbEntity
  8
PCB_OUTLINE
100
AcDbCircle
 10
4.787367266772831
 20
6.559338003148617
 30
0.0
 40
0.0125
  0
CIRCLE
  5
6EDA
330
1F
100
AcDbEntity
  8
PCB_OUTLINE
100
AcDbCircle
 10
4.787367266772831
 20
6.614338003148617
 30
0.0
 40
0.0125
  0
CIRCLE
  5
6EDB
330
1F
100
AcDbEntity
  8
PCB_OUTLINE
100
AcDbCircle
 10
4.732367266772832
 20
6.449338003148617
 30
0.0
 40
0.0125
  0
CIRCLE
  5
6EDC
330
1F
100
AcDbEntity
  8
PCB_OUTLINE
100
AcDbCircle
 10
4.732367266772832
 20
6.504338003148617
 30
0.0
 40
0.0125
  0
CIRCLE
  5
6EDD
330
1F
100
AcDbEntity
  8
PCB_OUTLINE
100
AcDbCircle
 10
4.732367266772832
 20
6.559338003148617
 30
0.0
 40
0.0125
  0
CIRCLE
  5
6EDE
330
1F
100
AcDbEntity
  8
PCB_OUTLINE
100
AcDbCircle
 10
4.732367266772832
 20
6.614338003148617
 30
0.0
 40
0.0125
  0
CIRCLE
  5
6EDF
330
1F
100
AcDbEntity
  8
PCB_OUTLINE
100
AcDbCircle
 10
4.677367266772832
 20
6.449338003148617
 30
0.0
 40
0.0125
  0
CIRCLE
  5
6EE0
330
1F
100
AcDbEntity
  8
PCB_OUTLINE
100
AcDbCircle
 10
4.677367266772832
 20
6.504338003148617
 30
0.0
 40
0.0125
  0
CIRCLE
  5
6EE1
330
1F
100
AcDbEntity
  8
PCB_OUTLINE
100
AcDbCircle
 10
4.677367266772832
 20
6.559338003148617
 30
0.0
 40
0.0125
  0
CIRCLE
  5
6EE2
330
1F
100
AcDbEntity
  8
PCB_OUTLINE
100
AcDbCircle
 10
4.677367266772832
 20
6.614338003148617
 30
0.0
 40
0.0125
  0
CIRCLE
  5
6EE3
330
1F
100
AcDbEntity
  8
PCB_OUTLINE
100
AcDbCircle
 10
4.622367266772831
 20
6.449338003148617
 30
0.0
 40
0.0125
  0
CIRCLE
  5
6EE4
330
1F
100
AcDbEntity
  8
PCB_OUTLINE
100
AcDbCircle
 10
4.622367266772831
 20
6.504338003148617
 30
0.0
 40
0.0125
  0
CIRCLE
  5
6EE5
330
1F
100
AcDbEntity
  8
PCB_OUTLINE
100
AcDbCircle
 10
4.622367266772831
 20
6.559338003148617
 30
0.0
 40
0.0125
  0
CIRCLE
  5
6EE6
330
1F
100
AcDbEntity
  8
PCB_OUTLINE
100
AcDbCircle
 10
4.622367266772831
 20
6.614338003148617
 30
0.0
 40
0.0125
  0
CIRCLE
  5
6EE7
330
1F
100
AcDbEntity
  8
PCB_OUTLINE
100
AcDbCircle
 10
4.567367266772832
 20
6.449338003148617
 30
0.0
 40
0.0125
  0
CIRCLE
  5
6EE8
330
1F
100
AcDbEntity
  8
PCB_OUTLINE
100
AcDbCircle
 10
4.567367266772832
 20
6.504338003148617
 30
0.0
 40
0.0125
  0
CIRCLE
  5
6EE9
330
1F
100
AcDbEntity
  8
PCB_OUTLINE
100
AcDbCircle
 10
4.567367266772832
 20
6.559338003148617
 30
0.0
 40
0.0125
  0
CIRCLE
  5
6EEA
330
1F
100
AcDbEntity
  8
PCB_OUTLINE
100
AcDbCircle
 10
4.567367266772832
 20
6.614338003148617
 30
0.0
 40
0.0125
  0
CIRCLE
  5
6EEB
330
1F
100
AcDbEntity
  8
PCB_OUTLINE
100
AcDbCircle
 10
4.512367266772832
 20
6.449338003148617
 30
0.0
 40
0.0125
  0
CIRCLE
  5
6EEC
330
1F
100
AcDbEntity
  8
PCB_OUTLINE
100
AcDbCircle
 10
4.512367266772832
 20
6.504338003148617
 30
0.0
 40
0.0125
  0
CIRCLE
  5
6EED
330
1F
100
AcDbEntity
  8
PCB_OUTLINE
100
AcDbCircle
 10
4.512367266772832
 20
6.559338003148617
 30
0.0
 40
0.0125
  0
CIRCLE
  5
6EEE
330
1F
100
AcDbEntity
  8
PCB_OUTLINE
100
AcDbCircle
 10
4.512367266772832
 20
6.614338003148617
 30
0.0
 40
0.0125
  0
CIRCLE
  5
6EEF
330
1F
100
AcDbEntity
  8
PCB_OUTLINE
100
AcDbCircle
 10
4.457367266772831
 20
6.449338003148617
 30
0.0
 40
0.0125
  0
CIRCLE
  5
6EF0
330
1F
100
AcDbEntity
  8
PCB_OUTLINE
100
AcDbCircle
 10
4.457367266772831
 20
6.504338003148617
 30
0.0
 40
0.0125
  0
CIRCLE
  5
6EF1
330
1F
100
AcDbEntity
  8
PCB_OUTLINE
100
AcDbCircle
 10
4.457367266772831
 20
6.559338003148617
 30
0.0
 40
0.0125
  0
CIRCLE
  5
6EF2
330
1F
100
AcDbEntity
  8
PCB_OUTLINE
100
AcDbCircle
 10
4.457367266772831
 20
6.614338003148617
 30
0.0
 40
0.0125
  0
CIRCLE
  5
6EF3
330
1F
100
AcDbEntity
  8
PCB_OUTLINE
100
AcDbCircle
 10
4.897367266772834
 20
6.449338003148617
 30
0.0
 40
0.0125
  0
CIRCLE
  5
6EF4
330
1F
100
AcDbEntity
  8
PCB_OUTLINE
100
AcDbCircle
 10
4.897367266772834
 20
6.504338003148617
 30
0.0
 40
0.0125
  0
CIRCLE
  5
6EF5
330
1F
100
AcDbEntity
  8
PCB_OUTLINE
100
AcDbCircle
 10
4.897367266772834
 20
6.559338003148617
 30
0.0
 40
0.0125
  0
CIRCLE
  5
6EF6
330
1F
100
AcDbEntity
  8
PCB_OUTLINE
100
AcDbCircle
 10
4.897367266772834
 20
6.614338003148617
 30
0.0
 40
0.0125
  0
CIRCLE
  5
6EF7
330
1F
100
AcDbEntity
  8
PCB_OUTLINE
100
AcDbCircle
 10
4.952367266772832
 20
6.449338003148617
 30
0.0
 40
0.0125
  0
CIRCLE
  5
6EF8
330
1F
100
AcDbEntity
  8
PCB_OUTLINE
100
AcDbCircle
 10
4.952367266772832
 20
6.504338003148617
 30
0.0
 40
0.0125
  0
CIRCLE
  5
6EF9
330
1F
100
AcDbEntity
  8
PCB_OUTLINE
100
AcDbCircle
 10
4.952367266772832
 20
6.559338003148617
 30
0.0
 40
0.0125
  0
CIRCLE
  5
6EFA
330
1F
100
AcDbEntity
  8
PCB_OUTLINE
100
AcDbCircle
 10
4.952367266772832
 20
6.614338003148617
 30
0.0
 40
0.0125
  0
CIRCLE
  5
6EFB
330
1F
100
AcDbEntity
  8
PCB_OUTLINE
100
AcDbCircle
 10
5.007367266772834
 20
6.449338003148617
 30
0.0
 40
0.0125
  0
CIRCLE
  5
6EFC
330
1F
100
AcDbEntity
  8
PCB_OUTLINE
100
AcDbCircle
 10
5.007367266772834
 20
6.504338003148617
 30
0.0
 40
0.0125
  0
CIRCLE
  5
6EFD
330
1F
100
AcDbEntity
  8
PCB_OUTLINE
100
AcDbCircle
 10
5.007367266772834
 20
6.559338003148617
 30
0.0
 40
0.0125
  0
CIRCLE
  5
6EFE
330
1F
100
AcDbEntity
  8
PCB_OUTLINE
100
AcDbCircle
 10
5.007367266772834
 20
6.614338003148617
 30
0.0
 40
0.0125
  0
CIRCLE
  5
6EFF
330
1F
100
AcDbEntity
  8
PCB_OUTLINE
100
AcDbCircle
 10
5.172367266772837
 20
7.054338003148617
 30
0.0
 40
0.0125
  0
CIRCLE
  5
6F00
330
1F
100
AcDbEntity
  8
PCB_OUTLINE
100
AcDbCircle
 10
5.227367266772835
 20
7.054338003148617
 30
0.0
 40
0.0125
  0
CIRCLE
  5
6F01
330
1F
100
AcDbEntity
  8
PCB_OUTLINE
100
AcDbCircle
 10
5.282367266772835
 20
7.054338003148617
 30
0.0
 40
0.0125
  0
CIRCLE
  5
6F02
330
1F
100
AcDbEntity
  8
PCB_OUTLINE
100
AcDbCircle
 10
5.282367266772835
 20
7.109338003148617
 30
0.0
 40
0.0125
  0
CIRCLE
  5
6F03
330
1F
100
AcDbEntity
  8
PCB_OUTLINE
100
AcDbCircle
 10
5.282367266772835
 20
7.164338003148618
 30
0.0
 40
0.0125
  0
CIRCLE
  5
6F04
330
1F
100
AcDbEntity
  8
PCB_OUTLINE
100
AcDbCircle
 10
5.337367266772836
 20
7.054338003148617
 30
0.0
 40
0.0125
  0
CIRCLE
  5
6F05
330
1F
100
AcDbEntity
  8
PCB_OUTLINE
100
AcDbCircle
 10
5.337367266772836
 20
7.109338003148617
 30
0.0
 40
0.0125
  0
CIRCLE
  5
6F06
330
1F
100
AcDbEntity
  8
PCB_OUTLINE
100
AcDbCircle
 10
5.337367266772836
 20
7.164338003148618
 30
0.0
 40
0.0125
  0
CIRCLE
  5
6F07
330
1F
100
AcDbEntity
  8
PCB_OUTLINE
100
AcDbCircle
 10
5.117367266772832
 20
7.054338003148617
 30
0.0
 40
0.0125
  0
CIRCLE
  5
6F08
330
1F
100
AcDbEntity
  8
PCB_OUTLINE
100
AcDbCircle
 10
5.062367266772834
 20
7.054338003148617
 30
0.0
 40
0.0125
  0
CIRCLE
  5
6F09
330
1F
100
AcDbEntity
  8
PCB_OUTLINE
100
AcDbCircle
 10
5.172367266772837
 20
6.999338003148618
 30
0.0
 40
0.0125
  0
CIRCLE
  5
6F0A
330
1F
100
AcDbEntity
  8
PCB_OUTLINE
100
AcDbCircle
 10
5.172367266772837
 20
6.944338003148617
 30
0.0
 40
0.0125
  0
CIRCLE
  5
6F0B
330
1F
100
AcDbEntity
  8
PCB_OUTLINE
100
AcDbCircle
 10
5.227367266772835
 20
6.999338003148618
 30
0.0
 40
0.0125
  0
CIRCLE
  5
6F0C
330
1F
100
AcDbEntity
  8
PCB_OUTLINE
100
AcDbCircle
 10
5.227367266772835
 20
6.944338003148617
 30
0.0
 40
0.0125
  0
CIRCLE
  5
6F0D
330
1F
100
AcDbEntity
  8
PCB_OUTLINE
100
AcDbCircle
 10
5.282367266772835
 20
6.999338003148618
 30
0.0
 40
0.0125
  0
CIRCLE
  5
6F0E
330
1F
100
AcDbEntity
  8
PCB_OUTLINE
100
AcDbCircle
 10
5.282367266772835
 20
6.944338003148617
 30
0.0
 40
0.0125
  0
CIRCLE
  5
6F0F
330
1F
100
AcDbEntity
  8
PCB_OUTLINE
100
AcDbCircle
 10
5.282367266772835
 20
6.889338003148617
 30
0.0
 40
0.0125
  0
CIRCLE
  5
6F10
330
1F
100
AcDbEntity
  8
PCB_OUTLINE
100
AcDbCircle
 10
5.282367266772835
 20
6.834338003148618
 30
0.0
 40
0.0125
  0
CIRCLE
  5
6F11
330
1F
100
AcDbEntity
  8
PCB_OUTLINE
100
AcDbCircle
 10
5.337367266772836
 20
6.999338003148618
 30
0.0
 40
0.0125
  0
CIRCLE
  5
6F12
330
1F
100
AcDbEntity
  8
PCB_OUTLINE
100
AcDbCircle
 10
5.337367266772836
 20
6.944338003148617
 30
0.0
 40
0.0125
  0
CIRCLE
  5
6F13
330
1F
100
AcDbEntity
  8
PCB_OUTLINE
100
AcDbCircle
 10
5.337367266772836
 20
6.889338003148617
 30
0.0
 40
0.0125
  0
CIRCLE
  5
6F14
330
1F
100
AcDbEntity
  8
PCB_OUTLINE
100
AcDbCircle
 10
5.337367266772836
 20
6.834338003148618
 30
0.0
 40
0.0125
  0
CIRCLE
  5
6F15
330
1F
100
AcDbEntity
  8
PCB_OUTLINE
100
AcDbCircle
 10
5.117367266772832
 20
6.999338003148618
 30
0.0
 40
0.0125
  0
CIRCLE
  5
6F16
330
1F
100
AcDbEntity
  8
PCB_OUTLINE
100
AcDbCircle
 10
5.117367266772832
 20
6.944338003148617
 30
0.0
 40
0.0125
  0
CIRCLE
  5
6F17
330
1F
100
AcDbEntity
  8
PCB_OUTLINE
100
AcDbCircle
 10
5.062367266772834
 20
6.999338003148618
 30
0.0
 40
0.0125
  0
CIRCLE
  5
6F18
330
1F
100
AcDbEntity
  8
PCB_OUTLINE
100
AcDbCircle
 10
5.062367266772834
 20
6.944338003148617
 30
0.0
 40
0.0125
  0
CIRCLE
  5
6F1B
330
1F
100
AcDbEntity
  8
PCB_OUTLINE
100
AcDbCircle
 10
5.392367266772835
 20
7.164338003148618
 30
0.0
 40
0.0125
  0
CIRCLE
  5
6F20
330
1F
100
AcDbEntity
  8
PCB_OUTLINE
100
AcDbCircle
 10
5.282367266772835
 20
6.614338003148617
 30
0.0
 40
0.0125
  0
CIRCLE
  5
6F21
330
1F
100
AcDbEntity
  8
PCB_OUTLINE
100
AcDbCircle
 10
5.282367266772835
 20
6.559338003148617
 30
0.0
 40
0.0125
  0
CIRCLE
  5
6F22
330
1F
100
AcDbEntity
  8
PCB_OUTLINE
100
AcDbCircle
 10
5.282367266772835
 20
6.504338003148617
 30
0.0
 40
0.0125
  0
CIRCLE
  5
6F23
330
1F
100
AcDbEntity
  8
PCB_OUTLINE
100
AcDbCircle
 10
5.337367266772836
 20
6.614338003148617
 30
0.0
 40
0.0125
  0
CIRCLE
  5
6F24
330
1F
100
AcDbEntity
  8
PCB_OUTLINE
100
AcDbCircle
 10
5.337367266772836
 20
6.559338003148617
 30
0.0
 40
0.0125
  0
CIRCLE
  5
6F25
330
1F
100
AcDbEntity
  8
PCB_OUTLINE
100
AcDbCircle
 10
5.337367266772836
 20
6.504338003148617
 30
0.0
 40
0.0125
  0
CIRCLE
  5
6F26
330
1F
100
AcDbEntity
  8
PCB_OUTLINE
100
AcDbCircle
 10
5.282367266772835
 20
6.669338003148618
 30
0.0
 40
0.0125
  0
CIRCLE
  5
6F27
330
1F
100
AcDbEntity
  8
PCB_OUTLINE
100
AcDbCircle
 10
5.282367266772835
 20
6.724338003148617
 30
0.0
 40
0.0125
  0
CIRCLE
  5
6F28
330
1F
100
AcDbEntity
  8
PCB_OUTLINE
100
AcDbCircle
 10
5.282367266772835
 20
6.779338003148617
 30
0.0
 40
0.0125
  0
CIRCLE
  5
6F29
330
1F
100
AcDbEntity
  8
PCB_OUTLINE
100
AcDbCircle
 10
5.337367266772836
 20
6.669338003148618
 30
0.0
 40
0.0125
  0
CIRCLE
  5
6F2A
330
1F
100
AcDbEntity
  8
PCB_OUTLINE
100
AcDbCircle
 10
5.337367266772836
 20
6.724338003148617
 30
0.0
 40
0.0125
  0
CIRCLE
  5
6F2B
330
1F
100
AcDbEntity
  8
PCB_OUTLINE
100
AcDbCircle
 10
5.337367266772836
 20
6.779338003148617
 30
0.0
 40
0.0125
  0
CIRCLE
  5
6F2C
330
1F
100
AcDbEntity
  8
PCB_OUTLINE
100
AcDbCircle
 10
5.392367266772835
 20
6.614338003148617
 30
0.0
 40
0.0125
  0
CIRCLE
  5
6F2D
330
1F
100
AcDbEntity
  8
PCB_OUTLINE
100
AcDbCircle
 10
5.392367266772835
 20
6.559338003148617
 30
0.0
 40
0.0125
  0
CIRCLE
  5
6F2E
330
1F
100
AcDbEntity
  8
PCB_OUTLINE
100
AcDbCircle
 10
5.392367266772835
 20
6.504338003148617
 30
0.0
 40
0.0125
  0
CIRCLE
  5
6F2F
330
1F
100
AcDbEntity
  8
PCB_OUTLINE
100
AcDbCircle
 10
5.392367266772835
 20
6.669338003148618
 30
0.0
 40
0.0125
  0
CIRCLE
  5
6F30
330
1F
100
AcDbEntity
  8
PCB_OUTLINE
100
AcDbCircle
 10
5.392367266772835
 20
6.724338003148617
 30
0.0
 40
0.0125
  0
CIRCLE
  5
6F31
330
1F
100
AcDbEntity
  8
PCB_OUTLINE
100
AcDbCircle
 10
5.392367266772835
 20
6.779338003148617
 30
0.0
 40
0.0125
  0
CIRCLE
  5
6F32
330
1F
100
AcDbEntity
  8
PCB_OUTLINE
100
AcDbCircle
 10
5.282367266772835
 20
6.449338003148617
 30
0.0
 40
0.0125
  0
CIRCLE
  5
6F33
330
1F
100
AcDbEntity
  8
PCB_OUTLINE
100
AcDbCircle
 10
5.337367266772836
 20
6.449338003148617
 30
0.0
 40
0.0125
  0
CIRCLE
  5
6F34
330
1F
100
AcDbEntity
  8
PCB_OUTLINE
100
AcDbCircle
 10
5.392367266772835
 20
6.449338003148617
 30
0.0
 40
0.0125
  0
CIRCLE
  5
6F35
330
1F
100
AcDbEntity
  8
PCB_OUTLINE
100
AcDbCircle
 10
5.282367266772835
 20
7.274338003148617
 30
0.0
 40
0.0125
  0
CIRCLE
  5
6F36
330
1F
100
AcDbEntity
  8
PCB_OUTLINE
100
AcDbCircle
 10
5.282367266772835
 20
7.219338003148617
 30
0.0
 40
0.0125
  0
CIRCLE
  5
6F37
330
1F
100
AcDbEntity
  8
PCB_OUTLINE
100
AcDbCircle
 10
5.337367266772836
 20
7.274338003148617
 30
0.0
 40
0.0125
  0
CIRCLE
  5
6F38
330
1F
100
AcDbEntity
  8
PCB_OUTLINE
100
AcDbCircle
 10
5.337367266772836
 20
7.219338003148617
 30
0.0
 40
0.0125
  0
CIRCLE
  5
6F39
330
1F
100
AcDbEntity
  8
PCB_OUTLINE
100
AcDbCircle
 10
5.282367266772835
 20
7.329338003148618
 30
0.0
 40
0.0125
  0
CIRCLE
  5
6F3A
330
1F
100
AcDbEntity
  8
PCB_OUTLINE
100
AcDbCircle
 10
5.282367266772835
 20
7.384338003148617
 30
0.0
 40
0.0125
  0
CIRCLE
  5
6F3B
330
1F
100
AcDbEntity
  8
PCB_OUTLINE
100
AcDbCircle
 10
5.282367266772835
 20
7.439338003148617
 30
0.0
 40
0.0125
  0
CIRCLE
  5
6F3C
330
1F
100
AcDbEntity
  8
PCB_OUTLINE
100
AcDbCircle
 10
5.282367266772835
 20
7.494338003148617
 30
0.0
 40
0.0125
  0
CIRCLE
  5
6F3D
330
1F
100
AcDbEntity
  8
PCB_OUTLINE
100
AcDbCircle
 10
5.337367266772836
 20
7.329338003148618
 30
0.0
 40
0.0125
  0
CIRCLE
  5
6F3E
330
1F
100
AcDbEntity
  8
PCB_OUTLINE
100
AcDbCircle
 10
5.337367266772836
 20
7.384338003148617
 30
0.0
 40
0.0125
  0
CIRCLE
  5
6F3F
330
1F
100
AcDbEntity
  8
PCB_OUTLINE
100
AcDbCircle
 10
5.337367266772836
 20
7.439338003148617
 30
0.0
 40
0.0125
  0
CIRCLE
  5
6F40
330
1F
100
AcDbEntity
  8
PCB_OUTLINE
100
AcDbCircle
 10
5.337367266772836
 20
7.494338003148617
 30
0.0
 40
0.0125
  0
CIRCLE
  5
6F41
330
1F
100
AcDbEntity
  8
PCB_OUTLINE
100
AcDbCircle
 10
5.392367266772835
 20
7.274338003148617
 30
0.0
 40
0.0125
  0
CIRCLE
  5
6F42
330
1F
100
AcDbEntity
  8
PCB_OUTLINE
100
AcDbCircle
 10
5.392367266772835
 20
7.219338003148617
 30
0.0
 40
0.0125
  0
CIRCLE
  5
6F43
330
1F
100
AcDbEntity
  8
PCB_OUTLINE
100
AcDbCircle
 10
5.392367266772835
 20
7.329338003148618
 30
0.0
 40
0.0125
  0
CIRCLE
  5
6F44
330
1F
100
AcDbEntity
  8
PCB_OUTLINE
100
AcDbCircle
 10
5.392367266772835
 20
7.384338003148617
 30
0.0
 40
0.0125
  0
CIRCLE
  5
6F45
330
1F
100
AcDbEntity
  8
PCB_OUTLINE
100
AcDbCircle
 10
5.392367266772835
 20
7.439338003148617
 30
0.0
 40
0.0125
  0
CIRCLE
  5
6F46
330
1F
100
AcDbEntity
  8
PCB_OUTLINE
100
AcDbCircle
 10
5.392367266772835
 20
7.494338003148617
 30
0.0
 40
0.0125
  0
CIRCLE
  5
6F47
330
1F
100
AcDbEntity
  8
PCB_OUTLINE
100
AcDbCircle
 10
5.282367266772835
 20
7.549338003148617
 30
0.0
 40
0.0125
  0
CIRCLE
  5
6F48
330
1F
100
AcDbEntity
  8
PCB_OUTLINE
100
AcDbCircle
 10
5.337367266772836
 20
7.549338003148617
 30
0.0
 40
0.0125
  0
CIRCLE
  5
6F49
330
1F
100
AcDbEntity
  8
PCB_OUTLINE
100
AcDbCircle
 10
5.392367266772835
 20
7.549338003148617
 30
0.0
 40
0.0125
  0
CIRCLE
  5
6F4A
330
1F
100
AcDbEntity
  8
PCB_OUTLINE
100
AcDbCircle
 10
3.852367266772832
 20
7.054338003148617
 30
0.0
 40
0.0125
  0
CIRCLE
  5
6F4B
330
1F
100
AcDbEntity
  8
PCB_OUTLINE
100
AcDbCircle
 10
3.797367266772829
 20
7.054338003148617
 30
0.0
 40
0.0125
  0
CIRCLE
  5
6F4C
330
1F
100
AcDbEntity
  8
PCB_OUTLINE
100
AcDbCircle
 10
3.742367266772832
 20
7.054338003148617
 30
0.0
 40
0.0125
  0
CIRCLE
  5
6F4D
330
1F
100
AcDbEntity
  8
PCB_OUTLINE
100
AcDbCircle
 10
3.687367266772832
 20
7.054338003148617
 30
0.0
 40
0.0125
  0
CIRCLE
  5
6F4E
330
1F
100
AcDbEntity
  8
PCB_OUTLINE
100
AcDbCircle
 10
3.632367266772831
 20
7.054338003148617
 30
0.0
 40
0.0125
  0
CIRCLE
  5
6F4F
330
1F
100
AcDbEntity
  8
PCB_OUTLINE
100
AcDbCircle
 10
3.632367266772831
 20
7.109338003148617
 30
0.0
 40
0.0125
  0
CIRCLE
  5
6F50
330
1F
100
AcDbEntity
  8
PCB_OUTLINE
100
AcDbCircle
 10
3.632367266772831
 20
7.164338003148618
 30
0.0
 40
0.0125
  0
CIRCLE
  5
6F51
330
1F
100
AcDbEntity
  8
PCB_OUTLINE
100
AcDbCircle
 10
3.577367266772832
 20
7.054338003148617
 30
0.0
 40
0.0125
  0
CIRCLE
  5
6F52
330
1F
100
AcDbEntity
  8
PCB_OUTLINE
100
AcDbCircle
 10
3.577367266772832
 20
7.109338003148617
 30
0.0
 40
0.0125
  0
CIRCLE
  5
6F53
330
1F
100
AcDbEntity
  8
PCB_OUTLINE
100
AcDbCircle
 10
3.577367266772832
 20
7.164338003148618
 30
0.0
 40
0.0125
  0
CIRCLE
  5
6F54
330
1F
100
AcDbEntity
  8
PCB_OUTLINE
100
AcDbCircle
 10
3.522367266772832
 20
7.054338003148617
 30
0.0
 40
0.0125
  0
CIRCLE
  5
6F55
330
1F
100
AcDbEntity
  8
PCB_OUTLINE
100
AcDbCircle
 10
3.522367266772832
 20
7.109338003148617
 30
0.0
 40
0.0125
  0
CIRCLE
  5
6F56
330
1F
100
AcDbEntity
  8
PCB_OUTLINE
100
AcDbCircle
 10
3.522367266772832
 20
7.164338003148618
 30
0.0
 40
0.0125
  0
CIRCLE
  5
6F57
330
1F
100
AcDbEntity
  8
PCB_OUTLINE
100
AcDbCircle
 10
3.852367266772832
 20
6.999338003148618
 30
0.0
 40
0.0125
  0
CIRCLE
  5
6F58
330
1F
100
AcDbEntity
  8
PCB_OUTLINE
100
AcDbCircle
 10
3.852367266772832
 20
6.944338003148617
 30
0.0
 40
0.0125
  0
CIRCLE
  5
6F59
330
1F
100
AcDbEntity
  8
PCB_OUTLINE
100
AcDbCircle
 10
3.797367266772829
 20
6.999338003148618
 30
0.0
 40
0.0125
  0
CIRCLE
  5
6F5A
330
1F
100
AcDbEntity
  8
PCB_OUTLINE
100
AcDbCircle
 10
3.797367266772829
 20
6.944338003148617
 30
0.0
 40
0.0125
  0
CIRCLE
  5
6F5B
330
1F
100
AcDbEntity
  8
PCB_OUTLINE
100
AcDbCircle
 10
3.742367266772832
 20
6.999338003148618
 30
0.0
 40
0.0125
  0
CIRCLE
  5
6F5C
330
1F
100
AcDbEntity
  8
PCB_OUTLINE
100
AcDbCircle
 10
3.742367266772832
 20
6.944338003148617
 30
0.0
 40
0.0125
  0
CIRCLE
  5
6F5D
330
1F
100
AcDbEntity
  8
PCB_OUTLINE
100
AcDbCircle
 10
3.687367266772832
 20
6.999338003148618
 30
0.0
 40
0.0125
  0
CIRCLE
  5
6F5E
330
1F
100
AcDbEntity
  8
PCB_OUTLINE
100
AcDbCircle
 10
3.687367266772832
 20
6.944338003148617
 30
0.0
 40
0.0125
  0
CIRCLE
  5
6F5F
330
1F
100
AcDbEntity
  8
PCB_OUTLINE
100
AcDbCircle
 10
3.632367266772831
 20
6.999338003148618
 30
0.0
 40
0.0125
  0
CIRCLE
  5
6F60
330
1F
100
AcDbEntity
  8
PCB_OUTLINE
100
AcDbCircle
 10
3.632367266772831
 20
6.944338003148617
 30
0.0
 40
0.0125
  0
CIRCLE
  5
6F61
330
1F
100
AcDbEntity
  8
PCB_OUTLINE
100
AcDbCircle
 10
3.632367266772831
 20
6.889338003148617
 30
0.0
 40
0.0125
  0
CIRCLE
  5
6F62
330
1F
100
AcDbEntity
  8
PCB_OUTLINE
100
AcDbCircle
 10
3.632367266772831
 20
6.834338003148618
 30
0.0
 40
0.0125
  0
CIRCLE
  5
6F63
330
1F
100
AcDbEntity
  8
PCB_OUTLINE
100
AcDbCircle
 10
3.577367266772832
 20
6.999338003148618
 30
0.0
 40
0.0125
  0
CIRCLE
  5
6F64
330
1F
100
AcDbEntity
  8
PCB_OUTLINE
100
AcDbCircle
 10
3.577367266772832
 20
6.944338003148617
 30
0.0
 40
0.0125
  0
CIRCLE
  5
6F65
330
1F
100
AcDbEntity
  8
PCB_OUTLINE
100
AcDbCircle
 10
3.577367266772832
 20
6.889338003148617
 30
0.0
 40
0.0125
  0
CIRCLE
  5
6F66
330
1F
100
AcDbEntity
  8
PCB_OUTLINE
100
AcDbCircle
 10
3.577367266772832
 20
6.834338003148618
 30
0.0
 40
0.0125
  0
CIRCLE
  5
6F67
330
1F
100
AcDbEntity
  8
PCB_OUTLINE
100
AcDbCircle
 10
3.522367266772832
 20
6.999338003148618
 30
0.0
 40
0.0125
  0
CIRCLE
  5
6F68
330
1F
100
AcDbEntity
  8
PCB_OUTLINE
100
AcDbCircle
 10
3.522367266772832
 20
6.944338003148617
 30
0.0
 40
0.0125
  0
CIRCLE
  5
6F69
330
1F
100
AcDbEntity
  8
PCB_OUTLINE
100
AcDbCircle
 10
3.522367266772832
 20
6.889338003148617
 30
0.0
 40
0.0125
  0
CIRCLE
  5
6F6A
330
1F
100
AcDbEntity
  8
PCB_OUTLINE
100
AcDbCircle
 10
3.522367266772832
 20
6.834338003148618
 30
0.0
 40
0.0125
  0
CIRCLE
  5
6F6B
330
1F
100
AcDbEntity
  8
PCB_OUTLINE
100
AcDbCircle
 10
3.632367266772831
 20
7.274338003148617
 30
0.0
 40
0.0125
  0
CIRCLE
  5
6F6C
330
1F
100
AcDbEntity
  8
PCB_OUTLINE
100
AcDbCircle
 10
3.632367266772831
 20
7.219338003148617
 30
0.0
 40
0.0125
  0
CIRCLE
  5
6F6D
330
1F
100
AcDbEntity
  8
PCB_OUTLINE
100
AcDbCircle
 10
3.577367266772832
 20
7.274338003148617
 30
0.0
 40
0.0125
  0
CIRCLE
  5
6F6E
330
1F
100
AcDbEntity
  8
PCB_OUTLINE
100
AcDbCircle
 10
3.577367266772832
 20
7.219338003148617
 30
0.0
 40
0.0125
  0
CIRCLE
  5
6F6F
330
1F
100
AcDbEntity
  8
PCB_OUTLINE
100
AcDbCircle
 10
3.522367266772832
 20
7.274338003148617
 30
0.0
 40
0.0125
  0
CIRCLE
  5
6F70
330
1F
100
AcDbEntity
  8
PCB_OUTLINE
100
AcDbCircle
 10
3.522367266772832
 20
7.219338003148617
 30
0.0
 40
0.0125
  0
CIRCLE
  5
6F71
330
1F
100
AcDbEntity
  8
PCB_OUTLINE
100
AcDbCircle
 10
3.632367266772831
 20
7.329338003148618
 30
0.0
 40
0.0125
  0
CIRCLE
  5
6F72
330
1F
100
AcDbEntity
  8
PCB_OUTLINE
100
AcDbCircle
 10
3.632367266772831
 20
7.384338003148617
 30
0.0
 40
0.0125
  0
CIRCLE
  5
6F73
330
1F
100
AcDbEntity
  8
PCB_OUTLINE
100
AcDbCircle
 10
3.632367266772831
 20
7.439338003148617
 30
0.0
 40
0.0125
  0
CIRCLE
  5
6F74
330
1F
100
AcDbEntity
  8
PCB_OUTLINE
100
AcDbCircle
 10
3.632367266772831
 20
7.494338003148617
 30
0.0
 40
0.0125
  0
CIRCLE
  5
6F75
330
1F
100
AcDbEntity
  8
PCB_OUTLINE
100
AcDbCircle
 10
3.577367266772832
 20
7.329338003148618
 30
0.0
 40
0.0125
  0
CIRCLE
  5
6F76
330
1F
100
AcDbEntity
  8
PCB_OUTLINE
100
AcDbCircle
 10
3.577367266772832
 20
7.384338003148617
 30
0.0
 40
0.0125
  0
CIRCLE
  5
6F77
330
1F
100
AcDbEntity
  8
PCB_OUTLINE
100
AcDbCircle
 10
3.577367266772832
 20
7.439338003148617
 30
0.0
 40
0.0125
  0
CIRCLE
  5
6F78
330
1F
100
AcDbEntity
  8
PCB_OUTLINE
100
AcDbCircle
 10
3.577367266772832
 20
7.494338003148617
 30
0.0
 40
0.0125
  0
CIRCLE
  5
6F79
330
1F
100
AcDbEntity
  8
PCB_OUTLINE
100
AcDbCircle
 10
3.522367266772832
 20
7.329338003148618
 30
0.0
 40
0.0125
  0
CIRCLE
  5
6F7A
330
1F
100
AcDbEntity
  8
PCB_OUTLINE
100
AcDbCircle
 10
3.522367266772832
 20
7.384338003148617
 30
0.0
 40
0.0125
  0
CIRCLE
  5
6F7B
330
1F
100
AcDbEntity
  8
PCB_OUTLINE
100
AcDbCircle
 10
3.522367266772832
 20
7.439338003148617
 30
0.0
 40
0.0125
  0
CIRCLE
  5
6F7C
330
1F
100
AcDbEntity
  8
PCB_OUTLINE
100
AcDbCircle
 10
3.522367266772832
 20
7.494338003148617
 30
0.0
 40
0.0125
  0
CIRCLE
  5
6F7D
330
1F
100
AcDbEntity
  8
PCB_OUTLINE
100
AcDbCircle
 10
3.632367266772831
 20
7.549338003148617
 30
0.0
 40
0.0125
  0
CIRCLE
  5
6F7E
330
1F
100
AcDbEntity
  8
PCB_OUTLINE
100
AcDbCircle
 10
3.577367266772832
 20
7.549338003148617
 30
0.0
 40
0.0125
  0
CIRCLE
  5
6F7F
330
1F
100
AcDbEntity
  8
PCB_OUTLINE
100
AcDbCircle
 10
3.522367266772832
 20
7.549338003148617
 30
0.0
 40
0.0125
  0
CIRCLE
  5
6F80
330
1F
100
AcDbEntity
  8
PCB_OUTLINE
100
AcDbCircle
 10
3.632367266772831
 20
6.614338003148617
 30
0.0
 40
0.0125
  0
CIRCLE
  5
6F81
330
1F
100
AcDbEntity
  8
PCB_OUTLINE
100
AcDbCircle
 10
3.632367266772831
 20
6.559338003148617
 30
0.0
 40
0.0125
  0
CIRCLE
  5
6F82
330
1F
100
AcDbEntity
  8
PCB_OUTLINE
100
AcDbCircle
 10
3.632367266772831
 20
6.504338003148617
 30
0.0
 40
0.0125
  0
CIRCLE
  5
6F83
330
1F
100
AcDbEntity
  8
PCB_OUTLINE
100
AcDbCircle
 10
3.577367266772832
 20
6.614338003148617
 30
0.0
 40
0.0125
  0
CIRCLE
  5
6F84
330
1F
100
AcDbEntity
  8
PCB_OUTLINE
100
AcDbCircle
 10
3.577367266772832
 20
6.559338003148617
 30
0.0
 40
0.0125
  0
CIRCLE
  5
6F85
330
1F
100
AcDbEntity
  8
PCB_OUTLINE
100
AcDbCircle
 10
3.577367266772832
 20
6.504338003148617
 30
0.0
 40
0.0125
  0
CIRCLE
  5
6F86
330
1F
100
AcDbEntity
  8
PCB_OUTLINE
100
AcDbCircle
 10
3.522367266772832
 20
6.614338003148617
 30
0.0
 40
0.0125
  0
CIRCLE
  5
6F87
330
1F
100
AcDbEntity
  8
PCB_OUTLINE
100
AcDbCircle
 10
3.522367266772832
 20
6.559338003148617
 30
0.0
 40
0.0125
  0
CIRCLE
  5
6F88
330
1F
100
AcDbEntity
  8
PCB_OUTLINE
100
AcDbCircle
 10
3.522367266772832
 20
6.504338003148617
 30
0.0
 40
0.0125
  0
CIRCLE
  5
6F89
330
1F
100
AcDbEntity
  8
PCB_OUTLINE
100
AcDbCircle
 10
3.632367266772831
 20
6.669338003148618
 30
0.0
 40
0.0125
  0
CIRCLE
  5
6F8A
330
1F
100
AcDbEntity
  8
PCB_OUTLINE
100
AcDbCircle
 10
3.632367266772831
 20
6.724338003148617
 30
0.0
 40
0.0125
  0
CIRCLE
  5
6F8B
330
1F
100
AcDbEntity
  8
PCB_OUTLINE
100
AcDbCircle
 10
3.632367266772831
 20
6.779338003148617
 30
0.0
 40
0.0125
  0
CIRCLE
  5
6F8C
330
1F
100
AcDbEntity
  8
PCB_OUTLINE
100
AcDbCircle
 10
3.577367266772832
 20
6.669338003148618
 30
0.0
 40
0.0125
  0
CIRCLE
  5
6F8D
330
1F
100
AcDbEntity
  8
PCB_OUTLINE
100
AcDbCircle
 10
3.577367266772832
 20
6.724338003148617
 30
0.0
 40
0.0125
  0
CIRCLE
  5
6F8E
330
1F
100
AcDbEntity
  8
PCB_OUTLINE
100
AcDbCircle
 10
3.577367266772832
 20
6.779338003148617
 30
0.0
 40
0.0125
  0
CIRCLE
  5
6F8F
330
1F
100
AcDbEntity
  8
PCB_OUTLINE
100
AcDbCircle
 10
3.522367266772832
 20
6.669338003148618
 30
0.0
 40
0.0125
  0
CIRCLE
  5
6F90
330
1F
100
AcDbEntity
  8
PCB_OUTLINE
100
AcDbCircle
 10
3.522367266772832
 20
6.724338003148617
 30
0.0
 40
0.0125
  0
CIRCLE
  5
6F91
330
1F
100
AcDbEntity
  8
PCB_OUTLINE
100
AcDbCircle
 10
3.522367266772832
 20
6.779338003148617
 30
0.0
 40
0.0125
  0
CIRCLE
  5
6F92
330
1F
100
AcDbEntity
  8
PCB_OUTLINE
100
AcDbCircle
 10
3.632367266772831
 20
6.449338003148617
 30
0.0
 40
0.0125
  0
CIRCLE
  5
6F93
330
1F
100
AcDbEntity
  8
PCB_OUTLINE
100
AcDbCircle
 10
3.577367266772832
 20
6.449338003148617
 30
0.0
 40
0.0125
  0
CIRCLE
  5
6F94
330
1F
100
AcDbEntity
  8
PCB_OUTLINE
100
AcDbCircle
 10
3.522367266772832
 20
6.449338003148617
 30
0.0
 40
0.0125
  0
LWPOLYLINE
  5
7EAF
330
1F
100
AcDbEntity
  8
PCB_OUTLINE
100
AcDbPolyline
 90
        4
 70
     1
 43
0.0
 10
5.431367266772896
 20
7.589338003148673
 10
5.431367266772896
 20
6.409338003148692
 10
3.483367266772833
 20
6.409338003148692
 10
3.483367266772833
 20
7.589338003148617
  0
LWPOLYLINE
  5
7EB0
330
1F
100
AcDbEntity
  8
PCB_TOP
100
AcDbPolyline
 90
       29
 70
     0
 43
0.0
 10
3.842367266772828
 20
6.894343178964897
 10
3.842367266772828
 20
6.814338003148693
 10
3.887867266772886
 20
6.814338003148693
 10
3.887867266772832
 20
6.409338003148692
 10
5.026867266772954
 20
6.409338003149002
 10
5.026867266772954
 20
6.814332827332798
 10
5.072365840241646
 20
6.814332827332798
 10
5.072365840241646
 20
6.894338003149003
 10
5.235867266772952
 20
6.894338003149003
 10
5.235867266772893
 20
6.409338003148692
 10
5.431367266772896
 20
6.409338003148692
 10
5.431367266772896
 20
7.589338003148673
 10
5.235867266772893
 20
7.589338003148673
 10
5.235867266772891
 20
7.104338003148927
 10
5.072365840241586
 20
7.104338003148927
 10
5.072365840241586
 20
7.184343178965129
 10
5.026867266772893
 20
7.184343178965129
 10
5.026867266772893
 20
7.589338003148927
 10
3.887867266772832
 20
7.589338003148617
 10
3.887867266772832
 20
7.184348354781025
 10
3.842367266772772
 20
7.184348354781025
 10
3.842367266772772
 20
7.104338003148617
 10
3.678867266772833
 20
7.104338003148617
 10
3.678867266772833
 20
7.589338003148617
 10
3.483367266772833
 20
7.589338003148617
 10
3.483367266772833
 20
6.409338003148692
 10
3.678867266772832
 20
6.409338003148692
 10
3.678867266772888
 20
6.894338003148693
 10
3.842367266772828
 20
6.894338003148693
  0
LWPOLYLINE
  5
7EB8
330
1F
100
AcDbEntity
  8
PCB_TOP
100
AcDbPolyline
 90
        4
 70
     1
 43
0.0
 10
3.812367266772886
 20
6.864338003148692
 10
3.812367266772886
 20
6.438338003148692
 42
-0.9999999999999998
 10
3.754367266772886
 20
6.438338003148692
 10
3.754367266772886
 20
6.864338003148692
  0
LWPOLYLINE
  5
7EB9
330
1F
100
AcDbEntity
  8
PCB_TOP
100
AcDbPolyline
 90
        4
 70
     1
 43
0.0
 10
3.754367266772832
 20
7.134338003148617
 10
3.812367266772832
 20
7.134338003148617
 10
3.812367266772832
 20
7.560338003148618
 42
0.9999999999999998
 10
3.754367266772832
 20
7.560338003148618
  0
LWPOLYLINE
  5
7EBA
330
1F
100
AcDbEntity
  8
PCB_TOP
100
AcDbPolyline
 90
        4
 70
     1
 43
0.0
 10
5.102367266772893
 20
7.134338003148927
 10
5.102367266772893
 20
7.560338003148928
 42
-0.9999999999999998
 10
5.160367266772893
 20
7.560338003148928
 10
5.160367266772893
 20
7.134338003148927
  0
LWPOLYLINE
  5
7EBB
330
1F
100
AcDbEntity
  8
PCB_TOP
100
AcDbPolyline
 90
        4
 70
     1
 43
0.0
 10
5.102367266772954
 20
6.864338003149002
 10
5.102367266772954
 20
6.438338003149002
 42
0.9999999999999998
 10
5.160367266772952
 20
6.438338003149002
 10
5.160367266772952
 20
6.864338003149002
  0
INSERT
  5
81F9
330
1F
100
AcDbEntity
  8
DIMS
100
AcDbBlockReference
  2
A$C167835CE
 10
3.812367266772886
 20
6.864338003148692
 30
0.0
  0
MTEXT
  5
824A
330
1F
100
AcDbEntity
  8
Text
100
AcDbMText
 10
4.454090922210649
 20
6.310695938727059
 30
0.0
 40
0.05
 41
1.317781835861389
 71
     2
 72
     5
  1
Er=3.55, 2oz. cu, Both Sides (.032" THK.)
  7
ARIAL
 73
     1
 44
1.0
1001
ACAD
1000
MTEXTBEGIN
1070
    73
1070
     1
1070
    44
1040
1.0
1070
    74
1070
     0
1000
MTEXTEND
  0
CIRCLE
  5
82E4
330
1F
100
AcDbEntity
  8
PCB_OUTLINE
100
AcDbCircle
 10
5.392367266772835
 20
7.054338003148617
 30
0.0
 40
0.0125
  0
CIRCLE
  5
82E5
330
1F
100
AcDbEntity
  8
PCB_OUTLINE
100
AcDbCircle
 10
5.392367266772835
 20
7.109338003148617
 30
0.0
 40
0.0125
  0
CIRCLE
  5
82E6
330
1F
100
AcDbEntity
  8
PCB_OUTLINE
100
AcDbCircle
 10
5.392367266772835
 20
6.999338003148618
 30
0.0
 40
0.0125
  0
CIRCLE
  5
82E7
330
1F
100
AcDbEntity
  8
PCB_OUTLINE
100
AcDbCircle
 10
5.392367266772835
 20
6.944338003148617
 30
0.0
 40
0.0125
  0
CIRCLE
  5
82E8
330
1F
100
AcDbEntity
  8
PCB_OUTLINE
100
AcDbCircle
 10
5.392367266772835
 20
6.889338003148617
 30
0.0
 40
0.0125
  0
CIRCLE
  5
82E9
330
1F
100
AcDbEntity
  8
PCB_OUTLINE
100
AcDbCircle
 10
5.392367266772835
 20
6.834338003148618
 30
0.0
 40
0.0125
  0
VIEWPORT
  5
265F
102
{ACAD_XDICTIONARY
360
82FA
102
}
330
5D
100
AcDbEntity
 67
     1
  8
0
100
AcDbViewport
 10
5.249999639556162
 20
3.999999883606676
 30
0.0
 40
12.11453684760341
 41
8.992999745766947
 68
     1
 69
     1
 12
5.249999639556162
 22
3.999999883606676
 13
0.0
 23
0.0
 14
0.5
 24
0.5
 15
0.5
 25
0.5
 16
0.0
 26
0.0
 36
1.0
 17
0.0
 27
0.0
 37
0.0
 42
50.0
 43
0.0
 44
0.0
 45
8.992999745766947
 50
0.0
 51
0.0
 72
   100
 90
    32800
  1

281
     0
 71
     1
 74
     0
110
0.0
120
0.0
130
0.0
111
1.0
121
0.0
131
0.0
112
0.0
122
1.0
132
0.0
 79
     0
146
0.0
1001
GENIUS_GENOBJ-N-SDF_13
1002
{
1000
OWNER
1000
GEN
1002
}
1001
GENIUS_GENODEF_13
1002
{
1000
HIER
1070
     0
1002
}
1002
{
1000
MANEDIT
1070
     0
1002
}
1002
{
1000
NOSEL
1070
     0
1002
}
1002
{
1000
BEHIND
1070
     0
1002
}
1002
{
1000
OTHER
1070
     0
1002
}
1002
{
1000
REACTOR
1002
}
1001
GENIUS_GENSCREG_15
1000
PF
1040
1.0
1000
DF
1040
1.0
1000
MIN
1011
-0.8072687842455419
1021
-0.4964999892767974
1031
0.0
1000
MAX
1011
11.30726806335786
1021
8.49649975649015
1031
0.0
1000
FLAGS
1070
     4
  0
VIEWPORT
  5
2661
102
{ACAD_XDICTIONARY
360
82FC
102
}
330
5D
100
AcDbEntity
 67
     1
  8
PCB_TOP
100
AcDbViewport
 10
5.24999976158142
 20
3.999999761581419
 30
0.0
 40
8.399999618530271
 41
6.399999618530272
 68
     2
 69
     2
 12
3.87429541094143
 22
5.500228136084368
 13
0.0
 23
0.0
 14
0.025
 24
0.025
 15
0.5
 25
0.5
 16
0.0
 26
0.0
 36
1.0
 17
0.0
 27
0.0
 37
0.0
 42
50.0
 43
0.0
 44
0.0
 45
20.24599735654143
 50
0.0
 51
0.0
 72
   100
 90
    41056
  1

281
     0
 71
     1
 74
     0
110
0.0
120
0.0
130
0.0
111
1.0
121
0.0
131
0.0
112
0.0
122
1.0
132
0.0
 79
     0
146
0.0
1001
GENIUS_GENODEF_13
1002
{
1000
HIER
1070
     0
1002
}
1002
{
1000
MANEDIT
1070
     0
1002
}
1002
{
1000
NOSEL
1070
     0
1002
}
1002
{
1000
BEHIND
1070
     0
1002
}
1002
{
1000
OTHER
1070
     0
1002
}
1002
{
1000
REACTOR
1002
}
1001
GENIUS_GENOBJ-N-SDF_13
1002
{
1000
OWNER
1000
GEN
1002
}
1001
GENIUS_GENSCREG_15
1000
PF
1040
0.0
1000
DF
1040
0.0
1000
MIN
1011
1.049999952316284
1021
0.7999999523162833
1031
0.0
1000
MAX
1011
9.449999570846555
1021
7.199999570846555
1031
0.0
1000
FLAGS
1070
     4
  0
ENDSEC
  0
SECTION
  2
OBJECTS
  0
DICTIONARY
  5
C
330
0
100
AcDbDictionary
281
     1
  3
ACAD_2007HEADERVARS_RT
350
82EE
  3
ACAD_CIP_PREVIOUS_PRODUCT_INFO
350
8072
  3
ACAD_COLOR
350
18B8
  3
ACAD_DETAILVIEWSTYLE
350
8068
  3
ACAD_GROUP
350
D
  3
ACAD_LAYOUT
350
1A
  3
ACAD_MATERIAL
350
18B7
  3
ACAD_MLEADERSTYLE
350
5226
  3
ACAD_MLINESTYLE
350
17
  3
ACAD_PLOTSETTINGS
350
19
  3
ACAD_PLOTSTYLENAME
350
E
  3
ACAD_SCALELIST
350
5204
  3
ACAD_SECTIONVIEWSTYLE
350
8066
  3
ACAD_TABLESTYLE
350
18B9
  3
ACAD_VISUALSTYLE
350
51F3
  3
ACDB_RECOMPOSE_DATA
350
82EC
  3
AcDbVariableDictionary
350
66
  3
AcmDictionary
350
530F
  3
AMG
350
52B2
  3
AMGSNAPSETTINGS
350
5454
  3
BNS_VARIABLES
350
457D
  3
DWGPROPS
350
82ED
  0
DICTIONARY
  5
528A
330
8
100
AcDbDictionary
280
     1
281
     1
  0
DICTIONARY
  5
18CC
330
2
100
AcDbDictionary
280
     1
281
     1
  3
ACAD_LAYERFILTERS
360
5285
  3
ACAD_LAYERSTATES
360
45B5
  3
ACLYDICTIONARY
360
5284
  0
DICTIONARY
  5
522E
330
10
100
AcDbDictionary
280
     1
281
     1
  3
ADSK_XREC_LAYER_RECONCILED
360
522F
  0
DICTIONARY
  5
5230
330
A1
100
AcDbDictionary
280
     1
281
     1
  3
ADSK_XREC_LAYER_RECONCILED
360
5231
  0
DICTIONARY
  5
5232
330
A3
100
AcDbDictionary
280
     1
281
     1
  3
ADSK_XREC_LAYER_RECONCILED
360
5233
  0
DICTIONARY
  5
5234
330
B20
100
AcDbDictionary
280
     1
281
     1
  3
ADSK_XREC_LAYER_RECONCILED
360
5235
  0
DICTIONARY
  5
5236
330
B21
100
AcDbDictionary
280
     1
281
     1
  3
ADSK_XREC_LAYER_RECONCILED
360
5237
  0
DICTIONARY
  5
5238
330
B8C
100
AcDbDictionary
280
     1
281
     1
  3
ADSK_XREC_LAYER_RECONCILED
360
5239
  0
DICTIONARY
  5
523A
330
CDE
100
AcDbDictionary
280
     1
281
     1
  3
ADSK_XREC_LAYER_RECONCILED
360
523B
  0
DICTIONARY
  5
523C
330
DC4
100
AcDbDictionary
280
     1
281
     1
  3
ADSK_XREC_LAYER_RECONCILED
360
523D
  0
DICTIONARY
  5
523E
330
DC5
100
AcDbDictionary
280
     1
281
     1
  3
ADSK_XREC_LAYER_RECONCILED
360
523F
  0
DICTIONARY
  5
81A9
330
81A8
100
AcDbDictionary
280
     1
281
     1
  0
DICTIONARY
  5
81AC
330
81AB
100
AcDbDictionary
280
     1
281
     1
  0
DICTIONARY
  5
1956
330
1F
100
AcDbDictionary
280
     1
281
     1
  3
ACAD_SORTENTS
360
1957
  0
DICTIONARY
  5
81F4
330
81B0
100
AcDbDictionary
280
     1
281
     1
  3
ACAD_SORTENTS
360
81F5
  0
DICTIONARY
  5
82FA
330
265F
100
AcDbDictionary
280
     1
281
     1
  3
ACAD_XREC_ROUNDTRIP
360
82FB
  0
DICTIONARY
  5
82FC
330
2661
100
AcDbDictionary
280
     1
281
     1
  3
ACAD_XREC_ROUNDTRIP
360
82FD
  0
DICTIONARY
  5
82EE
102
{ACAD_REACTORS
330
C
102
}
330
C
100
AcDbDictionary
281
     1
  3
DIMARCSYM
350
82EF
  3
DIMLTEX1
350
82F1
  3
DIMLTEX2
350
82F2
  3
DIMLTYPE
350
82F0
  0
XRECORD
  5
8072
102
{ACAD_REACTORS
330
C
102
}
330
C
100
AcDbXrecord
280
     1
300
AMECH_PP
300
2013
300
PDSP_F_S
  0
DICTIONARY
  5
18B8
102
{ACAD_REACTORS
330
C
102
}
330
C
100
AcDbDictionary
281
     1
  0
DICTIONARY
  5
8068
102
{ACAD_REACTORS
330
C
102
}
330
C
100
AcDbDictionary
281
     1
  3
Imperial24
350
8069
  0
DICTIONARY
  5
D
102
{ACAD_REACTORS
330
C
102
}
330
C
100
AcDbDictionary
281
     1
  0
DICTIONARY
  5
1A
102
{ACAD_REACTORS
330
C
102
}
330
C
100
AcDbDictionary
281
     1
  3
Layout1
350
59
  3
Layout2
350
5E
  3
Model
350
22
  0
DICTIONARY
  5
18B7
102
{ACAD_REACTORS
330
C
102
}
330
C
100
AcDbDictionary
281
     1
  3
ByBlock
350
51E3
  3
ByLayer
350
51DB
  3
Global
350
51EB
  0
DICTIONARY
  5
5226
102
{ACAD_REACTORS
330
C
102
}
330
C
100
AcDbDictionary
281
     1
  3
Standard
350
5227
  0
DICTIONARY
  5
17
102
{ACAD_REACTORS
330
C
102
}
330
C
100
AcDbDictionary
281
     1
  3
Standard
350
18
  0
DICTIONARY
  5
19
102
{ACAD_REACTORS
330
C
102
}
330
C
100
AcDbDictionary
281
     1
  0
ACDBDICTIONARYWDFLT
  5
E
102
{ACAD_REACTORS
330
C
102
}
330
C
100
AcDbDictionary
281
     1
  3
Normal
350
F
100
AcDbDictionaryWithDefault
340
F
  0
DICTIONARY
  5
5204
102
{ACAD_REACTORS
330
C
102
}
330
C
100
AcDbDictionary
281
     1
  3
A0
350
5205
  3
A1
350
5206
  3
A2
350
5207
  3
A3
350
5208
  3
A4
350
5209
  3
A5
350
520A
  3
A6
350
520B
  3
A7
350
520C
  3
A8
350
520D
  3
A9
350
520E
  3
B0
350
520F
  3
B1
350
5210
  3
B2
350
5211
  3
B3
350
5212
  3
B4
350
5213
  3
B5
350
5214
  3
B6
350
5215
  3
B7
350
5216
  3
B8
350
5217
  3
B9
350
5218
  3
C0
350
5219
  3
C1
350
521A
  3
C2
350
521B
  3
C3
350
521C
  3
C4
350
521D
  3
C5
350
521E
  3
C6
350
521F
  3
C7
350
5220
  3
C8
350
5221
  3
C9
350
5222
  3
D0
350
5223
  3
D1
350
5224
  3
D2
350
5225
  0
DICTIONARY
  5
8066
102
{ACAD_REACTORS
330
C
102
}
330
C
100
AcDbDictionary
281
     1
  3
Imperial24
350
8067
  0
DICTIONARY
  5
18B9
102
{ACAD_REACTORS
330
C
102
}
330
C
100
AcDbDictionary
281
     1
  3
Standard
350
18BA
  0
DICTIONARY
  5
51F3
102
{ACAD_REACTORS
330
C
102
}
330
C
100
AcDbDictionary
281
     1
  3
2dWireframe
350
51F9
  3
3D Hidden
350
51FB
  3
3dWireframe
350
51FA
  3
Basic
350
51F8
  3
Brighten
350
51FF
  3
ColorChange
350
5203
  3
Conceptual
350
51FC
  3
Dim
350
51FE
  3
EdgeColorOff
350
59BB
  3
Facepattern
350
5202
  3
Flat
350
51F4
  3
FlatWithEdges
350
51F5
  3
Gouraud
350
51F6
  3
GouraudWithEdges
350
51F7
  3
Hidden
350
6862
  3
JitterOff
350
59B9
  3
Linepattern
350
5201
  3
OverhangOff
350
59BA
  3
Realistic
350
51FD
  3
Shaded
350
6867
  3
Shaded with edges
350
6866
  3
Shades of Gray
350
6863
  3
Sketchy
350
6864
  3
Thicken
350
5200
  3
Wireframe
350
6861
  3
X-Ray
350
6865
  0
XRECORD
  5
82EC
102
{ACAD_REACTORS
330
C
102
}
330
C
100
AcDbXrecord
280
     1
 90
        1
330
18BA
  0
DICTIONARY
  5
66
102
{ACAD_REACTORS
330
C
102
}
330
C
100
AcDbDictionary
281
     1
  3
CANNOSCALE
350
52A8
  3
CMLEADERSTYLE
350
52A7
  3
CTABLESTYLE
350
18C2
  3
CVIEWDETAILSTYLE
350
80B9
  3
CVIEWSECTIONSTYLE
350
80BA
  3
DIMASSOC
350
67
  3
HIDETEXT
350
6B
  3
INDEXCTL
350
52AA
  3
PROJECTNAME
350
19CC
  3
SORTENTS
350
52A9
  3
XCLIPFRAME
350
82EA
  0
DICTIONARY
  5
530F
102
{ACAD_REACTORS
330
C
102
}
330
C
100
AcDbDictionary
281
     1
  3
AcmStdDictionary
350
531A
  0
DICTIONARY
  5
52B2
102
{ACAD_REACTORS
330
C
102
}
330
C
100
AcDbDictionary
281
     1
  0
DICTIONARY
  5
5454
102
{ACAD_REACTORS
330
C
102
}
330
C
100
AcDbDictionary
281
     1
  0
DICTIONARY
  5
457D
102
{ACAD_REACTORS
330
C
102
}
330
C
100
AcDbDictionary
281
     1
  3
ACET-OVERKILL-FUZZ
350
4582
  3
ACET-OVERKILL-NO-ENDTOEND
350
4585
  3
ACET-OVERKILL-NO-PARTIAL
350
4584
  3
ACET-OVERKILL-NO-PLINES
350
4583
  0
XRECORD
  5
82ED
102
{ACAD_REACTORS
330
C
102
}
330
C
100
AcDbXrecord
280
     1
  1
DWGPROPS COOKIE
  2

  3

  4

  6

  7

  8
scornell
  9

300
=
301
=
302
=
303
=
304
=
305
=
306
=
307
=
308
=
309
=
 40
0.814764525462963
 41
2453485.819327072
 42
2456905.558634364
  1

 90
        0
  0
DICTIONARY
  5
5285
102
{ACAD_REACTORS
330
18CC
102
}
330
18CC
100
AcDbDictionary
281
     1
  0
DICTIONARY
  5
45B5
102
{ACAD_REACTORS
330
18CC
102
}
330
18CC
100
AcDbDictionary
281
     1
  0
DICTIONARY
  5
5284
102
{ACAD_REACTORS
330
18CC
102
}
330
18CC
100
AcDbDictionary
281
     1
1001
ACAD
1000
<All
  0
XRECORD
  5
522F
102
{ACAD_REACTORS
330
522E
102
}
330
522E
100
AcDbXrecord
280
     1
290
     1
  0
XRECORD
  5
5231
102
{ACAD_REACTORS
330
5230
102
}
330
5230
100
AcDbXrecord
280
     1
290
     1
  0
XRECORD
  5
5233
102
{ACAD_REACTORS
330
5232
102
}
330
5232
100
AcDbXrecord
280
     1
290
     1
  0
XRECORD
  5
5235
102
{ACAD_REACTORS
330
5234
102
}
330
5234
100
AcDbXrecord
280
     1
290
     1
  0
XRECORD
  5
5237
102
{ACAD_REACTORS
330
5236
102
}
330
5236
100
AcDbXrecord
280
     1
290
     1
  0
XRECORD
  5
5239
102
{ACAD_REACTORS
330
5238
102
}
330
5238
100
AcDbXrecord
280
     1
290
     1
  0
XRECORD
  5
523B
102
{ACAD_REACTORS
330
523A
102
}
330
523A
100
AcDbXrecord
280
     1
290
     1
  0
XRECORD
  5
523D
102
{ACAD_REACTORS
330
523C
102
}
330
523C
100
AcDbXrecord
280
     1
290
     1
  0
XRECORD
  5
523F
102
{ACAD_REACTORS
330
523E
102
}
330
523E
100
AcDbXrecord
280
     1
290
     1
  0
SORTENTSTABLE
  5
1957
102
{ACAD_REACTORS
330
1956
102
}
330
1956
100
AcDbSortentsTable
330
1F
331
6E06
  5
6E0C
331
6E7C
  5
6E82
331
6E02
  5
6E08
331
6E3D
  5
6E43
331
6D77
  5
6D7D
331
6E78
  5
6E7E
331
6EB7
  5
6EBD
331
6DFE
  5
6E04
331
6DFA
  5
6E00
331
6E39
  5
6E3F
331
6D73
  5
6D79
331
6E74
  5
6E7A
331
6EB3
  5
6EB9
331
6E70
  5
6E76
331
246C
  5
246C
331
6D47
  5
6D4D
331
1E24
  5
1E24
331
6D8E
  5
6D94
331
6EF5
  5
6EFB
331
6D8A
  5
6D90
331
6F6F
  5
6F75
331
6EF1
  5
6EF7
331
6D86
  5
6D8C
331
6F6B
  5
6F71
331
6DC5
  5
6DCB
331
6DC1
  5
6DC7
331
6EED
  5
6EF3
331
6F2C
  5
6F32
331
6D82
  5
6D88
331
6F67
  5
6F6D
331
6F28
  5
6F2E
331
6F63
  5
6F69
331
6EE9
  5
6EEF
331
6DF6
  5
6DFC
331
6E35
  5
6E3B
331
6EAF
  5
6EB5
331
6D6F
  5
6D75
331
6D6B
  5
6D71
331
6E6C
  5
6E72
331
6EAB
  5
6EB1
331
6DF2
  5
6DF8
331
6E31
  5
6E37
331
6E2D
  5
6E33
331
6D67
  5
6D6D
331
6E68
  5
6E6E
331
6EA7
  5
6EAD
331
6DEE
  5
6DF4
331
6DEA
  5
6DF0
331
6E29
  5
6E2F
331
6D63
  5
6D69
331
6E64
  5
6E6A
331
6EA3
  5
6EA9
331
6D17
  5
6D18
331
6E60
  5
6E66
331
6D7E
  5
6D84
331
6DBD
  5
6DC3
331
6F24
  5
6F2A
331
6D7A
  5
6D80
331
6DB9
  5
6DBF
331
6F5F
  5
6F65
331
6EE5
  5
6EEB
331
6EE1
  5
6EE7
331
6F20
  5
6F26
331
6F5B
  5
6F61
331
6DB5
  5
6DBB
331
6DB1
  5
6DB7
331
6EDD
  5
6EE3
331
6F57
  5
6F5D
331
6F53
  5
6F59
331
6F92
  5
7770
331
6ED9
  5
6EDF
331
6F18
  5
6F24
331
6DE6
  5
6DEC
331
6E25
  5
6E2B
331
6E9F
  5
6EA5
331
6D5F
  5
6D65
331
6DE2
  5
6DE8
331
6E21
  5
6E27
331
6E9B
  5
6EA1
331
6E5C
  5
6E62
331
6D5B
  5
6D61
331
6E1D
  5
6E23
331
6D57
  5
6D5D
331
6E58
  5
6E5E
331
6E97
  5
6E9D
331
6DDE
  5
6DE4
331
6DDA
  5
6DE0
331
6E19
  5
6E1F
331
6D53
  5
6D59
331
6E54
  5
6E5A
331
6E93
  5
6E99
331
248F
  5
248F
331
6E50
  5
6E56
331
248B
  5
248B
331
2487
  5
2487
331
2483
  5
2483
331
6DAD
  5
6DB3
331
6F14
  5
6F20
331
6DA9
  5
6DAF
331
6F4F
  5
6F55
331
6F8E
  5
6F94
331
6ED5
  5
6EDB
331
6ED1
  5
6ED7
331
6F10
  5
6F16
331
6DA5
  5
6DAB
331
6F4B
  5
6F51
331
6F8A
  5
6F90
331
6DA1
  5
6DA7
331
6F86
  5
6F8C
331
6ECD
  5
6ED3
331
6F0C
  5
6F12
331
6F47
  5
6F4D
331
6F43
  5
6F49
331
6F82
  5
6F88
331
6EC9
  5
6ECF
331
6F08
  5
6F0E
331
6DD6
  5
6DDC
331
6E15
  5
6E1B
331
6D4F
  5
6D55
331
6E8F
  5
6E95
331
6DD2
  5
6DD8
331
6E11
  5
6E17
331
6E8B
  5
6E91
331
6E4C
  5
6E52
331
6D4B
  5
6D51
331
6E0D
  5
6E13
331
6E48
  5
6E4E
331
6E87
  5
6E8D
331
6DCE
  5
6DD4
331
6E09
  5
6E0F
331
6E44
  5
6E4A
331
6E83
  5
6E89
331
6DCA
  5
6DD0
331
247F
  5
247F
331
6E40
  5
6E46
331
247B
  5
247B
331
2477
  5
2477
331
2473
  5
2473
331
7EB9
  5
6D48
331
6D9D
  5
6DA3
331
6F04
  5
6F0A
331
6D99
  5
6D9F
331
6F3F
  5
6F45
331
6F7E
  5
6F84
331
6EC5
  5
6ECB
331
6EC1
  5
6EC7
331
6F00
  5
6F06
331
6D95
  5
6D9B
331
6F3B
  5
6F41
331
6F7A
  5
6F80
331
6F76
  5
6F7C
331
6EBD
  5
6EC3
331
6EFC
  5
6F02
331
6F37
  5
6F3D
331
6D91
  5
6D97
331
6F72
  5
6F78
331
6EB9
  5
6EBF
331
6EF8
  5
6EFE
331
6F33
  5
6F39
331
6E05
  5
6E0B
331
6E7F
  5
6E85
331
6E7B
  5
6E81
331
6E01
  5
6E07
331
6E3C
  5
6E42
331
6D76
  5
6D7C
331
6E77
  5
6E7D
331
6EB6
  5
6EBC
331
6DFD
  5
6E03
331
6DF9
  5
6DFF
331
6E38
  5
6E3E
331
6D72
  5
6D78
331
6E73
  5
6E79
331
6EB2
  5
6EB8
331
246F
  5
246F
331
246B
  5
246B
331
6D46
  5
6D4C
331
6D8D
  5
6D93
331
6EF4
  5
6EFA
331
6D89
  5
6D8F
331
6F6E
  5
6F74
331
6EF0
  5
6EF6
331
6F2F
  5
6F35
331
6D85
  5
6D8B
331
6F6A
  5
6F70
331
6DC4
  5
6DCA
331
6DC0
  5
6DC6
331
6EEC
  5
6EF2
331
6F2B
  5
6F31
331
6D81
  5
6D87
331
6F66
  5
6F6C
331
6F62
  5
6F68
331
6EE8
  5
6EEE
331
6DF5
  5
6DFB
331
6E34
  5
6E3A
331
6EAE
  5
6EB4
331
6D6E
  5
6D74
331
6E6F
  5
6E75
331
6D6A
  5
6D70
331
6E6B
  5
6E71
331
6EAA
  5
6EB0
331
6DF1
  5
6DF7
331
6E30
  5
6E36
331
6E2C
  5
6E32
331
6D66
  5
6D6C
331
6E67
  5
6E6D
331
6EA6
  5
6EAC
331
6DED
  5
6DF3
331
6DE9
  5
6DEF
331
6E28
  5
6E2E
331
6D62
  5
6D68
331
6E63
  5
6E69
331
6EA2
  5
6EA8
331
6D16
  5
6D17
331
6F27
  5
6F2D
331
6D7D
  5
6D83
331
6DBC
  5
6DC2
331
6EE4
  5
6EEA
331
6F23
  5
6F29
331
6D79
  5
6D7F
331
6DB8
  5
6DBE
331
6F5E
  5
6F64
331
6EE0
  5
6EE6
331
6F5A
  5
6F60
331
6DB4
  5
6DBA
331
6DB0
  5
6DB6
331
6EDC
  5
6EE2
331
6F1B
  5
6F25
331
6F56
  5
6F5C
331
6F52
  5
6F58
331
6F91
  5
776F
331
6ED8
  5
6EDE
331
6DE5
  5
6DEB
331
6E24
  5
6E2A
331
6E9E
  5
6EA4
331
6E5F
  5
6E65
331
6D5E
  5
6D64
331
6D5A
  5
6D60
331
6E5B
  5
6E61
331
6E9A
  5
6EA0
331
6DE1
  5
6DE7
331
6E20
  5
6E26
331
6E1C
  5
6E22
331
6D56
  5
6D5C
331
6E57
  5
6E5D
331
6E96
  5
6E9C
331
6DDD
  5
6DE3
331
6DD9
  5
6DDF
331
6E18
  5
6E1E
331
6D52
  5
6D58
331
6E53
  5
6E59
331
6E92
  5
6E98
331
248E
  5
248E
331
248A
  5
248A
331
2486
  5
2486
331
2482
  5
2482
331
6F17
  5
6F23
331
6DAC
  5
6DB2
331
6F13
  5
6F1B
331
6DA8
  5
6DAE
331
6F4E
  5
6F54
331
6F8D
  5
6F93
331
6ED4
  5
6EDA
331
6ED0
  5
6ED6
331
6F0F
  5
6F15
331
6DA4
  5
6DAA
331
6F4A
  5
6F50
331
6F89
  5
6F8F
331
6DA0
  5
6DA6
331
6F85
  5
6F8B
331
6ECC
  5
6ED2
331
6F0B
  5
6F11
331
6F46
  5
6F4C
331
6F42
  5
6F48
331
6F81
  5
6F87
331
6EC8
  5
6ECE
331
6DD5
  5
6DDB
331
6E14
  5
6E1A
331
6E8E
  5
6E94
331
6E4F
  5
6E55
331
6D4E
  5
6D54
331
6DD1
  5
6DD7
331
6E10
  5
6E16
331
6E8A
  5
6E90
331
6E4B
  5
6E51
331
6D4A
  5
6D50
331
6E0C
  5
6E12
331
6E47
  5
6E4D
331
6E86
  5
6E8C
331
6DCD
  5
6DD3
331
6DC9
  5
6DCF
331
6E08
  5
6E0E
331
6E43
  5
6E49
331
6E82
  5
6E88
331
247E
  5
247E
331
247A
  5
247A
331
2476
  5
2476
331
2472
  5
2472
331
7EB8
  5
6D2A
331
7EB0
  5
6D25
331
6D9C
  5
6DA2
331
6F07
  5
6F0D
331
6F03
  5
6F09
331
6D98
  5
6D9E
331
6F3E
  5
6F44
331
6F7D
  5
6F83
331
6EC4
  5
6ECA
331
6EC0
  5
6EC6
331
6EFF
  5
6F05
331
6D94
  5
6D9A
331
6F3A
  5
6F40
331
6F79
  5
6F7F
331
6D90
  5
6D96
331
6F75
  5
6F7B
331
6EBC
  5
6EC2
331
6EFB
  5
6F01
331
6F36
  5
6F3C
331
6F32
  5
6F38
331
6F71
  5
6F77
331
6EB8
  5
6EBE
331
6E04
  5
6E0A
331
6E7E
  5
6E84
331
6E3F
  5
6E45
331
6E7A
  5
6E80
331
6E00
  5
6E06
331
6DFC
  5
6E02
331
6E3B
  5
6E41
331
6D75
  5
6D7B
331
6E76
  5
6E7C
331
6EB5
  5
6EBB
331
6DF8
  5
6DFE
331
6D71
  5
6D77
331
6E72
  5
6E78
331
6EB1
  5
6EB7
331
246E
  5
246E
331
6D8C
  5
6D92
331
6EF7
  5
6EFD
331
6EF3
  5
6EF9
331
6D88
  5
6D8E
331
6F6D
  5
6F73
331
6DC7
  5
6DCD
331
6DC3
  5
6DC9
331
6EEF
  5
6EF5
331
6F2E
  5
6F34
331
6D84
  5
6D8A
331
6F69
  5
6F6F
331
6F65
  5
6F6B
331
6EEB
  5
6EF1
331
6F2A
  5
6F30
331
6D80
  5
6D86
331
6F61
  5
6F67
331
6E37
  5
6E3D
331
6DF4
  5
6DFA
331
6E33
  5
6E39
331
6EAD
  5
6EB3
331
6D6D
  5
6D73
331
6E6E
  5
6E74
331
6E2F
  5
6E35
331
6D69
  5
6D6F
331
6E6A
  5
6E70
331
6EA9
  5
6EAF
331
6DF0
  5
6DF6
331
6E2B
  5
6E31
331
6D65
  5
6D6B
331
6E66
  5
6E6C
331
6EA5
  5
6EAB
331
6DEC
  5
6DF2
331
6DE8
  5
6DEE
331
6D61
  5
6D67
331
6E62
  5
6E68
331
6EA1
  5
6EA7
331
6D15
  5
6D16
331
2491
  5
2491
331
6DBF
  5
6DC5
331
6F26
  5
6F2C
331
6D7C
  5
6D82
331
6DBB
  5
6DC1
331
6EE7
  5
6EED
331
6EE3
  5
6EE9
331
6F22
  5
6F28
331
6D78
  5
6D7E
331
6F5D
  5
6F63
331
6DB7
  5
6DBD
331
6EDF
  5
6EE5
331
6F59
  5
6F5F
331
6DB3
  5
6DB9
331
6F94
  5
7772
331
6EDB
  5
6EE1
331
6F55
  5
6F5B
331
6F51
  5
6F57
331
6F90
  5
776E
331
6E27
  5
6E2D
331
6DE4
  5
6DEA
331
6E23
  5
6E29
331
6E9D
  5
6EA3
331
6E5E
  5
6E64
331
6D5D
  5
6D63
331
6D59
  5
6D5F
331
6E5A
  5
6E60
331
6E99
  5
6E9F
331
6DE0
  5
6DE6
331
6E1F
  5
6E25
331
6E1B
  5
6E21
331
6D55
  5
6D5B
331
6E56
  5
6E5C
331
6E95
  5
6E9B
331
6DDC
  5
6DE2
331
6DD8
  5
6DDE
331
6D51
  5
6D57
331
6E52
  5
6E58
331
6E91
  5
6E97
331
248D
  5
248D
331
2489
  5
2489
331
2485
  5
2485
331
2481
  5
2481
331
6DAF
  5
6DB5
331
6F16
  5
6F22
331
6DAB
  5
6DB1
331
6ED7
  5
6EDD
331
6ED3
  5
6ED9
331
6F12
  5
6F18
331
6DA7
  5
6DAD
331
6F4D
  5
6F53
331
6F8C
  5
6F92
331
6ECF
  5
6ED5
331
6F0E
  5
6F14
331
6DA3
  5
6DA9
331
6F49
  5
6F4F
331
6F88
  5
6F8E
331
6F84
  5
6F8A
331
6ECB
  5
6ED1
331
6F0A
  5
6F10
331
6F45
  5
6F4B
331
6F41
  5
6F47
331
6F80
  5
6F86
331
6E17
  5
6E1D
331
6DD4
  5
6DDA
331
6E13
  5
6E19
331
6E8D
  5
6E93
331
6E4E
  5
6E54
331
6D4D
  5
6D53
331
6D49
  5
6D4F
331
6E4A
  5
6E50
331
6E89
  5
6E8F
331
6DD0
  5
6DD6
331
6E0F
  5
6E15
331
6E0B
  5
6E11
331
6E46
  5
6E4C
331
6E85
  5
6E8B
331
6DCC
  5
6DD2
331
6DC8
  5
6DCE
331
6E42
  5
6E48
331
6E81
  5
6E87
331
247D
  5
247D
331
2479
  5
2479
331
2475
  5
2475
331
2471
  5
2471
331
7EBB
  5
6D3A
331
6D9F
  5
6DA5
331
6F06
  5
6F0C
331
6D9B
  5
6DA1
331
6EC7
  5
6ECD
331
6F02
  5
6F08
331
6D97
  5
6D9D
331
6F3D
  5
6F43
331
6F7C
  5
6F82
331
6EC3
  5
6EC9
331
6EBF
  5
6EC5
331
6EFE
  5
6F04
331
6D93
  5
6D99
331
6F39
  5
6F3F
331
6F78
  5
6F7E
331
6F74
  5
6F7A
331
6EBB
  5
6EC1
331
6EFA
  5
6F00
331
6F35
  5
6F3B
331
6F31
  5
6F37
331
6F70
  5
6F76
331
6E07
  5
6E0D
331
6E7D
  5
6E83
331
6E03
  5
6E09
331
6E3E
  5
6E44
331
6E79
  5
6E7F
331
6DFF
  5
6E05
331
6DFB
  5
6E01
331
6E3A
  5
6E40
331
6D74
  5
6D7A
331
6E75
  5
6E7B
331
6EB4
  5
6EBA
331
6EB0
  5
6EB6
331
6D70
  5
6D76
331
6E71
  5
6E77
331
246D
  5
246D
331
1E25
  5
1E25
331
6D8F
  5
6D95
331
6D8B
  5
6D91
331
6EF6
  5
6EFC
331
6EF2
  5
6EF8
331
6D87
  5
6D8D
331
6F6C
  5
6F72
331
6DC6
  5
6DCC
331
6DC2
  5
6DC8
331
7EAF
  5
6D13
331
6EEE
  5
6EF4
331
6F2D
  5
6F33
331
6D83
  5
6D89
331
6F68
  5
6F6E
331
6F64
  5
6F6A
331
6EEA
  5
6EF0
331
6F29
  5
6F2F
331
6F60
  5
6F66
331
6DF7
  5
6DFD
331
6E36
  5
6E3C
331
6DF3
  5
6DF9
331
6E32
  5
6E38
331
6EAC
  5
6EB2
331
6D6C
  5
6D72
331
6E6D
  5
6E73
331
6E2E
  5
6E34
331
6D68
  5
6D6E
331
6E69
  5
6E6F
331
6EA8
  5
6EAE
331
6DEF
  5
6DF5
331
6DEB
  5
6DF1
331
6E2A
  5
6E30
331
6D64
  5
6D6A
331
6E65
  5
6E6B
331
6EA4
  5
6EAA
331
6D60
  5
6D66
331
6E61
  5
6E67
331
6EA0
  5
6EA6
331
6D14
  5
6D15
331
2490
  5
2490
331
6D7F
  5
6D85
331
6DBE
  5
6DC4
331
6F25
  5
6F2B
331
6D7B
  5
6D81
331
6DBA
  5
6DC0
331
6EE6
  5
6EEC
331
6EE2
  5
6EE8
331
6F21
  5
6F27
331
6F5C
  5
6F62
331
6DB6
  5
6DBC
331
6DB2
  5
6DB8
331
6EDE
  5
6EE4
331
6F58
  5
6F5E
331
6F54
  5
6F5A
331
6F93
  5
7771
331
6EDA
  5
6EE0
331
6F50
  5
6F56
331
6DE7
  5
6DED
331
6E26
  5
6E2C
331
6DE3
  5
6DE9
331
6E22
  5
6E28
331
6E9C
  5
6EA2
331
6E5D
  5
6E63
331
6D5C
  5
6D62
331
6E1E
  5
6E24
331
6D58
  5
6D5E
331
6E59
  5
6E5F
331
6E98
  5
6E9E
331
6DDF
  5
6DE5
331
6E1A
  5
6E20
331
6D54
  5
6D5A
331
6E55
  5
6E5B
331
6E94
  5
6E9A
331
6DDB
  5
6DE1
331
6D50
  5
6D56
331
6E51
  5
6E57
331
6E90
  5
6E96
331
248C
  5
248C
331
2488
  5
2488
331
2484
  5
2484
331
2480
  5
2480
331
6DAE
  5
6DB4
331
6F15
  5
6F21
331
6DAA
  5
6DB0
331
6F8F
  5
76D5
331
6ED6
  5
6EDC
331
6ED2
  5
6ED8
331
6F11
  5
6F17
331
6DA6
  5
6DAC
331
6F4C
  5
6F52
331
6F8B
  5
6F91
331
6F87
  5
6F8D
331
6ECE
  5
6ED4
331
6F0D
  5
6F13
331
6F48
  5
6F4E
331
6DA2
  5
6DA8
331
6F83
  5
6F89
331
6ECA
  5
6ED0
331
6F09
  5
6F0F
331
6F44
  5
6F4A
331
6F40
  5
6F46
331
6DD7
  5
6DDD
331
6E16
  5
6E1C
331
6DD3
  5
6DD9
331
6E12
  5
6E18
331
6E8C
  5
6E92
331
6E4D
  5
6E53
331
6D4C
  5
6D52
331
6D48
  5
6D4E
331
6E49
  5
6E4F
331
6E88
  5
6E8E
331
6DCF
  5
6DD5
331
6E0E
  5
6E14
331
6E0A
  5
6E10
331
6E45
  5
6E4B
331
6E84
  5
6E8A
331
6DCB
  5
6DD1
331
6E41
  5
6E47
331
6E80
  5
6E86
331
247C
  5
247C
331
2478
  5
2478
331
2474
  5
2474
331
2470
  5
2470
331
7EBA
  5
6D4B
331
6D9E
  5
6DA4
331
6F05
  5
6F0B
331
6D9A
  5
6DA0
331
6F7F
  5
6F85
331
6EC6
  5
6ECC
331
6EC2
  5
6EC8
331
6F01
  5
6F07
331
6D96
  5
6D9C
331
6F3C
  5
6F42
331
6F7B
  5
6F81
331
6EBE
  5
6EC4
331
6EFD
  5
6F03
331
6D92
  5
6D98
331
6F38
  5
6F3E
331
6F77
  5
6F7D
331
6F73
  5
6F79
331
6EBA
  5
6EC0
331
6EF9
  5
6EFF
331
6F34
  5
6F3A
331
6F30
  5
6F36
  0
SORTENTSTABLE
  5
81F5
102
{ACAD_REACTORS
330
81F4
102
}
330
81F4
100
AcDbSortentsTable
330
81B0
  0
XRECORD
  5
82FB
102
{ACAD_REACTORS
330
82FA
102
}
330
82FA
100
AcDbXrecord
280
     1
102
SHADEPLOT
 70
     0
  0
XRECORD
  5
82FD
102
{ACAD_REACTORS
330
82FC
102
}
330
82FC
100
AcDbXrecord
280
     1
102
SHADEPLOT
 70
     0
  0
XRECORD
  5
82EF
102
{ACAD_REACTORS
330
82EE
102
}
330
82EE
100
AcDbXrecord
280
     1
 70
     1
  0
XRECORD
  5
82F1
102
{ACAD_REACTORS
330
82EE
102
}
330
82EE
100
AcDbXrecord
280
     1
340
14
  0
XRECORD
  5
82F2
102
{ACAD_REACTORS
330
82EE
102
}
330
82EE
100
AcDbXrecord
280
     1
340
14
  0
XRECORD
  5
82F0
102
{ACAD_REACTORS
330
82EE
102
}
330
82EE
100
AcDbXrecord
280
     1
340
14
  0
ACDBDETAILVIEWSTYLE
  5
8069
102
{ACAD_REACTORS
330
8068
102
}
330
8068
100
AcDbModelDocViewStyle
 70
     0
  3
Imperial24
290
     0
100
AcDbDetailViewStyle
 70
     0
 71
     0
 90
        3
 71
     1
340
11
 40
0.24
340
0
 40
0.24
300

 40
0.36
280
     3
 71
     2
340
16
 90
       25
 71
     3
340
11
 40
0.24
 90
        1
 40
0.75
 90
        1
300
%<\AcVar ViewType \f "%tc1">% %<\AcVar ViewDetailId>%\PSCALE %<\AcVar ViewScale \f "%sn">%
 71
     4
340
16
 90
       25
340
16
 90
       25
280
     0
  0
LAYOUT
  5
59
102
{ACAD_XDICTIONARY
360
82F5
102
}
102
{ACAD_REACTORS
330
1A
102
}
330
1A
100
AcDbPlotSettings
  1

  2
None
  4

  6

 40
0.0
 41
0.0
 42
0.0
 43
0.0
 44
0.0
 45
0.0
 46
0.0
 47
0.0
 48
0.0
 49
0.0
140
0.0
141
0.0
142
1.0
143
1.0
 70
   688
 72
     0
 73
     0
 74
     5
  7
monochrome.ctb
 75
    16
147
1.0
148
0.0
149
0.0
100
AcDbLayout
  1
Layout1
 70
     1
 71
     1
 10
0.0
 20
0.0
 11
12.0
 21
9.0
 12
0.0
 22
0.0
 32
0.0
 14
0.0
 24
0.0
 34
0.0
 15
0.0
 25
0.0
 35
0.0
146
0.0
 13
0.0
 23
0.0
 33
0.0
 16
1.0
 26
0.0
 36
0.0
 17
0.0
 27
1.0
 37
0.0
 76
     0
330
58
  0
LAYOUT
  5
5E
102
{ACAD_XDICTIONARY
360
82F7
102
}
102
{ACAD_REACTORS
330
1A
102
}
330
1A
100
AcDbPlotSettings
  1

  2
none_device
  4
Letter_(8.50_x_11.00_Inches)
  6

 40
6.349999904632567
 41
6.349999904632567
 42
6.350006103515625
 43
6.350006103515625
 44
215.8999938964844
 45
279.3999938964844
 46
0.0
 47
0.0
 48
0.0
 49
0.0
140
0.0
141
0.0
142
1.0
143
1.0
 70
   688
 72
     0
 73
     1
 74
     5
  7
monochrome.ctb
 75
    16
147
1.0
148
0.0
149
0.0
100
AcDbLayout
  1
Layout2
 70
     1
 71
     2
 10
-0.2500002402958907
 20
-0.2499999962453767
 11
10.74999951940821
 21
8.249999763458731
 12
0.0
 22
0.0
 32
0.0
 14
1.049999952316283
 24
0.7999999523162842
 34
0.0
 15
9.449999570846555
 25
7.199999570846556
 35
0.0
146
0.0
 13
0.0
 23
0.0
 33
0.0
 16
1.0
 26
0.0
 36
0.0
 17
0.0
 27
1.0
 37
0.0
 76
     0
330
5D
331
265F
  0
LAYOUT
  5
22
102
{ACAD_XDICTIONARY
360
82F3
102
}
102
{ACAD_REACTORS
330
1A
102
}
330
1A
100
AcDbPlotSettings
  1

  2
\\CTBDC\HP LJ P3005
  4
Letter
  6

 40
6.011333465576169
 41
4.233341693878172
 42
6.011322021484375
 43
4.23333740234375
 44
215.8999938964844
 45
279.3999938964844
 46
14.17180722468427
 47
0.0000000000000226
 48
0.5854803641897952
 49
2.901721665273444
140
3.485638372151793
141
4.4105545393574
142
1.0
143
1.597597612945157
 70
 11956
 72
     0
 73
     1
 74
     1
  7
monochrome.ctb
 75
     0
147
0.6259398436108758
148
0.5212074883809566
149
0.518353950466436
100
AcDbLayout
  1
Model
 70
     1
 71
     0
 10
0.0
 20
0.0
 11
12.0
 21
9.0
 12
0.0
 22
0.0
 32
0.0
 14
0.0
 24
0.0
 34
0.0
 15
0.0
 25
0.0
 35
0.0
146
0.0
 13
0.0
 23
0.0
 33
0.0
 16
1.0
 26
0.0
 36
0.0
 17
0.0
 27
1.0
 37
0.0
 76
     0
330
1F
331
51D9
1001
ACAD_PSEXT
1000
\\CTBDC\HP LJ P3005
1000
HP LaserJet P3005 PCL 6
1000
Back Office
1000

1070
     0
  0
MATERIAL
  5
51E3
102
{ACAD_XDICTIONARY
360
51E4
102
}
102
{ACAD_REACTORS
330
18B7
102
}
330
18B7
100
AcDbMaterial
  1
ByBlock
 72
     0
 43
0.0208333333333333
 43
0.0
 43
0.0
 43
0.0
 43
0.0
 43
0.0208333333333333
 43
0.0
 43
0.0
 43
0.0
 43
0.0
 43
1.0
 43
0.0
 43
0.0
 43
0.0
 43
0.0
 43
1.0
 77
     0
 47
0.0208333333333333
 47
0.0
 47
0.0
 47
0.0
 47
0.0
 47
0.0208333333333333
 47
0.0
 47
0.0
 47
0.0
 47
0.0
 47
1.0
 47
0.0
 47
0.0
 47
0.0
 47
0.0
 47
1.0
171
     0
 49
0.0208333333333333
 49
0.0
 49
0.0
 49
0.0
 49
0.0
 49
0.0208333333333333
 49
0.0
 49
0.0
 49
0.0
 49
0.0
 49
1.0
 49
0.0
 49
0.0
 49
0.0
 49
0.0
 49
1.0
175
     0
142
0.0208333333333333
142
0.0
142
0.0
142
0.0
142
0.0
142
0.0208333333333333
142
0.0
142
0.0
142
0.0
142
0.0
142
1.0
142
0.0
142
0.0
142
0.0
142
0.0
142
1.0
179
     0
144
0.0208333333333333
144
0.0
144
0.0
144
0.0
144
0.0
144
0.0208333333333333
144
0.0
144
0.0
144
0.0
144
0.0
144
1.0
144
0.0
144
0.0
144
0.0
144
0.0
144
1.0
147
0.0208333333333333
147
0.0
147
0.0
147
0.0
147
0.0
147
0.0208333333333333
147
0.0
147
0.0
147
0.0
147
0.0
147
1.0
147
0.0
147
0.0
147
0.0
147
0.0
147
1.0
  0
MATERIAL
  5
51DB
102
{ACAD_XDICTIONARY
360
51DC
102
}
102
{ACAD_REACTORS
330
18B7
102
}
330
18B7
100
AcDbMaterial
  1
ByLayer
 72
     0
 43
0.0208333333333333
 43
0.0
 43
0.0
 43
0.0
 43
0.0
 43
0.0208333333333333
 43
0.0
 43
0.0
 43
0.0
 43
0.0
 43
1.0
 43
0.0
 43
0.0
 43
0.0
 43
0.0
 43
1.0
 77
     0
 47
0.0208333333333333
 47
0.0
 47
0.0
 47
0.0
 47
0.0
 47
0.0208333333333333
 47
0.0
 47
0.0
 47
0.0
 47
0.0
 47
1.0
 47
0.0
 47
0.0
 47
0.0
 47
0.0
 47
1.0
171
     0
 49
0.0208333333333333
 49
0.0
 49
0.0
 49
0.0
 49
0.0
 49
0.0208333333333333
 49
0.0
 49
0.0
 49
0.0
 49
0.0
 49
1.0
 49
0.0
 49
0.0
 49
0.0
 49
0.0
 49
1.0
175
     0
142
0.0208333333333333
142
0.0
142
0.0
142
0.0
142
0.0
142
0.0208333333333333
142
0.0
142
0.0
142
0.0
142
0.0
142
1.0
142
0.0
142
0.0
142
0.0
142
0.0
142
1.0
179
     0
144
0.0208333333333333
144
0.0
144
0.0
144
0.0
144
0.0
144
0.0208333333333333
144
0.0
144
0.0
144
0.0
144
0.0
144
1.0
144
0.0
144
0.0
144
0.0
144
0.0
144
1.0
147
0.0208333333333333
147
0.0
147
0.0
147
0.0
147
0.0
147
0.0208333333333333
147
0.0
147
0.0
147
0.0
147
0.0
147
1.0
147
0.0
147
0.0
147
0.0
147
0.0
147
1.0
  0
MATERIAL
  5
51EB
102
{ACAD_XDICTIONARY
360
51EC
102
}
102
{ACAD_REACTORS
330
18B7
102
}
330
18B7
100
AcDbMaterial
  1
Global
 72
     0
 43
0.0208333333333333
 43
0.0
 43
0.0
 43
0.0
 43
0.0
 43
0.0208333333333333
 43
0.0
 43
0.0
 43
0.0
 43
0.0
 43
1.0
 43
0.0
 43
0.0
 43
0.0
 43
0.0
 43
1.0
 77
     0
 47
0.0208333333333333
 47
0.0
 47
0.0
 47
0.0
 47
0.0
 47
0.0208333333333333
 47
0.0
 47
0.0
 47
0.0
 47
0.0
 47
1.0
 47
0.0
 47
0.0
 47
0.0
 47
0.0
 47
1.0
171
     0
 49
0.0208333333333333
 49
0.0
 49
0.0
 49
0.0
 49
0.0
 49
0.0208333333333333
 49
0.0
 49
0.0
 49
0.0
 49
0.0
 49
1.0
 49
0.0
 49
0.0
 49
0.0
 49
0.0
 49
1.0
175
     0
142
0.0208333333333333
142
0.0
142
0.0
142
0.0
142
0.0
142
0.0208333333333333
142
0.0
142
0.0
142
0.0
142
0.0
142
1.0
142
0.0
142
0.0
142
0.0
142
0.0
142
1.0
179
     0
144
0.0208333333333333
144
0.0
144
0.0
144
0.0
144
0.0
144
0.0208333333333333
144
0.0
144
0.0
144
0.0
144
0.0
144
1.0
144
0.0
144
0.0
144
0.0
144
0.0
144
1.0
147
0.0208333333333333
147
0.0
147
0.0
147
0.0
147
0.0
147
0.0208333333333333
147
0.0
147
0.0
147
0.0
147
0.0
147
1.0
147
0.0
147
0.0
147
0.0
147
0.0
147
1.0
  0
MLEADERSTYLE
  5
5227
102
{ACAD_REACTORS
330
5226
102
}
330
5226
100
AcDbMLeaderStyle
170
     2
171
     1
172
     0
 90
        2
 40
0.0
 41
0.0
173
     1
 91
-1056964608
340
14
 92
       -2
290
     1
 42
0.09
291
     1
 43
0.36
  3
Standard
 44
0.18
300

342
11
174
     1
178
     6
175
     1
176
     0
 93
-1056964608
 45
0.18
292
     0
297
     0
 46
0.18
 94
-1056964608
 47
1.0
 49
1.0
140
1.0
293
     1
141
0.0
294
     1
177
     0
142
1.0
295
     0
296
     0
143
0.125
1001
ACAD_MLEADERVER
1070
     2
  0
MLINESTYLE
  5
18
102
{ACAD_REACTORS
330
17
102
}
330
17
100
AcDbMlineStyle
  2
STANDARD
 70
     0
  3

 62
   256
 51
90.0
 52
90.0
 71
     2
 49
0.5
 62
   256
  6
BYLAYER
 49
-0.5
 62
   256
  6
BYLAYER
  0
ACDBPLACEHOLDER
  5
F
102
{ACAD_REACTORS
330
E
102
}
330
E
  0
SCALE
  5
5205
102
{ACAD_REACTORS
330
5204
102
}
330
5204
100
AcDbScale
 70
     0
300
1:1
140
1.0
141
1.0
290
     1
  0
SCALE
  5
5206
102
{ACAD_REACTORS
330
5204
102
}
330
5204
100
AcDbScale
 70
     0
300
1:2
140
1.0
141
2.0
290
     0
  0
SCALE
  5
5207
102
{ACAD_REACTORS
330
5204
102
}
330
5204
100
AcDbScale
 70
     0
300
1:4
140
1.0
141
4.0
290
     0
  0
SCALE
  5
5208
102
{ACAD_REACTORS
330
5204
102
}
330
5204
100
AcDbScale
 70
     0
300
1:5
140
1.0
141
5.0
290
     0
  0
SCALE
  5
5209
102
{ACAD_REACTORS
330
5204
102
}
330
5204
100
AcDbScale
 70
     0
300
1:8
140
1.0
141
8.0
290
     0
  0
SCALE
  5
520A
102
{ACAD_REACTORS
330
5204
102
}
330
5204
100
AcDbScale
 70
     0
300
1:10
140
1.0
141
10.0
290
     0
  0
SCALE
  5
520B
102
{ACAD_REACTORS
330
5204
102
}
330
5204
100
AcDbScale
 70
     0
300
1:16
140
1.0
141
16.0
290
     0
  0
SCALE
  5
520C
102
{ACAD_REACTORS
330
5204
102
}
330
5204
100
AcDbScale
 70
     0
300
1:20
140
1.0
141
20.0
290
     0
  0
SCALE
  5
520D
102
{ACAD_REACTORS
330
5204
102
}
330
5204
100
AcDbScale
 70
     0
300
1:30
140
1.0
141
30.0
290
     0
  0
SCALE
  5
520E
102
{ACAD_REACTORS
330
5204
102
}
330
5204
100
AcDbScale
 70
     0
300
1:40
140
1.0
141
40.0
290
     0
  0
SCALE
  5
520F
102
{ACAD_REACTORS
330
5204
102
}
330
5204
100
AcDbScale
 70
     0
300
1:50
140
1.0
141
50.0
290
     0
  0
SCALE
  5
5210
102
{ACAD_REACTORS
330
5204
102
}
330
5204
100
AcDbScale
 70
     0
300
1:100
140
1.0
141
100.0
290
     0
  0
SCALE
  5
5211
102
{ACAD_REACTORS
330
5204
102
}
330
5204
100
AcDbScale
 70
     0
300
2:1
140
2.0
141
1.0
290
     0
  0
SCALE
  5
5212
102
{ACAD_REACTORS
330
5204
102
}
330
5204
100
AcDbScale
 70
     0
300
4:1
140
4.0
141
1.0
290
     0
  0
SCALE
  5
5213
102
{ACAD_REACTORS
330
5204
102
}
330
5204
100
AcDbScale
 70
     0
300
8:1
140
8.0
141
1.0
290
     0
  0
SCALE
  5
5214
102
{ACAD_REACTORS
330
5204
102
}
330
5204
100
AcDbScale
 70
     0
300
10:1
140
10.0
141
1.0
290
     0
  0
SCALE
  5
5215
102
{ACAD_REACTORS
330
5204
102
}
330
5204
100
AcDbScale
 70
     0
300
100:1
140
100.0
141
1.0
290
     0
  0
SCALE
  5
5216
102
{ACAD_REACTORS
330
5204
102
}
330
5204
100
AcDbScale
 70
     0
300
1/128" = 1'-0"
140
0.0078125
141
12.0
290
     0
  0
SCALE
  5
5217
102
{ACAD_REACTORS
330
5204
102
}
330
5204
100
AcDbScale
 70
     0
300
1/64" = 1'-0"
140
0.015625
141
12.0
290
     0
  0
SCALE
  5
5218
102
{ACAD_REACTORS
330
5204
102
}
330
5204
100
AcDbScale
 70
     0
300
1/32" = 1'-0"
140
0.03125
141
12.0
290
     0
  0
SCALE
  5
5219
102
{ACAD_REACTORS
330
5204
102
}
330
5204
100
AcDbScale
 70
     0
300
1/16" = 1'-0"
140
0.0625
141
12.0
290
     0
  0
SCALE
  5
521A
102
{ACAD_REACTORS
330
5204
102
}
330
5204
100
AcDbScale
 70
     0
300
3/32" = 1'-0"
140
0.09375
141
12.0
290
     0
  0
SCALE
  5
521B
102
{ACAD_REACTORS
330
5204
102
}
330
5204
100
AcDbScale
 70
     0
300
1/8" = 1'-0"
140
0.125
141
12.0
290
     0
  0
SCALE
  5
521C
102
{ACAD_REACTORS
330
5204
102
}
330
5204
100
AcDbScale
 70
     0
300
3/16" = 1'-0"
140
0.1875
141
12.0
290
     0
  0
SCALE
  5
521D
102
{ACAD_REACTORS
330
5204
102
}
330
5204
100
AcDbScale
 70
     0
300
1/4" = 1'-0"
140
0.25
141
12.0
290
     0
  0
SCALE
  5
521E
102
{ACAD_REACTORS
330
5204
102
}
330
5204
100
AcDbScale
 70
     0
300
3/8" = 1'-0"
140
0.375
141
12.0
290
     0
  0
SCALE
  5
521F
102
{ACAD_REACTORS
330
5204
102
}
330
5204
100
AcDbScale
 70
     0
300
1/2" = 1'-0"
140
0.5
141
12.0
290
     0
  0
SCALE
  5
5220
102
{ACAD_REACTORS
330
5204
102
}
330
5204
100
AcDbScale
 70
     0
300
3/4" = 1'-0"
140
0.75
141
12.0
290
     0
  0
SCALE
  5
5221
102
{ACAD_REACTORS
330
5204
102
}
330
5204
100
AcDbScale
 70
     0
300
1" = 1'-0"
140
1.0
141
12.0
290
     0
  0
SCALE
  5
5222
102
{ACAD_REACTORS
330
5204
102
}
330
5204
100
AcDbScale
 70
     0
300
1-1/2" = 1'-0"
140
1.5
141
12.0
290
     0
  0
SCALE
  5
5223
102
{ACAD_REACTORS
330
5204
102
}
330
5204
100
AcDbScale
 70
     0
300
3" = 1'-0"
140
3.0
141
12.0
290
     0
  0
SCALE
  5
5224
102
{ACAD_REACTORS
330
5204
102
}
330
5204
100
AcDbScale
 70
     0
300
6" = 1'-0"
140
6.0
141
12.0
290
     0
  0
SCALE
  5
5225
102
{ACAD_REACTORS
330
5204
102
}
330
5204
100
AcDbScale
 70
     0
300
1'-0" = 1'-0"
140
12.0
141
12.0
290
     0
  0
ACDBSECTIONVIEWSTYLE
  5
8067
102
{ACAD_REACTORS
330
8066
102
}
330
8066
100
AcDbModelDocViewStyle
 70
     0
  3
Imperial24
290
     0
100
AcDbSectionViewStyle
 70
     0
 71
     0
 90
       78
 71
     1
340
11
 40
0.24
340
0
340
0
 40
0.24
300
I, O, Q, S, X, Z
 40
0.48
 90
        3
 40
0.18
 90
        1
 71
     2
340
52E7
 90
       25
340
16
 90
       50
 40
0.24
 40
0.0
 40
0.24
 71
     3
340
11
 40
0.24
 90
        1
 40
0.75
 90
        1
300
%<\AcVar ViewType \f "%tc1">% %<\AcVar ViewSectionStartId>%-%<\AcVar ViewSectionEndId>%\PSCALE %<\AcVar ViewScale \f "%sn">%
 71
     4
300
ANSI31
 40
1.0
 90
        0
290
     0
290
     0
 90
        6
 40
0.0
 40
1.570796326794896
 40
0.2617993877991494
 40
1.308996938995747
 40
-0.2617993877991494
 40
1.832595714594044
  0
TABLESTYLE
  5
18BA
102
{ACAD_XDICTIONARY
360
5286
102
}
102
{ACAD_REACTORS
330
18B9
102
}
330
18B9
100
AcDbTableStyle
  3
Standard
 70
     0
 71
     0
 40
0.06
 41
0.06
280
     0
281
     0
  7
Standard
140
0.18
170
     2
 62
     0
 63
     7
283
     0
274
    -2
284
     1
 64
     0
275
    -2
285
     1
 65
     0
276
    -2
286
     1
 66
     0
277
    -2
287
     1
 67
     0
278
    -2
288
     1
 68
     0
279
    -2
289
     1
 69
     0
  7
Standard
140
0.25
170
     5
 62
     0
 63
     7
283
     0
274
    -2
284
     1
 64
     0
275
    -2
285
     1
 65
     0
276
    -2
286
     1
 66
     0
277
    -2
287
     1
 67
     0
278
    -2
288
     1
 68
     0
279
    -2
289
     1
 69
     0
  7
Standard
140
0.18
170
     5
 62
     0
 63
     7
283
     0
274
    -2
284
     1
 64
     0
275
    -2
285
     1
 65
     0
276
    -2
286
     1
 66
     0
277
    -2
287
     1
 67
     0
278
    -2
288
     1
 68
     0
279
    -2
289
     1
 69
     0
  0
VISUALSTYLE
  5
51F9
102
{ACAD_XDICTIONARY
360
8308
102
}
102
{ACAD_REACTORS
330
51F3
102
}
330
51F3
100
AcDbVisualStyle
  2

 70
     4
 71
     0
 72
     2
 73
     0
 90
        0
 40
-0.6
 41
-30.0
 62
     5
 63
     7
 74
     1
 91
        4
 64
     7
 65
   257
 75
     1
175
     1
 42
1.0
 92
        0
 66
   257
 43
1.0
 76
     1
 77
     6
 78
     2
 67
     7
 79
     5
170
     0
171
     0
290
     0
174
     0
 93
        1
 44
0.0
173
     0
291
     0
 45
0.0
1001
ACAD
1000
AcDbSavedByObjectVersion
1070
     0
  0
VISUALSTYLE
  5
51FB
102
{ACAD_XDICTIONARY
360
830C
102
}
102
{ACAD_REACTORS
330
51F3
102
}
330
51F3
100
AcDbVisualStyle
  2

 70
     6
 71
     1
 72
     2
 73
     2
 90
        0
 40
-0.6
 41
-30.0
 62
     5
 63
     7
 74
     2
 91
        2
 64
     7
 65
   257
 75
     2
175
     1
 42
40.0
 92
        0
 66
   257
 43
1.0
 76
     1
 77
     6
 78
     2
 67
     7
 79
     3
170
     0
171
     0
290
     0
174
     0
 93
        1
 44
0.0
173
     0
291
     0
 45
0.0
1001
ACAD
1000
AcDbSavedByObjectVersion
1070
     0
  0
VISUALSTYLE
  5
51FA
102
{ACAD_XDICTIONARY
360
830A
102
}
102
{ACAD_REACTORS
330
51F3
102
}
330
51F3
100
AcDbVisualStyle
  2

 70
     5
 71
     0
 72
     2
 73
     0
 90
        0
 40
-0.6
 41
-30.0
 62
     5
 63
     7
 74
     1
 91
        4
 64
     7
 65
   257
 75
     1
175
     1
 42
1.0
 92
        0
 66
   257
 43
1.0
 76
     1
 77
     6
 78
     2
 67
     7
 79
     5
170
     0
171
     0
290
     0
174
     0
 93
        1
 44
0.0
173
     0
291
     0
 45
0.0
1001
ACAD
1000
AcDbSavedByObjectVersion
1070
     0
  0
VISUALSTYLE
  5
51F8
102
{ACAD_XDICTIONARY
360
8306
102
}
102
{ACAD_REACTORS
330
51F3
102
}
330
51F3
100
AcDbVisualStyle
  2

 70
     7
 71
     1
 72
     0
 73
     1
 90
        0
 40
-0.6
 41
-30.0
 62
     5
 63
     7
 74
     0
 91
        4
 64
     7
 65
   257
 75
     1
175
     1
 42
1.0
 92
        8
 66
     7
 43
1.0
 76
     1
 77
     6
 78
     2
 67
     7
 79
     5
170
     0
171
     0
290
     0
174
     0
 93
        1
 44
0.0
173
     0
291
     1
 45
0.0
1001
ACAD
1000
AcDbSavedByObjectVersion
1070
     0
  0
VISUALSTYLE
  5
51FF
102
{ACAD_XDICTIONARY
360
8314
102
}
102
{ACAD_REACTORS
330
51F3
102
}
330
51F3
100
AcDbVisualStyle
  2

 70
    12
 71
     2
 72
     2
 73
     0
 90
        0
 40
-0.6
 41
-30.0
 62
     5
 63
     7
 74
     1
 91
        4
 64
     7
 65
   257
 75
     1
175
     1
 42
1.0
 92
        8
 66
     7
 43
1.0
 76
     1
 77
     6
 78
     2
 67
     7
 79
     5
170
     0
171
     0
290
     0
174
     0
 93
        1
 44
50.0
173
     0
291
     1
 45
0.0
1001
ACAD
1000
AcDbSavedByObjectVersion
1070
     0
  0
VISUALSTYLE
  5
5203
102
{ACAD_XDICTIONARY
360
831C
102
}
102
{ACAD_REACTORS
330
51F3
102
}
330
51F3
100
AcDbVisualStyle
  2

 70
    16
 71
     2
 72
     2
 73
     3
 90
        0
 40
-0.6
 41
-30.0
 62
     5
 63
     8
 74
     1
 91
        4
 64
     7
 65
   257
 75
     1
175
     1
 42
1.0
 92
        8
 66
     8
 43
1.0
 76
     1
 77
     6
 78
     2
 67
     7
 79
     5
170
     0
171
     0
290
     0
174
     0
 93
        1
 44
0.0
173
     0
291
     1
 45
0.0
1001
ACAD
1000
AcDbSavedByObjectVersion
1070
     0
  0
VISUALSTYLE
  5
51FC
102
{ACAD_XDICTIONARY
360
830E
102
}
102
{ACAD_REACTORS
330
51F3
102
}
330
51F3
100
AcDbVisualStyle
  2

 70
     9
 71
     3
 72
     2
 73
     0
 90
        0
 40
-0.6
 41
-30.0
 62
     5
 63
     7
 74
     2
 91
        2
 64
     7
 65
   257
 75
     1
175
     1
 42
40.0
 92
        8
 66
     7
 43
1.0
 76
     1
 77
     6
 78
     2
 67
     7
 79
     3
170
     0
171
     0
290
     0
174
     0
 93
        1
 44
0.0
173
     0
291
     0
 45
0.0
1001
ACAD
1000
AcDbSavedByObjectVersion
1070
     0
  0
VISUALSTYLE
  5
51FE
102
{ACAD_XDICTIONARY
360
8312
102
}
102
{ACAD_REACTORS
330
51F3
102
}
330
51F3
100
AcDbVisualStyle
  2

 70
    11
 71
     2
 72
     2
 73
     0
 90
        0
 40
-0.6
 41
-30.0
 62
     5
 63
     7
 74
     1
 91
        4
 64
     7
 65
   257
 75
     1
175
     1
 42
1.0
 92
        8
 66
     7
 43
1.0
 76
     1
 77
     6
 78
     2
 67
     7
 79
     5
170
     0
171
     0
290
     0
174
     0
 93
        1
 44
-50.0
173
     0
291
     1
 45
0.0
1001
ACAD
1000
AcDbSavedByObjectVersion
1070
     0
  0
VISUALSTYLE
  5
59BB
102
{ACAD_XDICTIONARY
360
8322
102
}
102
{ACAD_REACTORS
330
51F3
102
}
330
51F3
100
AcDbVisualStyle
  2

 70
    22
 71
     2
 72
     2
 73
     0
 90
        0
 40
-0.6
 41
-30.0
 62
     5
 63
     7
 74
     1
 91
        4
 64
     7
 65
   257
 75
     1
175
     1
 42
1.0
 92
        8
 66
     7
 43
1.0
 76
     1
 77
     6
 78
     2
 67
     7
 79
     5
170
     0
171
     0
290
     0
174
     0
 93
        1
 44
0.0
173
     0
291
     1
 45
0.0
1001
ACAD
1000
AcDbSavedByObjectVersion
1070
     0
  0
VISUALSTYLE
  5
5202
102
{ACAD_XDICTIONARY
360
831A
102
}
102
{ACAD_REACTORS
330
51F3
102
}
330
51F3
100
AcDbVisualStyle
  2

 70
    15
 71
     2
 72
     2
 73
     0
 90
        0
 40
-0.6
 41
-30.0
 62
     5
 63
     7
 74
     1
 91
        4
 64
     7
 65
   257
 75
     1
175
     1
 42
1.0
 92
        8
 66
     7
 43
1.0
 76
     1
 77
     6
 78
     2
 67
     7
 79
     5
170
     0
171
     0
290
     0
174
     0
 93
        1
 44
0.0
173
     0
291
     1
 45
0.0
1001
ACAD
1000
AcDbSavedByObjectVersion
1070
     0
  0
VISUALSTYLE
  5
51F4
102
{ACAD_XDICTIONARY
360
82FE
102
}
102
{ACAD_REACTORS
330
51F3
102
}
330
51F3
100
AcDbVisualStyle
  2

 70
     0
 71
     2
 72
     1
 73
     1
 90
        2
 40
-0.6
 41
30.0
 62
     5
 63
     7
 74
     0
 91
        4
 64
     7
 65
   257
 75
     1
175
     1
 42
1.0
 92
        8
 66
     7
 43
1.0
 76
     1
 77
     6
 78
     2
 67
     7
 79
     5
170
     0
171
     0
290
     0
174
     0
 93
       13
 44
0.0
173
     0
291
     1
 45
0.0
1001
ACAD
1000
AcDbSavedByObjectVersion
1070
     0
  0
VISUALSTYLE
  5
51F5
102
{ACAD_XDICTIONARY
360
8300
102
}
102
{ACAD_REACTORS
330
51F3
102
}
330
51F3
100
AcDbVisualStyle
  2

 70
     1
 71
     2
 72
     1
 73
     1
 90
        2
 40
-0.6
 41
30.0
 62
     5
 63
     7
 74
     1
 91
        4
 64
     7
 65
   257
 75
     1
175
     1
 42
1.0
 92
        0
 66
   257
 43
1.0
 76
     1
 77
     6
 78
     2
 67
     7
 79
     5
170
     0
171
     0
290
     0
174
     0
 93
       13
 44
0.0
173
     0
291
     1
 45
0.0
1001
ACAD
1000
AcDbSavedByObjectVersion
1070
     0
  0
VISUALSTYLE
  5
51F6
102
{ACAD_XDICTIONARY
360
8302
102
}
102
{ACAD_REACTORS
330
51F3
102
}
330
51F3
100
AcDbVisualStyle
  2

 70
     2
 71
     2
 72
     2
 73
     1
 90
        2
 40
-0.6
 41
30.0
 62
     5
 63
     7
 74
     0
 91
        4
 64
     7
 65
   257
 75
     1
175
     1
 42
1.0
 92
        0
 66
     7
 43
1.0
 76
     1
 77
     6
 78
     2
 67
     7
 79
     5
170
     0
171
     0
290
     0
174
     0
 93
       13
 44
0.0
173
     0
291
     1
 45
0.0
1001
ACAD
1000
AcDbSavedByObjectVersion
1070
     0
  0
VISUALSTYLE
  5
51F7
102
{ACAD_XDICTIONARY
360
8304
102
}
102
{ACAD_REACTORS
330
51F3
102
}
330
51F3
100
AcDbVisualStyle
  2

 70
     3
 71
     2
 72
     2
 73
     1
 90
        2
 40
-0.6
 41
30.0
 62
     5
 63
     7
 74
     1
 91
        4
 64
     7
 65
   257
 75
     1
175
     1
 42
1.0
 92
        0
 66
   257
 43
1.0
 76
     1
 77
     6
 78
     2
 67
     7
 79
     5
170
     0
171
     0
290
     0
174
     0
 93
       13
 44
0.0
173
     0
291
     1
 45
0.0
1001
ACAD
1000
AcDbSavedByObjectVersion
1070
     0
  0
VISUALSTYLE
  5
6862
102
{ACAD_XDICTIONARY
360
8326
102
}
102
{ACAD_REACTORS
330
51F3
102
}
330
51F3
100
AcDbVisualStyle
  2

 70
     6
 71
     1
 72
     2
 73
     2
 90
        0
 40
-0.6
 41
-30.0
 62
     5
 63
     7
 74
     2
 91
        2
 64
     7
 65
   257
 75
     2
175
     1
 42
40.0
 92
        0
 66
   257
 43
1.0
 76
     1
 77
     6
 78
     2
 67
     7
 79
     3
170
     0
171
     0
290
     0
174
     0
 93
        1
 44
0.0
173
     0
291
     0
 45
0.0
1001
ACAD
1000
AcDbSavedByObjectVersion
1070
     0
  0
VISUALSTYLE
  5
59B9
102
{ACAD_XDICTIONARY
360
831E
102
}
102
{ACAD_REACTORS
330
51F3
102
}
330
51F3
100
AcDbVisualStyle
  2

 70
    20
 71
     2
 72
     2
 73
     0
 90
        0
 40
-0.6
 41
-30.0
 62
     5
 63
     7
 74
     1
 91
        4
 64
     7
 65
   257
 75
     1
175
     1
 42
1.0
 92
       10
 66
     7
 43
1.0
 76
     1
 77
     6
 78
     2
 67
     7
 79
     5
170
     0
171
     0
290
     0
174
     0
 93
        1
 44
0.0
173
     0
291
     1
 45
0.0
1001
ACAD
1000
AcDbSavedByObjectVersion
1070
     0
  0
VISUALSTYLE
  5
5201
102
{ACAD_XDICTIONARY
360
8318
102
}
102
{ACAD_REACTORS
330
51F3
102
}
330
51F3
100
AcDbVisualStyle
  2

 70
    14
 71
     2
 72
     2
 73
     0
 90
        0
 40
-0.6
 41
-30.0
 62
     5
 63
     7
 74
     1
 91
        4
 64
     7
 65
   257
 75
     7
175
     7
 42
1.0
 92
        8
 66
     7
 43
1.0
 76
     1
 77
     6
 78
     2
 67
     7
 79
     5
170
     0
171
     0
290
     0
174
     0
 93
        1
 44
0.0
173
     0
291
     1
 45
0.0
1001
ACAD
1000
AcDbSavedByObjectVersion
1070
     0
  0
VISUALSTYLE
  5
59BA
102
{ACAD_XDICTIONARY
360
8320
102
}
102
{ACAD_REACTORS
330
51F3
102
}
330
51F3
100
AcDbVisualStyle
  2

 70
    21
 71
     2
 72
     2
 73
     0
 90
        0
 40
-0.6
 41
-30.0
 62
     5
 63
     7
 74
     1
 91
        4
 64
     7
 65
   257
 75
     1
175
     1
 42
1.0
 92
        9
 66
     7
 43
1.0
 76
     1
 77
     6
 78
     2
 67
     7
 79
     5
170
     0
171
     0
290
     0
174
     0
 93
        1
 44
0.0
173
     0
291
     1
 45
0.0
1001
ACAD
1000
AcDbSavedByObjectVersion
1070
     0
  0
VISUALSTYLE
  5
51FD
102
{ACAD_XDICTIONARY
360
8310
102
}
102
{ACAD_REACTORS
330
51F3
102
}
330
51F3
100
AcDbVisualStyle
  2

 70
     8
 71
     2
 72
     2
 73
     0
 90
        0
 40
-0.6
 41
-30.0
 62
     5
 63
     7
 74
     1
 91
        0
 64
     7
 65
   257
 75
     1
175
     1
 42
1.0
 92
        8
 66
     8
 43
1.0
 76
     1
 77
     6
 78
     2
 67
     7
 79
     5
170
     0
171
     0
290
     0
174
     0
 93
       13
 44
0.0
173
     0
291
     0
 45
0.0
1001
ACAD
1000
AcDbSavedByObjectVersion
1070
     0
  0
VISUALSTYLE
  5
6867
102
{ACAD_XDICTIONARY
360
8330
102
}
102
{ACAD_REACTORS
330
51F3
102
}
330
51F3
100
AcDbVisualStyle
  2

 70
    27
 71
     2
 72
     2
 73
     1
 90
        2
 40
-0.6
 41
30.0
 62
     5
 63
     7
 74
     0
 91
        4
 64
     7
 65
   257
 75
     1
175
     1
 42
1.0
 92
        8
 66
   257
 43
1.0
 76
     1
 77
     6
 78
     2
 67
     8
 79
     3
170
     0
171
     0
290
     0
174
     0
 93
        5
 44
0.0
173
     0
291
     0
 45
0.0
1001
ACAD
1000
AcDbSavedByObjectVersion
1070
     0
  0
VISUALSTYLE
  5
6866
102
{ACAD_XDICTIONARY
360
832E
102
}
102
{ACAD_REACTORS
330
51F3
102
}
330
51F3
100
AcDbVisualStyle
  2

 70
    26
 71
     2
 72
     2
 73
     1
 90
        2
 40
-0.6
 41
30.0
 62
     5
 63
     7
 74
     1
 91
       10
 64
     7
 65
   257
 75
     2
175
     1
 42
1.0
 92
        8
 66
   257
 43
1.0
 76
     1
 77
     6
 78
     2
 67
     7
 79
     3
170
     0
171
     0
290
     0
174
     0
 93
        5
 44
0.0
173
     0
291
     0
 45
0.0
1001
ACAD
1000
AcDbSavedByObjectVersion
1070
     0
  0
VISUALSTYLE
  5
6863
102
{ACAD_XDICTIONARY
360
8328
102
}
102
{ACAD_REACTORS
330
51F3
102
}
330
51F3
100
AcDbVisualStyle
  2

 70
    23
 71
     2
 72
     2
 73
     3
 90
        0
 40
-0.6
 41
-30.0
 62
     5
 63
     7
 74
     2
 91
        2
 64
     7
 65
     7
 75
     1
175
     1
 42
40.0
 92
        8
 66
     7
 43
1.0
 76
     1
 77
     6
 78
     2
 67
     7
 79
     3
170
     0
171
     0
290
     0
174
     0
 93
        1
 44
0.0
173
     0
291
     0
 45
0.0
1001
ACAD
1000
AcDbSavedByObjectVersion
1070
     0
  0
VISUALSTYLE
  5
6864
102
{ACAD_XDICTIONARY
360
832A
102
}
102
{ACAD_REACTORS
330
51F3
102
}
330
51F3
100
AcDbVisualStyle
  2

 70
    24
 71
     1
 72
     2
 73
     2
 90
        0
 40
-0.6
 41
-30.0
 62
     5
 63
     7
 74
     2
 91
        2
 64
     7
 65
     7
 75
     1
175
     1
 42
40.0
 92
       11
 66
     7
 43
1.0
 76
     1
 77
     6
 78
     2
 67
     7
 79
     6
170
     0
171
     0
290
     0
174
     0
 93
        1
 44
0.0
173
     0
291
     0
 45
0.0
1001
ACAD
1000
AcDbSavedByObjectVersion
1070
     0
  0
VISUALSTYLE
  5
5200
102
{ACAD_XDICTIONARY
360
8316
102
}
102
{ACAD_REACTORS
330
51F3
102
}
330
51F3
100
AcDbVisualStyle
  2

 70
    13
 71
     2
 72
     2
 73
     0
 90
        0
 40
-0.6
 41
-30.0
 62
     5
 63
     7
 74
     1
 91
        4
 64
     7
 65
   257
 75
     1
175
     1
 42
1.0
 92
       12
 66
     7
 43
1.0
 76
     1
 77
     6
 78
     2
 67
     7
 79
     5
170
     0
171
     0
290
     0
174
     0
 93
        1
 44
0.0
173
     0
291
     1
 45
0.0
1001
ACAD
1000
AcDbSavedByObjectVersion
1070
     0
  0
VISUALSTYLE
  5
6861
102
{ACAD_XDICTIONARY
360
8324
102
}
102
{ACAD_REACTORS
330
51F3
102
}
330
51F3
100
AcDbVisualStyle
  2

 70
     5
 71
     0
 72
     2
 73
     0
 90
        0
 40
-0.6
 41
-30.0
 62
     5
 63
     7
 74
     1
 91
        4
 64
     7
 65
   257
 75
     1
175
     1
 42
1.0
 92
        0
 66
   257
 43
1.0
 76
     1
 77
     6
 78
     2
 67
     7
 79
     3
170
     0
171
     0
290
     0
174
     0
 93
        1
 44
0.0
173
     0
291
     0
 45
0.0
1001
ACAD
1000
AcDbSavedByObjectVersion
1070
     0
  0
VISUALSTYLE
  5
6865
102
{ACAD_XDICTIONARY
360
832C
102
}
102
{ACAD_REACTORS
330
51F3
102
}
330
51F3
100
AcDbVisualStyle
  2

 70
    25
 71
     2
 72
     2
 73
     1
 90
        1
 40
0.5
 41
-30.0
 62
     5
 63
     7
 74
     1
 91
        0
 64
     7
 65
   257
 75
     1
175
     1
 42
1.0
 92
        8
 66
     7
 43
1.0
 76
     1
 77
     6
 78
     2
 67
     7
 79
     3
170
     0
171
     0
290
     0
174
     0
 93
       13
 44
0.0
173
     0
291
     0
 45
0.0
1001
ACAD
1000
AcDbSavedByObjectVersion
1070
     0
  0
DICTIONARYVAR
  5
52A8
102
{ACAD_REACTORS
330
66
102
}
330
66
100
DictionaryVariables
280
     0
  1
1:1
  0
DICTIONARYVAR
  5
52A7
102
{ACAD_REACTORS
330
66
102
}
330
66
100
DictionaryVariables
280
     0
  1
STANDARD
  0
DICTIONARYVAR
  5
18C2
102
{ACAD_REACTORS
330
66
102
}
330
66
100
DictionaryVariables
280
     0
  1
STANDARD
  0
DICTIONARYVAR
  5
80B9
102
{ACAD_REACTORS
330
66
102
}
330
66
100
DictionaryVariables
280
     0
  1
Imperial24
  0
DICTIONARYVAR
  5
80BA
102
{ACAD_REACTORS
330
66
102
}
330
66
100
DictionaryVariables
280
     0
  1
Imperial24
  0
DICTIONARYVAR
  5
67
102
{ACAD_REACTORS
330
66
102
}
330
66
100
DictionaryVariables
280
     0
  1
2
  0
DICTIONARYVAR
  5
6B
102
{ACAD_REACTORS
330
66
102
}
330
66
100
DictionaryVariables
280
     0
  1
1
  0
DICTIONARYVAR
  5
52AA
102
{ACAD_REACTORS
330
66
102
}
330
66
100
DictionaryVariables
280
     0
  1
0
  0
DICTIONARYVAR
  5
19CC
102
{ACAD_REACTORS
330
66
102
}
330
66
100
DictionaryVariables
280
     0
  1

  0
DICTIONARYVAR
  5
52A9
102
{ACAD_REACTORS
330
66
102
}
330
66
100
DictionaryVariables
280
     0
  1
127
  0
DICTIONARYVAR
  5
82EA
102
{ACAD_REACTORS
330
66
102
}
330
66
100
DictionaryVariables
280
     0
  1
2
  0
DICTIONARY
  5
531A
102
{ACAD_REACTORS
330
530F
102
}
330
530F
100
AcDbDictionary
281
     1
  0
XRECORD
  5
4582
102
{ACAD_REACTORS
330
457D
102
}
330
457D
100
AcDbXrecord
280
     1
 40
0.000001
  0
XRECORD
  5
4585
102
{ACAD_REACTORS
330
457D
102
}
330
457D
100
AcDbXrecord
280
     1
 70
     0
  0
XRECORD
  5
4584
102
{ACAD_REACTORS
330
457D
102
}
330
457D
100
AcDbXrecord
280
     1
 70
     0
  0
XRECORD
  5
4583
102
{ACAD_REACTORS
330
457D
102
}
330
457D
100
AcDbXrecord
280
     1
 70
     0
  0
DICTIONARY
  5
82F5
330
59
100
AcDbDictionary
280
     1
281
     1
  3
ACAD_XREC_ROUNDTRIP
360
82F6
  0
DICTIONARY
  5
82F7
330
5E
100
AcDbDictionary
280
     1
281
     1
  3
ACAD_XREC_ROUNDTRIP
360
82F8
  0
DICTIONARY
  5
82F3
330
22
100
AcDbDictionary
280
     1
281
     1
  3
ACAD_XREC_ROUNDTRIP
360
82F4
  0
DICTIONARY
  5
51E4
330
51E3
100
AcDbDictionary
280
     1
281
     1
  3
ACAD_XREC_ROUNDTRIP
360
80D0
  3
BUMPTILE
360
51E6
  3
DIFFUSETILE
360
51E5
  3
OPACITYTILE
360
51E9
  3
REFLECTIONTILE
360
51E8
  3
REFRACTIONTILE
360
51EA
  3
SPECULARTILE
360
51E7
  0
DICTIONARY
  5
51DC
330
51DB
100
AcDbDictionary
280
     1
281
     1
  3
ACAD_XREC_ROUNDTRIP
360
80CF
  3
BUMPTILE
360
51DE
  3
DIFFUSETILE
360
51DD
  3
OPACITYTILE
360
51E1
  3
REFLECTIONTILE
360
51E0
  3
REFRACTIONTILE
360
51E2
  3
SPECULARTILE
360
51DF
  0
DICTIONARY
  5
51EC
330
51EB
100
AcDbDictionary
280
     1
281
     1
  3
ACAD_XREC_ROUNDTRIP
360
80D1
  3
BUMPTILE
360
51EE
  3
DIFFUSETILE
360
51ED
  3
OPACITYTILE
360
51F1
  3
REFLECTIONTILE
360
51F0
  3
REFRACTIONTILE
360
51F2
  3
SPECULARTILE
360
51EF
  0
DICTIONARY
  5
5286
330
18BA
100
AcDbDictionary
280
     1
281
     1
  3
ACAD_ROUNDTRIP_2008_TABLESTYLE_CELLSTYLEMAP
360
82EB
  3
ACAD_XREC_ROUNDTRIP
360
82F9
  0
DICTIONARY
  5
8308
330
51F9
100
AcDbDictionary
280
     1
281
     1
  3
ACAD_XREC_ROUNDTRIP
360
8309
  0
DICTIONARY
  5
830C
330
51FB
100
AcDbDictionary
280
     1
281
     1
  3
ACAD_XREC_ROUNDTRIP
360
830D
  0
DICTIONARY
  5
830A
330
51FA
100
AcDbDictionary
280
     1
281
     1
  3
ACAD_XREC_ROUNDTRIP
360
830B
  0
DICTIONARY
  5
8306
330
51F8
100
AcDbDictionary
280
     1
281
     1
  3
ACAD_XREC_ROUNDTRIP
360
8307
  0
DICTIONARY
  5
8314
330
51FF
100
AcDbDictionary
280
     1
281
     1
  3
ACAD_XREC_ROUNDTRIP
360
8315
  0
DICTIONARY
  5
831C
330
5203
100
AcDbDictionary
280
     1
281
     1
  3
ACAD_XREC_ROUNDTRIP
360
831D
  0
DICTIONARY
  5
830E
330
51FC
100
AcDbDictionary
280
     1
281
     1
  3
ACAD_XREC_ROUNDTRIP
360
830F
  0
DICTIONARY
  5
8312
330
51FE
100
AcDbDictionary
280
     1
281
     1
  3
ACAD_XREC_ROUNDTRIP
360
8313
  0
DICTIONARY
  5
8322
330
59BB
100
AcDbDictionary
280
     1
281
     1
  3
ACAD_XREC_ROUNDTRIP
360
8323
  0
DICTIONARY
  5
831A
330
5202
100
AcDbDictionary
280
     1
281
     1
  3
ACAD_XREC_ROUNDTRIP
360
831B
  0
DICTIONARY
  5
82FE
330
51F4
100
AcDbDictionary
280
     1
281
     1
  3
ACAD_XREC_ROUNDTRIP
360
82FF
  0
DICTIONARY
  5
8300
330
51F5
100
AcDbDictionary
280
     1
281
     1
  3
ACAD_XREC_ROUNDTRIP
360
8301
  0
DICTIONARY
  5
8302
330
51F6
100
AcDbDictionary
280
     1
281
     1
  3
ACAD_XREC_ROUNDTRIP
360
8303
  0
DICTIONARY
  5
8304
330
51F7
100
AcDbDictionary
280
     1
281
     1
  3
ACAD_XREC_ROUNDTRIP
360
8305
  0
DICTIONARY
  5
8326
330
6862
100
AcDbDictionary
280
     1
281
     1
  3
ACAD_XREC_ROUNDTRIP
360
8327
  0
DICTIONARY
  5
831E
330
59B9
100
AcDbDictionary
280
     1
281
     1
  3
ACAD_XREC_ROUNDTRIP
360
831F
  0
DICTIONARY
  5
8318
330
5201
100
AcDbDictionary
280
     1
281
     1
  3
ACAD_XREC_ROUNDTRIP
360
8319
  0
DICTIONARY
  5
8320
330
59BA
100
AcDbDictionary
280
     1
281
     1
  3
ACAD_XREC_ROUNDTRIP
360
8321
  0
DICTIONARY
  5
8310
330
51FD
100
AcDbDictionary
280
     1
281
     1
  3
ACAD_XREC_ROUNDTRIP
360
8311
  0
DICTIONARY
  5
8330
330
6867
100
AcDbDictionary
280
     1
281
     1
  3
ACAD_XREC_ROUNDTRIP
360
8331
  0
DICTIONARY
  5
832E
330
6866
100
AcDbDictionary
280
     1
281
     1
  3
ACAD_XREC_ROUNDTRIP
360
832F
  0
DICTIONARY
  5
8328
330
6863
100
AcDbDictionary
280
     1
281
     1
  3
ACAD_XREC_ROUNDTRIP
360
8329
  0
DICTIONARY
  5
832A
330
6864
100
AcDbDictionary
280
     1
281
     1
  3
ACAD_XREC_ROUNDTRIP
360
832B
  0
DICTIONARY
  5
8316
330
5200
100
AcDbDictionary
280
     1
281
     1
  3
ACAD_XREC_ROUNDTRIP
360
8317
  0
DICTIONARY
  5
8324
330
6861
100
AcDbDictionary
280
     1
281
     1
  3
ACAD_XREC_ROUNDTRIP
360
8325
  0
DICTIONARY
  5
832C
330
6865
100
AcDbDictionary
280
     1
281
     1
  3
ACAD_XREC_ROUNDTRIP
360
832D
  0
XRECORD
  5
82F6
102
{ACAD_REACTORS
330
82F5
102
}
330
82F5
100
AcDbXrecord
280
     1
102
SHADEPLOT
 70
     0
102
SHADEPLOTRESLEVEL
 70
     2
102
SHADEPLOTCUSTOMDPI
 70
   300
  0
XRECORD
  5
82F8
102
{ACAD_REACTORS
330
82F7
102
}
330
82F7
100
AcDbXrecord
280
     1
102
SHADEPLOT
 70
     0
102
SHADEPLOTRESLEVEL
 70
     2
102
SHADEPLOTCUSTOMDPI
 70
   300
  0
XRECORD
  5
82F4
102
{ACAD_REACTORS
330
82F3
102
}
330
82F3
100
AcDbXrecord
280
     1
102
SHADEPLOT
 70
     0
102
SHADEPLOTRESLEVEL
 70
     2
102
SHADEPLOTCUSTOMDPI
 70
   300
  0
XRECORD
  5
80D0
102
{ACAD_REACTORS
330
51E4
102
}
330
51E4
100
AcDbXrecord
280
     1
102
MATERIAL
148
0.0
149
0.0
149
0.0
 93
        0
 94
      127
282
     0
 72
     0
 77
     0
171
     0
175
     0
179
     0
273
     0
  0
XRECORD
  5
51E6
102
{ACAD_REACTORS
330
51E4
102
}
330
51E4
100
AcDbXrecord
280
     1
270
     1
271
     1
  0
XRECORD
  5
51E5
102
{ACAD_REACTORS
330
51E4
102
}
330
51E4
100
AcDbXrecord
280
     1
270
     1
271
     1
  0
XRECORD
  5
51E9
102
{ACAD_REACTORS
330
51E4
102
}
330
51E4
100
AcDbXrecord
280
     1
270
     1
271
     1
  0
XRECORD
  5
51E8
102
{ACAD_REACTORS
330
51E4
102
}
330
51E4
100
AcDbXrecord
280
     1
270
     1
271
     1
  0
XRECORD
  5
51EA
102
{ACAD_REACTORS
330
51E4
102
}
330
51E4
100
AcDbXrecord
280
     1
270
     1
271
     1
  0
XRECORD
  5
51E7
102
{ACAD_REACTORS
330
51E4
102
}
330
51E4
100
AcDbXrecord
280
     1
270
     1
271
     1
  0
XRECORD
  5
80CF
102
{ACAD_REACTORS
330
51DC
102
}
330
51DC
100
AcDbXrecord
280
     1
102
MATERIAL
148
0.0
149
0.0
149
0.0
 93
        0
 94
      127
282
     0
 72
     0
 77
     0
171
     0
175
     0
179
     0
273
     0
  0
XRECORD
  5
51DE
102
{ACAD_REACTORS
330
51DC
102
}
330
51DC
100
AcDbXrecord
280
     1
270
     1
271
     1
  0
XRECORD
  5
51DD
102
{ACAD_REACTORS
330
51DC
102
}
330
51DC
100
AcDbXrecord
280
     1
270
     1
271
     1
  0
XRECORD
  5
51E1
102
{ACAD_REACTORS
330
51DC
102
}
330
51DC
100
AcDbXrecord
280
     1
270
     1
271
     1
  0
XRECORD
  5
51E0
102
{ACAD_REACTORS
330
51DC
102
}
330
51DC
100
AcDbXrecord
280
     1
270
     1
271
     1
  0
XRECORD
  5
51E2
102
{ACAD_REACTORS
330
51DC
102
}
330
51DC
100
AcDbXrecord
280
     1
270
     1
271
     1
  0
XRECORD
  5
51DF
102
{ACAD_REACTORS
330
51DC
102
}
330
51DC
100
AcDbXrecord
280
     1
270
     1
271
     1
  0
XRECORD
  5
80D1
102
{ACAD_REACTORS
330
51EC
102
}
330
51EC
100
AcDbXrecord
280
     1
102
MATERIAL
148
0.0
149
0.0
149
0.0
 93
        0
 94
      127
282
     0
 72
     0
 77
     0
171
     0
175
     0
179
     0
273
     0
  0
XRECORD
  5
51EE
102
{ACAD_REACTORS
330
51EC
102
}
330
51EC
100
AcDbXrecord
280
     1
270
     1
271
     1
  0
XRECORD
  5
51ED
102
{ACAD_REACTORS
330
51EC
102
}
330
51EC
100
AcDbXrecord
280
     1
270
     1
271
     1
  0
XRECORD
  5
51F1
102
{ACAD_REACTORS
330
51EC
102
}
330
51EC
100
AcDbXrecord
280
     1
270
     1
271
     1
  0
XRECORD
  5
51F0
102
{ACAD_REACTORS
330
51EC
102
}
330
51EC
100
AcDbXrecord
280
     1
270
     1
271
     1
  0
XRECORD
  5
51F2
102
{ACAD_REACTORS
330
51EC
102
}
330
51EC
100
AcDbXrecord
280
     1
270
     1
271
     1
  0
XRECORD
  5
51EF
102
{ACAD_REACTORS
330
51EC
102
}
330
51EC
100
AcDbXrecord
280
     1
270
     1
271
     1
  0
CELLSTYLEMAP
  5
82EB
102
{ACAD_REACTORS
330
5286
102
}
330
5286
100
AcDbCellStyleMap
 90
        3
300
CELLSTYLE
  1
TABLEFORMAT_BEGIN
 90
        5
170
     1
 91
        0
 92
    32768
 62
   257
 93
        1
300
CONTENTFORMAT
  1
CONTENTFORMAT_BEGIN
 90
        0
 91
        0
 92
        4
 93
        0
300

 40
0.0
140
1.0
 94
        5
 62
     0
340
11
144
0.25
309
CONTENTFORMAT_END
171
     1
301
MARGIN
  1
CELLMARGIN_BEGIN
 40
0.06
 40
0.06
 40
0.06
 40
0.06
 40
0.18
 40
0.18
309
CELLMARGIN_END
 94
        6
 95
        1
302
GRIDFORMAT
  1
GRIDFORMAT_BEGIN
 90
        0
 91
        1
 62
     0
 92
       -2
340
0
 93
        0
 40
0.045
309
GRIDFORMAT_END
 95
        2
302
GRIDFORMAT
  1
GRIDFORMAT_BEGIN
 90
        0
 91
        1
 62
     0
 92
       -2
340
0
 93
        0
 40
0.045
309
GRIDFORMAT_END
 95
        4
302
GRIDFORMAT
  1
GRIDFORMAT_BEGIN
 90
        0
 91
        1
 62
     0
 92
       -2
340
0
 93
        0
 40
0.045
309
GRIDFORMAT_END
 95
        8
302
GRIDFORMAT
  1
GRIDFORMAT_BEGIN
 90
        0
 91
        1
 62
     0
 92
       -2
340
0
 93
        0
 40
0.045
309
GRIDFORMAT_END
 95
       16
302
GRIDFORMAT
  1
GRIDFORMAT_BEGIN
 90
        0
 91
        1
 62
     0
 92
       -2
340
0
 93
        0
 40
0.045
309
GRIDFORMAT_END
 95
       32
302
GRIDFORMAT
  1
GRIDFORMAT_BEGIN
 90
        0
 91
        1
 62
     0
 92
       -2
340
0
 93
        0
 40
0.045
309
GRIDFORMAT_END
309
TABLEFORMAT_END
  1
CELLSTYLE_BEGIN
 90
        1
 91
        1
300
_TITLE
309
CELLSTYLE_END
300
CELLSTYLE
  1
TABLEFORMAT_BEGIN
 90
        5
170
     1
 91
        0
 92
        0
 62
   257
 93
        1
300
CONTENTFORMAT
  1
CONTENTFORMAT_BEGIN
 90
        0
 91
        0
 92
        4
 93
        0
300

 40
0.0
140
1.0
 94
        5
 62
     0
340
11
144
0.18
309
CONTENTFORMAT_END
171
     1
301
MARGIN
  1
CELLMARGIN_BEGIN
 40
0.06
 40
0.06
 40
0.06
 40
0.06
 40
0.18
 40
0.18
309
CELLMARGIN_END
 94
        6
 95
        1
302
GRIDFORMAT
  1
GRIDFORMAT_BEGIN
 90
        0
 91
        1
 62
     0
 92
       -2
340
0
 93
        0
 40
0.045
309
GRIDFORMAT_END
 95
        2
302
GRIDFORMAT
  1
GRIDFORMAT_BEGIN
 90
        0
 91
        1
 62
     0
 92
       -2
340
0
 93
        0
 40
0.045
309
GRIDFORMAT_END
 95
        4
302
GRIDFORMAT
  1
GRIDFORMAT_BEGIN
 90
        0
 91
        1
 62
     0
 92
       -2
340
0
 93
        0
 40
0.045
309
GRIDFORMAT_END
 95
        8
302
GRIDFORMAT
  1
GRIDFORMAT_BEGIN
 90
        0
 91
        1
 62
     0
 92
       -2
340
0
 93
        0
 40
0.045
309
GRIDFORMAT_END
 95
       16
302
GRIDFORMAT
  1
GRIDFORMAT_BEGIN
 90
        0
 91
        1
 62
     0
 92
       -2
340
0
 93
        0
 40
0.045
309
GRIDFORMAT_END
 95
       32
302
GRIDFORMAT
  1
GRIDFORMAT_BEGIN
 90
        0
 91
        1
 62
     0
 92
       -2
340
0
 93
        0
 40
0.045
309
GRIDFORMAT_END
309
TABLEFORMAT_END
  1
CELLSTYLE_BEGIN
 90
        2
 91
        1
300
_HEADER
309
CELLSTYLE_END
300
CELLSTYLE
  1
TABLEFORMAT_BEGIN
 90
        5
170
     1
 91
        0
 92
        0
 62
   257
 93
        1
300
CONTENTFORMAT
  1
CONTENTFORMAT_BEGIN
 90
        0
 91
        0
 92
        4
 93
        0
300

 40
0.0
140
1.0
 94
        2
 62
     0
340
11
144
0.18
309
CONTENTFORMAT_END
171
     1
301
MARGIN
  1
CELLMARGIN_BEGIN
 40
0.06
 40
0.06
 40
0.06
 40
0.06
 40
0.18
 40
0.18
309
CELLMARGIN_END
 94
        6
 95
        1
302
GRIDFORMAT
  1
GRIDFORMAT_BEGIN
 90
        0
 91
        1
 62
     0
 92
       -2
340
0
 93
        0
 40
0.045
309
GRIDFORMAT_END
 95
        2
302
GRIDFORMAT
  1
GRIDFORMAT_BEGIN
 90
        0
 91
        1
 62
     0
 92
       -2
340
0
 93
        0
 40
0.045
309
GRIDFORMAT_END
 95
        4
302
GRIDFORMAT
  1
GRIDFORMAT_BEGIN
 90
        0
 91
        1
 62
     0
 92
       -2
340
0
 93
        0
 40
0.045
309
GRIDFORMAT_END
 95
        8
302
GRIDFORMAT
  1
GRIDFORMAT_BEGIN
 90
        0
 91
        1
 62
     0
 92
       -2
340
0
 93
        0
 40
0.045
309
GRIDFORMAT_END
 95
       16
302
GRIDFORMAT
  1
GRIDFORMAT_BEGIN
 90
        0
 91
        1
 62
     0
 92
       -2
340
0
 93
        0
 40
0.045
309
GRIDFORMAT_END
 95
       32
302
GRIDFORMAT
  1
GRIDFORMAT_BEGIN
 90
        0
 91
        1
 62
     0
 92
       -2
340
0
 93
        0
 40
0.045
309
GRIDFORMAT_END
309
TABLEFORMAT_END
  1
CELLSTYLE_BEGIN
 90
        3
 91
        2
300
_DATA
309
CELLSTYLE_END
  0
XRECORD
  5
82F9
102
{ACAD_REACTORS
330
5286
102
}
330
5286
100
AcDbXrecord
280
     1
102
ACAD_ROUNDTRIP_PRE2007_TABLESTYLE
 90
        4
 91
        0
  1

 92
        4
 93
        0
  2

 94
        4
 95
        0
  3

  0
XRECORD
  5
8309
102
{ACAD_REACTORS
330
8308
102
}
330
8308
100
AcDbXrecord
280
     1
102
RTVSPost2010Prop28
280
     1
102
RTVSPost2010PropOp28
 70
     1
102
RTVSPost2010Prop29
280
     1
102
RTVSPost2010PropOp29
 70
     1
102
RTVSPost2010Prop30
280
     0
102
RTVSPost2010PropOp30
 70
     1
102
RTVSPost2010Prop31
280
     0
102
RTVSPost2010PropOp31
 70
     1
102
RTVSPost2010Prop32
280
     0
102
RTVSPost2010PropOp32
 70
     1
102
RTVSPost2010Prop33
280
     0
102
RTVSPost2010PropOp33
 70
     1
102
RTVSPost2010Prop34
280
     0
102
RTVSPost2010PropOp34
 70
     1
102
RTVSPost2010Prop35
280
     0
102
RTVSPost2010PropOp35
 70
     1
102
RTVSPost2010Prop36
280
     0
102
RTVSPost2010PropOp36
 70
     1
102
RTVSPost2010Prop37
 90
       50
102
RTVSPost2010PropOp37
 70
     1
102
RTVSPost2010Prop38
140
0.0
102
RTVSPost2010PropOp38
 70
     1
102
RTVSPost2010Prop39
140
1.0
102
RTVSPost2010PropOp39
 70
     1
102
RTVSPost2010Prop40
 90
        0
102
RTVSPost2010PropOp40
 70
     1
102
RTVSPost2010Prop41ColorIndex
 90
       18
102
RTVSPost2010Prop41ColorRGB
 90
        0
102
RTVSPost2010PropOp41
 70
     1
102
RTVSPost2010Prop42
 90
       50
102
RTVSPost2010PropOp42
 70
     1
102
RTVSPost2010Prop43
 90
        3
102
RTVSPost2010PropOp43
 70
     1
102
RTVSPost2010Prop44ColorIndex
 90
        5
102
RTVSPost2010Prop44ColorRGB
 90
      255
102
RTVSPost2010PropOp44
 70
     1
102
RTVSPost2010Prop45
280
     0
102
RTVSPost2010PropOp45
 70
     1
102
RTVSPost2010Prop46
 90
       50
102
RTVSPost2010PropOp46
 70
     1
102
RTVSPost2010Prop47
 90
       50
102
RTVSPost2010PropOp47
 70
     1
102
RTVSPost2010Prop48
 90
       50
102
RTVSPost2010PropOp48
 70
     1
102
RTVSPost2010Prop49
280
     0
102
RTVSPost2010PropOp49
 70
     1
102
RTVSPost2010Prop50
 90
       50
102
RTVSPost2010PropOp50
 70
     1
102
RTVSPost2010Prop51ColorIndex
 90
      256
102
RTVSPost2010Prop51ColorRGB
 90
-16777216
102
RTVSPost2010PropOp51
 70
     0
102
RTVSPost2010Prop52
140
1.0
102
RTVSPost2010PropOp52
 70
     0
102
RTVSPost2010Prop53
 90
        2
102
RTVSPost2010PropOp53
 70
     1
102
RTVSPost2010Prop54
  1
strokes_ogs.tif
102
RTVSPost2010PropOp54
 70
     1
102
RTVSPost2010Prop55
280
     0
102
RTVSPost2010PropOp55
 70
     1
102
RTVSPost2010Prop56
140
1.0
102
RTVSPost2010PropOp56
 70
     1
102
RTVSPost2010Prop57
140
1.0
102
RTVSPost2010PropOp57
 70
     1
102
RTVSPropertyOp0
 70
     1
102
RTVSPropertyOp1
 70
     1
102
RTVSPropertyOp2
 70
     1
102
RTVSPropertyOp3
 70
     1
102
RTVSPropertyOp4
 70
     1
102
RTVSPropertyOp5
 70
     1
102
RTVSPropertyOp6
 70
     1
102
RTVSPropertyOp7
 70
     1
102
RTVSPropertyOp8
 70
     1
102
RTVSPropertyOp9
 70
     1
102
RTVSPropertyOp10
 70
     1
102
RTVSPropertyOp11
 70
     1
102
RTVSPropertyOp12
 70
     1
102
RTVSPropertyOp13
 70
     1
102
RTVSPropertyOp14
 70
     1
102
RTVSPropertyOp15
 70
     1
102
RTVSPropertyOp16
 70
     1
102
RTVSPropertyOp17
 70
     1
102
RTVSPropertyOp18
 70
     1
102
RTVSPropertyOp19
 70
     1
102
RTVSPropertyOp20
 70
     1
102
RTVSPropertyOp21
 70
     1
102
RTVSPropertyOp22
 70
     1
102
RTVSPropertyOp23
 70
     1
102
RTVSPropertyOp24
 70
     1
102
RTVSPropertyOp25
 70
     1
102
RTVSPropertyOp26
 70
     1
102
RTVSPropertyOp27
 70
     1
102
RTVSPropertyOp28
 70
     1
102
RTVSPropertyOp29
 70
     1
102
RTVSPropertyOp30
 70
     1
102
RTVSPropertyOp31
 70
     1
102
RTVSPropertyOp32
 70
     1
102
RTVSPropertyOp33
 70
     1
102
RTVSPropertyOp34
 70
     1
102
RTVSPropertyOp35
 70
     1
102
RTVSPropertyOp36
 70
     1
102
RTVSPropertyOp37
 70
     1
102
RTVSPropertyOp38
 70
     1
102
RTVSPropertyOp39
 70
     1
102
RTVSPropertyOp40
 70
     1
102
RTVSPropertyOp41
 70
     1
102
RTVSPropertyOp42
 70
     1
102
RTVSPropertyOp43
 70
     1
102
RTVSPropertyOp44
 70
     1
102
RTVSPropertyOp45
 70
     1
102
RTVSPropertyOp46
 70
     1
102
RTVSPropertyOp47
 70
     1
102
RTVSPropertyOp48
 70
     1
102
RTVSPropertyOp49
 70
     1
102
RTVSPropertyOp50
 70
     1
102
RTVSPropertyOp51
 70
     0
102
RTVSPropertyOp52
 70
     0
102
RTVSPropertyOp53
 70
     1
102
RTVSPropertyOp54
 70
     1
102
RTVSPropertyOp55
 70
     1
102
RTVSPropertyOp56
 70
     1
102
RTVSPropertyOp57
 70
     1
102
RTVSPropertyOp58
 70
     1
102
RTVSPropertyOp59
 70
     1
102
RTVSPropertyOp60
 70
     1
102
RTVSPropertyOp61
 70
     1
102
RTVSPropertyOp62
 70
     1
  0
XRECORD
  5
830D
102
{ACAD_REACTORS
330
830C
102
}
330
830C
100
AcDbXrecord
280
     1
102
RTVSPost2010Prop28
280
     0
102
RTVSPost2010PropOp28
 70
     1
102
RTVSPost2010Prop29
280
     1
102
RTVSPost2010PropOp29
 70
     1
102
RTVSPost2010Prop30
280
     1
102
RTVSPost2010PropOp30
 70
     1
102
RTVSPost2010Prop31
280
     0
102
RTVSPost2010PropOp31
 70
     1
102
RTVSPost2010Prop32
280
     0
102
RTVSPost2010PropOp32
 70
     1
102
RTVSPost2010Prop33
280
     0
102
RTVSPost2010PropOp33
 70
     1
102
RTVSPost2010Prop34
280
     0
102
RTVSPost2010PropOp34
 70
     1
102
RTVSPost2010Prop35
280
     0
102
RTVSPost2010PropOp35
 70
     1
102
RTVSPost2010Prop36
280
     0
102
RTVSPost2010PropOp36
 70
     1
102
RTVSPost2010Prop37
 90
       50
102
RTVSPost2010PropOp37
 70
     1
102
RTVSPost2010Prop38
140
0.0
102
RTVSPost2010PropOp38
 70
     1
102
RTVSPost2010Prop39
140
1.0
102
RTVSPost2010PropOp39
 70
     1
102
RTVSPost2010Prop40
 90
        0
102
RTVSPost2010PropOp40
 70
     1
102
RTVSPost2010Prop41ColorIndex
 90
       18
102
RTVSPost2010Prop41ColorRGB
 90
        0
102
RTVSPost2010PropOp41
 70
     1
102
RTVSPost2010Prop42
 90
       50
102
RTVSPost2010PropOp42
 70
     1
102
RTVSPost2010Prop43
 90
        3
102
RTVSPost2010PropOp43
 70
     1
102
RTVSPost2010Prop44ColorIndex
 90
        5
102
RTVSPost2010Prop44ColorRGB
 90
      255
102
RTVSPost2010PropOp44
 70
     1
102
RTVSPost2010Prop45
280
     0
102
RTVSPost2010PropOp45
 70
     1
102
RTVSPost2010Prop46
 90
       50
102
RTVSPost2010PropOp46
 70
     1
102
RTVSPost2010Prop47
 90
       50
102
RTVSPost2010PropOp47
 70
     1
102
RTVSPost2010Prop48
 90
       50
102
RTVSPost2010PropOp48
 70
     1
102
RTVSPost2010Prop49
280
     0
102
RTVSPost2010PropOp49
 70
     1
102
RTVSPost2010Prop50
 90
       50
102
RTVSPost2010PropOp50
 70
     1
102
RTVSPost2010Prop51ColorIndex
 90
      256
102
RTVSPost2010Prop51ColorRGB
 90
-16777216
102
RTVSPost2010PropOp51
 70
     0
102
RTVSPost2010Prop52
140
1.0
102
RTVSPost2010PropOp52
 70
     0
102
RTVSPost2010Prop53
 90
        2
102
RTVSPost2010PropOp53
 70
     1
102
RTVSPost2010Prop54
  1
strokes_ogs.tif
102
RTVSPost2010PropOp54
 70
     1
102
RTVSPost2010Prop55
280
     0
102
RTVSPost2010PropOp55
 70
     1
102
RTVSPost2010Prop56
140
1.0
102
RTVSPost2010PropOp56
 70
     1
102
RTVSPost2010Prop57
140
1.0
102
RTVSPost2010PropOp57
 70
     1
102
RTVSPropertyOp0
 70
     1
102
RTVSPropertyOp1
 70
     1
102
RTVSPropertyOp2
 70
     1
102
RTVSPropertyOp3
 70
     1
102
RTVSPropertyOp4
 70
     1
102
RTVSPropertyOp5
 70
     1
102
RTVSPropertyOp6
 70
     1
102
RTVSPropertyOp7
 70
     1
102
RTVSPropertyOp8
 70
     1
102
RTVSPropertyOp9
 70
     1
102
RTVSPropertyOp10
 70
     1
102
RTVSPropertyOp11
 70
     1
102
RTVSPropertyOp12
 70
     1
102
RTVSPropertyOp13
 70
     1
102
RTVSPropertyOp14
 70
     1
102
RTVSPropertyOp15
 70
     1
102
RTVSPropertyOp16
 70
     1
102
RTVSPropertyOp17
 70
     1
102
RTVSPropertyOp18
 70
     1
102
RTVSPropertyOp19
 70
     1
102
RTVSPropertyOp20
 70
     1
102
RTVSPropertyOp21
 70
     1
102
RTVSPropertyOp22
 70
     1
102
RTVSPropertyOp23
 70
     1
102
RTVSPropertyOp24
 70
     1
102
RTVSPropertyOp25
 70
     1
102
RTVSPropertyOp26
 70
     1
102
RTVSPropertyOp27
 70
     1
102
RTVSPropertyOp28
 70
     1
102
RTVSPropertyOp29
 70
     1
102
RTVSPropertyOp30
 70
     1
102
RTVSPropertyOp31
 70
     1
102
RTVSPropertyOp32
 70
     1
102
RTVSPropertyOp33
 70
     1
102
RTVSPropertyOp34
 70
     1
102
RTVSPropertyOp35
 70
     1
102
RTVSPropertyOp36
 70
     1
102
RTVSPropertyOp37
 70
     1
102
RTVSPropertyOp38
 70
     1
102
RTVSPropertyOp39
 70
     1
102
RTVSPropertyOp40
 70
     1
102
RTVSPropertyOp41
 70
     1
102
RTVSPropertyOp42
 70
     1
102
RTVSPropertyOp43
 70
     1
102
RTVSPropertyOp44
 70
     1
102
RTVSPropertyOp45
 70
     1
102
RTVSPropertyOp46
 70
     1
102
RTVSPropertyOp47
 70
     1
102
RTVSPropertyOp48
 70
     1
102
RTVSPropertyOp49
 70
     1
102
RTVSPropertyOp50
 70
     1
102
RTVSPropertyOp51
 70
     0
102
RTVSPropertyOp52
 70
     0
102
RTVSPropertyOp53
 70
     1
102
RTVSPropertyOp54
 70
     1
102
RTVSPropertyOp55
 70
     1
102
RTVSPropertyOp56
 70
     1
102
RTVSPropertyOp57
 70
     1
102
RTVSPropertyOp58
 70
     1
102
RTVSPropertyOp59
 70
     1
102
RTVSPropertyOp60
 70
     1
102
RTVSPropertyOp61
 70
     1
102
RTVSPropertyOp62
 70
     1
  0
XRECORD
  5
830B
102
{ACAD_REACTORS
330
830A
102
}
330
830A
100
AcDbXrecord
280
     1
102
RTVSPost2010Prop28
280
     0
102
RTVSPost2010PropOp28
 70
     1
102
RTVSPost2010Prop29
280
     1
102
RTVSPost2010PropOp29
 70
     1
102
RTVSPost2010Prop30
280
     1
102
RTVSPost2010PropOp30
 70
     1
102
RTVSPost2010Prop31
280
     0
102
RTVSPost2010PropOp31
 70
     1
102
RTVSPost2010Prop32
280
     0
102
RTVSPost2010PropOp32
 70
     1
102
RTVSPost2010Prop33
280
     0
102
RTVSPost2010PropOp33
 70
     1
102
RTVSPost2010Prop34
280
     0
102
RTVSPost2010PropOp34
 70
     1
102
RTVSPost2010Prop35
280
     0
102
RTVSPost2010PropOp35
 70
     1
102
RTVSPost2010Prop36
280
     0
102
RTVSPost2010PropOp36
 70
     1
102
RTVSPost2010Prop37
 90
       50
102
RTVSPost2010PropOp37
 70
     1
102
RTVSPost2010Prop38
140
0.0
102
RTVSPost2010PropOp38
 70
     1
102
RTVSPost2010Prop39
140
1.0
102
RTVSPost2010PropOp39
 70
     1
102
RTVSPost2010Prop40
 90
        0
102
RTVSPost2010PropOp40
 70
     1
102
RTVSPost2010Prop41ColorIndex
 90
       18
102
RTVSPost2010Prop41ColorRGB
 90
        0
102
RTVSPost2010PropOp41
 70
     1
102
RTVSPost2010Prop42
 90
       50
102
RTVSPost2010PropOp42
 70
     1
102
RTVSPost2010Prop43
 90
        3
102
RTVSPost2010PropOp43
 70
     1
102
RTVSPost2010Prop44ColorIndex
 90
        5
102
RTVSPost2010Prop44ColorRGB
 90
      255
102
RTVSPost2010PropOp44
 70
     1
102
RTVSPost2010Prop45
280
     0
102
RTVSPost2010PropOp45
 70
     1
102
RTVSPost2010Prop46
 90
       50
102
RTVSPost2010PropOp46
 70
     1
102
RTVSPost2010Prop47
 90
       50
102
RTVSPost2010PropOp47
 70
     1
102
RTVSPost2010Prop48
 90
       50
102
RTVSPost2010PropOp48
 70
     1
102
RTVSPost2010Prop49
280
     0
102
RTVSPost2010PropOp49
 70
     1
102
RTVSPost2010Prop50
 90
       50
102
RTVSPost2010PropOp50
 70
     1
102
RTVSPost2010Prop51ColorIndex
 90
      256
102
RTVSPost2010Prop51ColorRGB
 90
-16777216
102
RTVSPost2010PropOp51
 70
     0
102
RTVSPost2010Prop52
140
1.0
102
RTVSPost2010PropOp52
 70
     0
102
RTVSPost2010Prop53
 90
        2
102
RTVSPost2010PropOp53
 70
     1
102
RTVSPost2010Prop54
  1
strokes_ogs.tif
102
RTVSPost2010PropOp54
 70
     1
102
RTVSPost2010Prop55
280
     0
102
RTVSPost2010PropOp55
 70
     1
102
RTVSPost2010Prop56
140
1.0
102
RTVSPost2010PropOp56
 70
     1
102
RTVSPost2010Prop57
140
1.0
102
RTVSPost2010PropOp57
 70
     1
102
RTVSPropertyOp0
 70
     1
102
RTVSPropertyOp1
 70
     1
102
RTVSPropertyOp2
 70
     1
102
RTVSPropertyOp3
 70
     1
102
RTVSPropertyOp4
 70
     1
102
RTVSPropertyOp5
 70
     1
102
RTVSPropertyOp6
 70
     1
102
RTVSPropertyOp7
 70
     1
102
RTVSPropertyOp8
 70
     1
102
RTVSPropertyOp9
 70
     1
102
RTVSPropertyOp10
 70
     1
102
RTVSPropertyOp11
 70
     1
102
RTVSPropertyOp12
 70
     1
102
RTVSPropertyOp13
 70
     1
102
RTVSPropertyOp14
 70
     1
102
RTVSPropertyOp15
 70
     1
102
RTVSPropertyOp16
 70
     1
102
RTVSPropertyOp17
 70
     1
102
RTVSPropertyOp18
 70
     1
102
RTVSPropertyOp19
 70
     1
102
RTVSPropertyOp20
 70
     1
102
RTVSPropertyOp21
 70
     1
102
RTVSPropertyOp22
 70
     1
102
RTVSPropertyOp23
 70
     1
102
RTVSPropertyOp24
 70
     1
102
RTVSPropertyOp25
 70
     1
102
RTVSPropertyOp26
 70
     1
102
RTVSPropertyOp27
 70
     1
102
RTVSPropertyOp28
 70
     1
102
RTVSPropertyOp29
 70
     1
102
RTVSPropertyOp30
 70
     1
102
RTVSPropertyOp31
 70
     1
102
RTVSPropertyOp32
 70
     1
102
RTVSPropertyOp33
 70
     1
102
RTVSPropertyOp34
 70
     1
102
RTVSPropertyOp35
 70
     1
102
RTVSPropertyOp36
 70
     1
102
RTVSPropertyOp37
 70
     1
102
RTVSPropertyOp38
 70
     1
102
RTVSPropertyOp39
 70
     1
102
RTVSPropertyOp40
 70
     1
102
RTVSPropertyOp41
 70
     1
102
RTVSPropertyOp42
 70
     1
102
RTVSPropertyOp43
 70
     1
102
RTVSPropertyOp44
 70
     1
102
RTVSPropertyOp45
 70
     1
102
RTVSPropertyOp46
 70
     1
102
RTVSPropertyOp47
 70
     1
102
RTVSPropertyOp48
 70
     1
102
RTVSPropertyOp49
 70
     1
102
RTVSPropertyOp50
 70
     1
102
RTVSPropertyOp51
 70
     0
102
RTVSPropertyOp52
 70
     0
102
RTVSPropertyOp53
 70
     1
102
RTVSPropertyOp54
 70
     1
102
RTVSPropertyOp55
 70
     1
102
RTVSPropertyOp56
 70
     1
102
RTVSPropertyOp57
 70
     1
102
RTVSPropertyOp58
 70
     1
102
RTVSPropertyOp59
 70
     1
102
RTVSPropertyOp60
 70
     1
102
RTVSPropertyOp61
 70
     1
102
RTVSPropertyOp62
 70
     1
  0
XRECORD
  5
8307
102
{ACAD_REACTORS
330
8306
102
}
330
8306
100
AcDbXrecord
280
     1
102
RTVSPost2010Prop28
280
     0
102
RTVSPost2010PropOp28
 70
     1
102
RTVSPost2010Prop29
280
     1
102
RTVSPost2010PropOp29
 70
     1
102
RTVSPost2010Prop30
280
     1
102
RTVSPost2010PropOp30
 70
     1
102
RTVSPost2010Prop31
280
     0
102
RTVSPost2010PropOp31
 70
     1
102
RTVSPost2010Prop32
280
     0
102
RTVSPost2010PropOp32
 70
     1
102
RTVSPost2010Prop33
280
     0
102
RTVSPost2010PropOp33
 70
     1
102
RTVSPost2010Prop34
280
     0
102
RTVSPost2010PropOp34
 70
     1
102
RTVSPost2010Prop35
280
     0
102
RTVSPost2010PropOp35
 70
     1
102
RTVSPost2010Prop36
280
     0
102
RTVSPost2010PropOp36
 70
     1
102
RTVSPost2010Prop37
 90
       50
102
RTVSPost2010PropOp37
 70
     1
102
RTVSPost2010Prop38
140
0.0
102
RTVSPost2010PropOp38
 70
     1
102
RTVSPost2010Prop39
140
1.0
102
RTVSPost2010PropOp39
 70
     1
102
RTVSPost2010Prop40
 90
        0
102
RTVSPost2010PropOp40
 70
     1
102
RTVSPost2010Prop41ColorIndex
 90
       18
102
RTVSPost2010Prop41ColorRGB
 90
        0
102
RTVSPost2010PropOp41
 70
     1
102
RTVSPost2010Prop42
 90
       50
102
RTVSPost2010PropOp42
 70
     1
102
RTVSPost2010Prop43
 90
        3
102
RTVSPost2010PropOp43
 70
     1
102
RTVSPost2010Prop44ColorIndex
 90
        5
102
RTVSPost2010Prop44ColorRGB
 90
      255
102
RTVSPost2010PropOp44
 70
     1
102
RTVSPost2010Prop45
280
     0
102
RTVSPost2010PropOp45
 70
     1
102
RTVSPost2010Prop46
 90
       50
102
RTVSPost2010PropOp46
 70
     1
102
RTVSPost2010Prop47
 90
       50
102
RTVSPost2010PropOp47
 70
     1
102
RTVSPost2010Prop48
 90
       50
102
RTVSPost2010PropOp48
 70
     1
102
RTVSPost2010Prop49
280
     0
102
RTVSPost2010PropOp49
 70
     1
102
RTVSPost2010Prop50
 90
       50
102
RTVSPost2010PropOp50
 70
     1
102
RTVSPost2010Prop51ColorIndex
 90
      256
102
RTVSPost2010Prop51ColorRGB
 90
-16777216
102
RTVSPost2010PropOp51
 70
     0
102
RTVSPost2010Prop52
140
1.0
102
RTVSPost2010PropOp52
 70
     0
102
RTVSPost2010Prop53
 90
        2
102
RTVSPost2010PropOp53
 70
     1
102
RTVSPost2010Prop54
  1
strokes_ogs.tif
102
RTVSPost2010PropOp54
 70
     1
102
RTVSPost2010Prop55
280
     0
102
RTVSPost2010PropOp55
 70
     1
102
RTVSPost2010Prop56
140
1.0
102
RTVSPost2010PropOp56
 70
     1
102
RTVSPost2010Prop57
140
1.0
102
RTVSPost2010PropOp57
 70
     1
102
RTVSPropertyOp0
 70
     1
102
RTVSPropertyOp1
 70
     1
102
RTVSPropertyOp2
 70
     1
102
RTVSPropertyOp3
 70
     1
102
RTVSPropertyOp4
 70
     1
102
RTVSPropertyOp5
 70
     1
102
RTVSPropertyOp6
 70
     1
102
RTVSPropertyOp7
 70
     1
102
RTVSPropertyOp8
 70
     1
102
RTVSPropertyOp9
 70
     1
102
RTVSPropertyOp10
 70
     1
102
RTVSPropertyOp11
 70
     1
102
RTVSPropertyOp12
 70
     1
102
RTVSPropertyOp13
 70
     1
102
RTVSPropertyOp14
 70
     1
102
RTVSPropertyOp15
 70
     1
102
RTVSPropertyOp16
 70
     1
102
RTVSPropertyOp17
 70
     1
102
RTVSPropertyOp18
 70
     1
102
RTVSPropertyOp19
 70
     1
102
RTVSPropertyOp20
 70
     1
102
RTVSPropertyOp21
 70
     1
102
RTVSPropertyOp22
 70
     1
102
RTVSPropertyOp23
 70
     1
102
RTVSPropertyOp24
 70
     1
102
RTVSPropertyOp25
 70
     1
102
RTVSPropertyOp26
 70
     1
102
RTVSPropertyOp27
 70
     1
102
RTVSPropertyOp28
 70
     1
102
RTVSPropertyOp29
 70
     1
102
RTVSPropertyOp30
 70
     1
102
RTVSPropertyOp31
 70
     1
102
RTVSPropertyOp32
 70
     1
102
RTVSPropertyOp33
 70
     1
102
RTVSPropertyOp34
 70
     1
102
RTVSPropertyOp35
 70
     1
102
RTVSPropertyOp36
 70
     1
102
RTVSPropertyOp37
 70
     1
102
RTVSPropertyOp38
 70
     1
102
RTVSPropertyOp39
 70
     1
102
RTVSPropertyOp40
 70
     1
102
RTVSPropertyOp41
 70
     1
102
RTVSPropertyOp42
 70
     1
102
RTVSPropertyOp43
 70
     1
102
RTVSPropertyOp44
 70
     1
102
RTVSPropertyOp45
 70
     1
102
RTVSPropertyOp46
 70
     1
102
RTVSPropertyOp47
 70
     1
102
RTVSPropertyOp48
 70
     1
102
RTVSPropertyOp49
 70
     1
102
RTVSPropertyOp50
 70
     1
102
RTVSPropertyOp51
 70
     0
102
RTVSPropertyOp52
 70
     0
102
RTVSPropertyOp53
 70
     1
102
RTVSPropertyOp54
 70
     1
102
RTVSPropertyOp55
 70
     1
102
RTVSPropertyOp56
 70
     1
102
RTVSPropertyOp57
 70
     1
102
RTVSPropertyOp58
 70
     1
102
RTVSPropertyOp59
 70
     1
102
RTVSPropertyOp60
 70
     1
102
RTVSPropertyOp61
 70
     1
102
RTVSPropertyOp62
 70
     1
  0
XRECORD
  5
8315
102
{ACAD_REACTORS
330
8314
102
}
330
8314
100
AcDbXrecord
280
     1
102
RTVSPost2010Prop28
280
     0
102
RTVSPost2010PropOp28
 70
     1
102
RTVSPost2010Prop29
280
     1
102
RTVSPost2010PropOp29
 70
     1
102
RTVSPost2010Prop30
280
     1
102
RTVSPost2010PropOp30
 70
     1
102
RTVSPost2010Prop31
280
     0
102
RTVSPost2010PropOp31
 70
     1
102
RTVSPost2010Prop32
280
     0
102
RTVSPost2010PropOp32
 70
     1
102
RTVSPost2010Prop33
280
     0
102
RTVSPost2010PropOp33
 70
     1
102
RTVSPost2010Prop34
280
     0
102
RTVSPost2010PropOp34
 70
     1
102
RTVSPost2010Prop35
280
     0
102
RTVSPost2010PropOp35
 70
     1
102
RTVSPost2010Prop36
280
     0
102
RTVSPost2010PropOp36
 70
     1
102
RTVSPost2010Prop37
 90
       50
102
RTVSPost2010PropOp37
 70
     1
102
RTVSPost2010Prop38
140
0.0
102
RTVSPost2010PropOp38
 70
     1
102
RTVSPost2010Prop39
140
1.0
102
RTVSPost2010PropOp39
 70
     1
102
RTVSPost2010Prop40
 90
        0
102
RTVSPost2010PropOp40
 70
     1
102
RTVSPost2010Prop41ColorIndex
 90
       18
102
RTVSPost2010Prop41ColorRGB
 90
        0
102
RTVSPost2010PropOp41
 70
     1
102
RTVSPost2010Prop42
 90
       50
102
RTVSPost2010PropOp42
 70
     1
102
RTVSPost2010Prop43
 90
        3
102
RTVSPost2010PropOp43
 70
     1
102
RTVSPost2010Prop44ColorIndex
 90
        5
102
RTVSPost2010Prop44ColorRGB
 90
      255
102
RTVSPost2010PropOp44
 70
     1
102
RTVSPost2010Prop45
280
     0
102
RTVSPost2010PropOp45
 70
     1
102
RTVSPost2010Prop46
 90
       50
102
RTVSPost2010PropOp46
 70
     1
102
RTVSPost2010Prop47
 90
       50
102
RTVSPost2010PropOp47
 70
     1
102
RTVSPost2010Prop48
 90
       50
102
RTVSPost2010PropOp48
 70
     1
102
RTVSPost2010Prop49
280
     0
102
RTVSPost2010PropOp49
 70
     1
102
RTVSPost2010Prop50
 90
       50
102
RTVSPost2010PropOp50
 70
     1
102
RTVSPost2010Prop51ColorIndex
 90
      256
102
RTVSPost2010Prop51ColorRGB
 90
-16777216
102
RTVSPost2010PropOp51
 70
     0
102
RTVSPost2010Prop52
140
1.0
102
RTVSPost2010PropOp52
 70
     0
102
RTVSPost2010Prop53
 90
        2
102
RTVSPost2010PropOp53
 70
     1
102
RTVSPost2010Prop54
  1
strokes_ogs.tif
102
RTVSPost2010PropOp54
 70
     1
102
RTVSPost2010Prop55
280
     0
102
RTVSPost2010PropOp55
 70
     1
102
RTVSPost2010Prop56
140
1.0
102
RTVSPost2010PropOp56
 70
     1
102
RTVSPost2010Prop57
140
1.0
102
RTVSPost2010PropOp57
 70
     1
102
RTVSPropertyOp0
 70
     1
102
RTVSPropertyOp1
 70
     1
102
RTVSPropertyOp2
 70
     1
102
RTVSPropertyOp3
 70
     1
102
RTVSPropertyOp4
 70
     1
102
RTVSPropertyOp5
 70
     1
102
RTVSPropertyOp6
 70
     1
102
RTVSPropertyOp7
 70
     1
102
RTVSPropertyOp8
 70
     1
102
RTVSPropertyOp9
 70
     1
102
RTVSPropertyOp10
 70
     1
102
RTVSPropertyOp11
 70
     1
102
RTVSPropertyOp12
 70
     1
102
RTVSPropertyOp13
 70
     1
102
RTVSPropertyOp14
 70
     1
102
RTVSPropertyOp15
 70
     1
102
RTVSPropertyOp16
 70
     1
102
RTVSPropertyOp17
 70
     1
102
RTVSPropertyOp18
 70
     1
102
RTVSPropertyOp19
 70
     1
102
RTVSPropertyOp20
 70
     1
102
RTVSPropertyOp21
 70
     1
102
RTVSPropertyOp22
 70
     1
102
RTVSPropertyOp23
 70
     1
102
RTVSPropertyOp24
 70
     1
102
RTVSPropertyOp25
 70
     1
102
RTVSPropertyOp26
 70
     1
102
RTVSPropertyOp27
 70
     1
102
RTVSPropertyOp28
 70
     1
102
RTVSPropertyOp29
 70
     1
102
RTVSPropertyOp30
 70
     1
102
RTVSPropertyOp31
 70
     1
102
RTVSPropertyOp32
 70
     1
102
RTVSPropertyOp33
 70
     1
102
RTVSPropertyOp34
 70
     1
102
RTVSPropertyOp35
 70
     1
102
RTVSPropertyOp36
 70
     1
102
RTVSPropertyOp37
 70
     1
102
RTVSPropertyOp38
 70
     1
102
RTVSPropertyOp39
 70
     1
102
RTVSPropertyOp40
 70
     1
102
RTVSPropertyOp41
 70
     1
102
RTVSPropertyOp42
 70
     1
102
RTVSPropertyOp43
 70
     1
102
RTVSPropertyOp44
 70
     1
102
RTVSPropertyOp45
 70
     1
102
RTVSPropertyOp46
 70
     1
102
RTVSPropertyOp47
 70
     1
102
RTVSPropertyOp48
 70
     1
102
RTVSPropertyOp49
 70
     1
102
RTVSPropertyOp50
 70
     1
102
RTVSPropertyOp51
 70
     0
102
RTVSPropertyOp52
 70
     0
102
RTVSPropertyOp53
 70
     1
102
RTVSPropertyOp54
 70
     1
102
RTVSPropertyOp55
 70
     1
102
RTVSPropertyOp56
 70
     1
102
RTVSPropertyOp57
 70
     1
102
RTVSPropertyOp58
 70
     1
102
RTVSPropertyOp59
 70
     1
102
RTVSPropertyOp60
 70
     1
102
RTVSPropertyOp61
 70
     1
102
RTVSPropertyOp62
 70
     1
  0
XRECORD
  5
831D
102
{ACAD_REACTORS
330
831C
102
}
330
831C
100
AcDbXrecord
280
     1
102
RTVSPost2010Prop28
280
     0
102
RTVSPost2010PropOp28
 70
     1
102
RTVSPost2010Prop29
280
     1
102
RTVSPost2010PropOp29
 70
     1
102
RTVSPost2010Prop30
280
     1
102
RTVSPost2010PropOp30
 70
     1
102
RTVSPost2010Prop31
280
     0
102
RTVSPost2010PropOp31
 70
     1
102
RTVSPost2010Prop32
280
     0
102
RTVSPost2010PropOp32
 70
     1
102
RTVSPost2010Prop33
280
     0
102
RTVSPost2010PropOp33
 70
     1
102
RTVSPost2010Prop34
280
     0
102
RTVSPost2010PropOp34
 70
     1
102
RTVSPost2010Prop35
280
     0
102
RTVSPost2010PropOp35
 70
     1
102
RTVSPost2010Prop36
280
     0
102
RTVSPost2010PropOp36
 70
     1
102
RTVSPost2010Prop37
 90
       50
102
RTVSPost2010PropOp37
 70
     1
102
RTVSPost2010Prop38
140
0.0
102
RTVSPost2010PropOp38
 70
     1
102
RTVSPost2010Prop39
140
1.0
102
RTVSPost2010PropOp39
 70
     1
102
RTVSPost2010Prop40
 90
        0
102
RTVSPost2010PropOp40
 70
     1
102
RTVSPost2010Prop41ColorIndex
 90
       18
102
RTVSPost2010Prop41ColorRGB
 90
        0
102
RTVSPost2010PropOp41
 70
     1
102
RTVSPost2010Prop42
 90
       50
102
RTVSPost2010PropOp42
 70
     1
102
RTVSPost2010Prop43
 90
        3
102
RTVSPost2010PropOp43
 70
     1
102
RTVSPost2010Prop44ColorIndex
 90
        5
102
RTVSPost2010Prop44ColorRGB
 90
      255
102
RTVSPost2010PropOp44
 70
     1
102
RTVSPost2010Prop45
280
     0
102
RTVSPost2010PropOp45
 70
     1
102
RTVSPost2010Prop46
 90
       50
102
RTVSPost2010PropOp46
 70
     1
102
RTVSPost2010Prop47
 90
       50
102
RTVSPost2010PropOp47
 70
     1
102
RTVSPost2010Prop48
 90
       50
102
RTVSPost2010PropOp48
 70
     1
102
RTVSPost2010Prop49
280
     0
102
RTVSPost2010PropOp49
 70
     1
102
RTVSPost2010Prop50
 90
       50
102
RTVSPost2010PropOp50
 70
     1
102
RTVSPost2010Prop51ColorIndex
 90
      256
102
RTVSPost2010Prop51ColorRGB
 90
-16777216
102
RTVSPost2010PropOp51
 70
     0
102
RTVSPost2010Prop52
140
1.0
102
RTVSPost2010PropOp52
 70
     0
102
RTVSPost2010Prop53
 90
        2
102
RTVSPost2010PropOp53
 70
     1
102
RTVSPost2010Prop54
  1
strokes_ogs.tif
102
RTVSPost2010PropOp54
 70
     1
102
RTVSPost2010Prop55
280
     0
102
RTVSPost2010PropOp55
 70
     1
102
RTVSPost2010Prop56
140
1.0
102
RTVSPost2010PropOp56
 70
     1
102
RTVSPost2010Prop57
140
1.0
102
RTVSPost2010PropOp57
 70
     1
102
RTVSPropertyOp0
 70
     1
102
RTVSPropertyOp1
 70
     1
102
RTVSPropertyOp2
 70
     1
102
RTVSPropertyOp3
 70
     1
102
RTVSPropertyOp4
 70
     1
102
RTVSPropertyOp5
 70
     1
102
RTVSPropertyOp6
 70
     1
102
RTVSPropertyOp7
 70
     1
102
RTVSPropertyOp8
 70
     1
102
RTVSPropertyOp9
 70
     1
102
RTVSPropertyOp10
 70
     1
102
RTVSPropertyOp11
 70
     1
102
RTVSPropertyOp12
 70
     1
102
RTVSPropertyOp13
 70
     1
102
RTVSPropertyOp14
 70
     1
102
RTVSPropertyOp15
 70
     1
102
RTVSPropertyOp16
 70
     1
102
RTVSPropertyOp17
 70
     1
102
RTVSPropertyOp18
 70
     1
102
RTVSPropertyOp19
 70
     1
102
RTVSPropertyOp20
 70
     1
102
RTVSPropertyOp21
 70
     1
102
RTVSPropertyOp22
 70
     1
102
RTVSPropertyOp23
 70
     1
102
RTVSPropertyOp24
 70
     1
102
RTVSPropertyOp25
 70
     1
102
RTVSPropertyOp26
 70
     1
102
RTVSPropertyOp27
 70
     1
102
RTVSPropertyOp28
 70
     1
102
RTVSPropertyOp29
 70
     1
102
RTVSPropertyOp30
 70
     1
102
RTVSPropertyOp31
 70
     1
102
RTVSPropertyOp32
 70
     1
102
RTVSPropertyOp33
 70
     1
102
RTVSPropertyOp34
 70
     1
102
RTVSPropertyOp35
 70
     1
102
RTVSPropertyOp36
 70
     1
102
RTVSPropertyOp37
 70
     1
102
RTVSPropertyOp38
 70
     1
102
RTVSPropertyOp39
 70
     1
102
RTVSPropertyOp40
 70
     1
102
RTVSPropertyOp41
 70
     1
102
RTVSPropertyOp42
 70
     1
102
RTVSPropertyOp43
 70
     1
102
RTVSPropertyOp44
 70
     1
102
RTVSPropertyOp45
 70
     1
102
RTVSPropertyOp46
 70
     1
102
RTVSPropertyOp47
 70
     1
102
RTVSPropertyOp48
 70
     1
102
RTVSPropertyOp49
 70
     1
102
RTVSPropertyOp50
 70
     1
102
RTVSPropertyOp51
 70
     0
102
RTVSPropertyOp52
 70
     0
102
RTVSPropertyOp53
 70
     1
102
RTVSPropertyOp54
 70
     1
102
RTVSPropertyOp55
 70
     1
102
RTVSPropertyOp56
 70
     1
102
RTVSPropertyOp57
 70
     1
102
RTVSPropertyOp58
 70
     1
102
RTVSPropertyOp59
 70
     1
102
RTVSPropertyOp60
 70
     1
102
RTVSPropertyOp61
 70
     1
102
RTVSPropertyOp62
 70
     1
  0
XRECORD
  5
830F
102
{ACAD_REACTORS
330
830E
102
}
330
830E
100
AcDbXrecord
280
     1
102
RTVSPost2010Prop28
280
     0
102
RTVSPost2010PropOp28
 70
     1
102
RTVSPost2010Prop29
280
     1
102
RTVSPost2010PropOp29
 70
     1
102
RTVSPost2010Prop30
280
     1
102
RTVSPost2010PropOp30
 70
     1
102
RTVSPost2010Prop31
280
     0
102
RTVSPost2010PropOp31
 70
     1
102
RTVSPost2010Prop32
280
     0
102
RTVSPost2010PropOp32
 70
     1
102
RTVSPost2010Prop33
280
     0
102
RTVSPost2010PropOp33
 70
     1
102
RTVSPost2010Prop34
280
     0
102
RTVSPost2010PropOp34
 70
     1
102
RTVSPost2010Prop35
280
     0
102
RTVSPost2010PropOp35
 70
     1
102
RTVSPost2010Prop36
280
     0
102
RTVSPost2010PropOp36
 70
     1
102
RTVSPost2010Prop37
 90
       50
102
RTVSPost2010PropOp37
 70
     1
102
RTVSPost2010Prop38
140
0.0
102
RTVSPost2010PropOp38
 70
     1
102
RTVSPost2010Prop39
140
1.0
102
RTVSPost2010PropOp39
 70
     1
102
RTVSPost2010Prop40
 90
        0
102
RTVSPost2010PropOp40
 70
     1
102
RTVSPost2010Prop41ColorIndex
 90
       18
102
RTVSPost2010Prop41ColorRGB
 90
        0
102
RTVSPost2010PropOp41
 70
     1
102
RTVSPost2010Prop42
 90
       50
102
RTVSPost2010PropOp42
 70
     1
102
RTVSPost2010Prop43
 90
        3
102
RTVSPost2010PropOp43
 70
     1
102
RTVSPost2010Prop44ColorIndex
 90
        5
102
RTVSPost2010Prop44ColorRGB
 90
      255
102
RTVSPost2010PropOp44
 70
     1
102
RTVSPost2010Prop45
280
     0
102
RTVSPost2010PropOp45
 70
     1
102
RTVSPost2010Prop46
 90
       50
102
RTVSPost2010PropOp46
 70
     1
102
RTVSPost2010Prop47
 90
       50
102
RTVSPost2010PropOp47
 70
     1
102
RTVSPost2010Prop48
 90
       50
102
RTVSPost2010PropOp48
 70
     1
102
RTVSPost2010Prop49
280
     0
102
RTVSPost2010PropOp49
 70
     1
102
RTVSPost2010Prop50
 90
       50
102
RTVSPost2010PropOp50
 70
     1
102
RTVSPost2010Prop51ColorIndex
 90
      256
102
RTVSPost2010Prop51ColorRGB
 90
-16777216
102
RTVSPost2010PropOp51
 70
     0
102
RTVSPost2010Prop52
140
1.0
102
RTVSPost2010PropOp52
 70
     0
102
RTVSPost2010Prop53
 90
        2
102
RTVSPost2010PropOp53
 70
     1
102
RTVSPost2010Prop54
  1
strokes_ogs.tif
102
RTVSPost2010PropOp54
 70
     1
102
RTVSPost2010Prop55
280
     0
102
RTVSPost2010PropOp55
 70
     1
102
RTVSPost2010Prop56
140
1.0
102
RTVSPost2010PropOp56
 70
     1
102
RTVSPost2010Prop57
140
1.0
102
RTVSPost2010PropOp57
 70
     1
102
RTVSPropertyOp0
 70
     1
102
RTVSPropertyOp1
 70
     1
102
RTVSPropertyOp2
 70
     1
102
RTVSPropertyOp3
 70
     1
102
RTVSPropertyOp4
 70
     1
102
RTVSPropertyOp5
 70
     1
102
RTVSPropertyOp6
 70
     1
102
RTVSPropertyOp7
 70
     1
102
RTVSPropertyOp8
 70
     1
102
RTVSPropertyOp9
 70
     1
102
RTVSPropertyOp10
 70
     1
102
RTVSPropertyOp11
 70
     1
102
RTVSPropertyOp12
 70
     1
102
RTVSPropertyOp13
 70
     1
102
RTVSPropertyOp14
 70
     1
102
RTVSPropertyOp15
 70
     1
102
RTVSPropertyOp16
 70
     1
102
RTVSPropertyOp17
 70
     1
102
RTVSPropertyOp18
 70
     1
102
RTVSPropertyOp19
 70
     1
102
RTVSPropertyOp20
 70
     1
102
RTVSPropertyOp21
 70
     1
102
RTVSPropertyOp22
 70
     1
102
RTVSPropertyOp23
 70
     1
102
RTVSPropertyOp24
 70
     1
102
RTVSPropertyOp25
 70
     1
102
RTVSPropertyOp26
 70
     1
102
RTVSPropertyOp27
 70
     1
102
RTVSPropertyOp28
 70
     1
102
RTVSPropertyOp29
 70
     1
102
RTVSPropertyOp30
 70
     1
102
RTVSPropertyOp31
 70
     1
102
RTVSPropertyOp32
 70
     1
102
RTVSPropertyOp33
 70
     1
102
RTVSPropertyOp34
 70
     1
102
RTVSPropertyOp35
 70
     1
102
RTVSPropertyOp36
 70
     1
102
RTVSPropertyOp37
 70
     1
102
RTVSPropertyOp38
 70
     1
102
RTVSPropertyOp39
 70
     1
102
RTVSPropertyOp40
 70
     1
102
RTVSPropertyOp41
 70
     1
102
RTVSPropertyOp42
 70
     1
102
RTVSPropertyOp43
 70
     1
102
RTVSPropertyOp44
 70
     1
102
RTVSPropertyOp45
 70
     1
102
RTVSPropertyOp46
 70
     1
102
RTVSPropertyOp47
 70
     1
102
RTVSPropertyOp48
 70
     1
102
RTVSPropertyOp49
 70
     1
102
RTVSPropertyOp50
 70
     1
102
RTVSPropertyOp51
 70
     0
102
RTVSPropertyOp52
 70
     0
102
RTVSPropertyOp53
 70
     1
102
RTVSPropertyOp54
 70
     1
102
RTVSPropertyOp55
 70
     1
102
RTVSPropertyOp56
 70
     1
102
RTVSPropertyOp57
 70
     1
102
RTVSPropertyOp58
 70
     1
102
RTVSPropertyOp59
 70
     1
102
RTVSPropertyOp60
 70
     1
102
RTVSPropertyOp61
 70
     1
102
RTVSPropertyOp62
 70
     1
  0
XRECORD
  5
8313
102
{ACAD_REACTORS
330
8312
102
}
330
8312
100
AcDbXrecord
280
     1
102
RTVSPost2010Prop28
280
     0
102
RTVSPost2010PropOp28
 70
     1
102
RTVSPost2010Prop29
280
     1
102
RTVSPost2010PropOp29
 70
     1
102
RTVSPost2010Prop30
280
     1
102
RTVSPost2010PropOp30
 70
     1
102
RTVSPost2010Prop31
280
     0
102
RTVSPost2010PropOp31
 70
     1
102
RTVSPost2010Prop32
280
     0
102
RTVSPost2010PropOp32
 70
     1
102
RTVSPost2010Prop33
280
     0
102
RTVSPost2010PropOp33
 70
     1
102
RTVSPost2010Prop34
280
     0
102
RTVSPost2010PropOp34
 70
     1
102
RTVSPost2010Prop35
280
     0
102
RTVSPost2010PropOp35
 70
     1
102
RTVSPost2010Prop36
280
     0
102
RTVSPost2010PropOp36
 70
     1
102
RTVSPost2010Prop37
 90
       50
102
RTVSPost2010PropOp37
 70
     1
102
RTVSPost2010Prop38
140
0.0
102
RTVSPost2010PropOp38
 70
     1
102
RTVSPost2010Prop39
140
1.0
102
RTVSPost2010PropOp39
 70
     1
102
RTVSPost2010Prop40
 90
        0
102
RTVSPost2010PropOp40
 70
     1
102
RTVSPost2010Prop41ColorIndex
 90
       18
102
RTVSPost2010Prop41ColorRGB
 90
        0
102
RTVSPost2010PropOp41
 70
     1
102
RTVSPost2010Prop42
 90
       50
102
RTVSPost2010PropOp42
 70
     1
102
RTVSPost2010Prop43
 90
        3
102
RTVSPost2010PropOp43
 70
     1
102
RTVSPost2010Prop44ColorIndex
 90
        5
102
RTVSPost2010Prop44ColorRGB
 90
      255
102
RTVSPost2010PropOp44
 70
     1
102
RTVSPost2010Prop45
280
     0
102
RTVSPost2010PropOp45
 70
     1
102
RTVSPost2010Prop46
 90
       50
102
RTVSPost2010PropOp46
 70
     1
102
RTVSPost2010Prop47
 90
       50
102
RTVSPost2010PropOp47
 70
     1
102
RTVSPost2010Prop48
 90
       50
102
RTVSPost2010PropOp48
 70
     1
102
RTVSPost2010Prop49
280
     0
102
RTVSPost2010PropOp49
 70
     1
102
RTVSPost2010Prop50
 90
       50
102
RTVSPost2010PropOp50
 70
     1
102
RTVSPost2010Prop51ColorIndex
 90
      256
102
RTVSPost2010Prop51ColorRGB
 90
-16777216
102
RTVSPost2010PropOp51
 70
     0
102
RTVSPost2010Prop52
140
1.0
102
RTVSPost2010PropOp52
 70
     0
102
RTVSPost2010Prop53
 90
        2
102
RTVSPost2010PropOp53
 70
     1
102
RTVSPost2010Prop54
  1
strokes_ogs.tif
102
RTVSPost2010PropOp54
 70
     1
102
RTVSPost2010Prop55
280
     0
102
RTVSPost2010PropOp55
 70
     1
102
RTVSPost2010Prop56
140
1.0
102
RTVSPost2010PropOp56
 70
     1
102
RTVSPost2010Prop57
140
1.0
102
RTVSPost2010PropOp57
 70
     1
102
RTVSPropertyOp0
 70
     1
102
RTVSPropertyOp1
 70
     1
102
RTVSPropertyOp2
 70
     1
102
RTVSPropertyOp3
 70
     1
102
RTVSPropertyOp4
 70
     1
102
RTVSPropertyOp5
 70
     1
102
RTVSPropertyOp6
 70
     1
102
RTVSPropertyOp7
 70
     1
102
RTVSPropertyOp8
 70
     1
102
RTVSPropertyOp9
 70
     1
102
RTVSPropertyOp10
 70
     1
102
RTVSPropertyOp11
 70
     1
102
RTVSPropertyOp12
 70
     1
102
RTVSPropertyOp13
 70
     1
102
RTVSPropertyOp14
 70
     1
102
RTVSPropertyOp15
 70
     1
102
RTVSPropertyOp16
 70
     1
102
RTVSPropertyOp17
 70
     1
102
RTVSPropertyOp18
 70
     1
102
RTVSPropertyOp19
 70
     1
102
RTVSPropertyOp20
 70
     1
102
RTVSPropertyOp21
 70
     1
102
RTVSPropertyOp22
 70
     1
102
RTVSPropertyOp23
 70
     1
102
RTVSPropertyOp24
 70
     1
102
RTVSPropertyOp25
 70
     1
102
RTVSPropertyOp26
 70
     1
102
RTVSPropertyOp27
 70
     1
102
RTVSPropertyOp28
 70
     1
102
RTVSPropertyOp29
 70
     1
102
RTVSPropertyOp30
 70
     1
102
RTVSPropertyOp31
 70
     1
102
RTVSPropertyOp32
 70
     1
102
RTVSPropertyOp33
 70
     1
102
RTVSPropertyOp34
 70
     1
102
RTVSPropertyOp35
 70
     1
102
RTVSPropertyOp36
 70
     1
102
RTVSPropertyOp37
 70
     1
102
RTVSPropertyOp38
 70
     1
102
RTVSPropertyOp39
 70
     1
102
RTVSPropertyOp40
 70
     1
102
RTVSPropertyOp41
 70
     1
102
RTVSPropertyOp42
 70
     1
102
RTVSPropertyOp43
 70
     1
102
RTVSPropertyOp44
 70
     1
102
RTVSPropertyOp45
 70
     1
102
RTVSPropertyOp46
 70
     1
102
RTVSPropertyOp47
 70
     1
102
RTVSPropertyOp48
 70
     1
102
RTVSPropertyOp49
 70
     1
102
RTVSPropertyOp50
 70
     1
102
RTVSPropertyOp51
 70
     0
102
RTVSPropertyOp52
 70
     0
102
RTVSPropertyOp53
 70
     1
102
RTVSPropertyOp54
 70
     1
102
RTVSPropertyOp55
 70
     1
102
RTVSPropertyOp56
 70
     1
102
RTVSPropertyOp57
 70
     1
102
RTVSPropertyOp58
 70
     1
102
RTVSPropertyOp59
 70
     1
102
RTVSPropertyOp60
 70
     1
102
RTVSPropertyOp61
 70
     1
102
RTVSPropertyOp62
 70
     1
  0
XRECORD
  5
8323
102
{ACAD_REACTORS
330
8322
102
}
330
8322
100
AcDbXrecord
280
     1
102
RTVSPost2010Prop28
280
     0
102
RTVSPost2010PropOp28
 70
     1
102
RTVSPost2010Prop29
280
     1
102
RTVSPost2010PropOp29
 70
     1
102
RTVSPost2010Prop30
280
     1
102
RTVSPost2010PropOp30
 70
     1
102
RTVSPost2010Prop31
280
     0
102
RTVSPost2010PropOp31
 70
     1
102
RTVSPost2010Prop32
280
     0
102
RTVSPost2010PropOp32
 70
     1
102
RTVSPost2010Prop33
280
     0
102
RTVSPost2010PropOp33
 70
     1
102
RTVSPost2010Prop34
280
     0
102
RTVSPost2010PropOp34
 70
     1
102
RTVSPost2010Prop35
280
     0
102
RTVSPost2010PropOp35
 70
     1
102
RTVSPost2010Prop36
280
     0
102
RTVSPost2010PropOp36
 70
     1
102
RTVSPost2010Prop37
 90
       50
102
RTVSPost2010PropOp37
 70
     1
102
RTVSPost2010Prop38
140
0.0
102
RTVSPost2010PropOp38
 70
     1
102
RTVSPost2010Prop39
140
1.0
102
RTVSPost2010PropOp39
 70
     1
102
RTVSPost2010Prop40
 90
        0
102
RTVSPost2010PropOp40
 70
     1
102
RTVSPost2010Prop41ColorIndex
 90
       18
102
RTVSPost2010Prop41ColorRGB
 90
        0
102
RTVSPost2010PropOp41
 70
     1
102
RTVSPost2010Prop42
 90
       50
102
RTVSPost2010PropOp42
 70
     1
102
RTVSPost2010Prop43
 90
        3
102
RTVSPost2010PropOp43
 70
     1
102
RTVSPost2010Prop44ColorIndex
 90
        5
102
RTVSPost2010Prop44ColorRGB
 90
      255
102
RTVSPost2010PropOp44
 70
     1
102
RTVSPost2010Prop45
280
     0
102
RTVSPost2010PropOp45
 70
     1
102
RTVSPost2010Prop46
 90
       50
102
RTVSPost2010PropOp46
 70
     1
102
RTVSPost2010Prop47
 90
       50
102
RTVSPost2010PropOp47
 70
     1
102
RTVSPost2010Prop48
 90
       50
102
RTVSPost2010PropOp48
 70
     1
102
RTVSPost2010Prop49
280
     0
102
RTVSPost2010PropOp49
 70
     1
102
RTVSPost2010Prop50
 90
       50
102
RTVSPost2010PropOp50
 70
     1
102
RTVSPost2010Prop51ColorIndex
 90
      256
102
RTVSPost2010Prop51ColorRGB
 90
-16777216
102
RTVSPost2010PropOp51
 70
     0
102
RTVSPost2010Prop52
140
1.0
102
RTVSPost2010PropOp52
 70
     0
102
RTVSPost2010Prop53
 90
        2
102
RTVSPost2010PropOp53
 70
     1
102
RTVSPost2010Prop54
  1
strokes_ogs.tif
102
RTVSPost2010PropOp54
 70
     1
102
RTVSPost2010Prop55
280
     0
102
RTVSPost2010PropOp55
 70
     1
102
RTVSPost2010Prop56
140
1.0
102
RTVSPost2010PropOp56
 70
     1
102
RTVSPost2010Prop57
140
1.0
102
RTVSPost2010PropOp57
 70
     1
102
RTVSPropertyOp0
 70
     0
102
RTVSPropertyOp1
 70
     0
102
RTVSPropertyOp2
 70
     0
102
RTVSPropertyOp3
 70
     0
102
RTVSPropertyOp4
 70
     0
102
RTVSPropertyOp5
 70
     0
102
RTVSPropertyOp6
 70
     0
102
RTVSPropertyOp7
 70
     0
102
RTVSPropertyOp8
 70
     0
102
RTVSPropertyOp9
 70
     0
102
RTVSPropertyOp10
 70
     0
102
RTVSPropertyOp11
 70
     0
102
RTVSPropertyOp12
 70
     0
102
RTVSPropertyOp13
 70
     0
102
RTVSPropertyOp14
 70
     2
102
RTVSPropertyOp15
 70
     0
102
RTVSPropertyOp16
 70
     0
102
RTVSPropertyOp17
 70
     0
102
RTVSPropertyOp18
 70
     0
102
RTVSPropertyOp19
 70
     0
102
RTVSPropertyOp20
 70
     0
102
RTVSPropertyOp21
 70
     0
102
RTVSPropertyOp22
 70
     0
102
RTVSPropertyOp23
 70
     0
102
RTVSPropertyOp24
 70
     0
102
RTVSPropertyOp25
 70
     0
102
RTVSPropertyOp26
 70
     0
102
RTVSPropertyOp27
 70
     0
102
RTVSPropertyOp28
 70
     1
102
RTVSPropertyOp29
 70
     1
102
RTVSPropertyOp30
 70
     1
102
RTVSPropertyOp31
 70
     1
102
RTVSPropertyOp32
 70
     1
102
RTVSPropertyOp33
 70
     1
102
RTVSPropertyOp34
 70
     1
102
RTVSPropertyOp35
 70
     1
102
RTVSPropertyOp36
 70
     1
102
RTVSPropertyOp37
 70
     1
102
RTVSPropertyOp38
 70
     1
102
RTVSPropertyOp39
 70
     1
102
RTVSPropertyOp40
 70
     1
102
RTVSPropertyOp41
 70
     1
102
RTVSPropertyOp42
 70
     1
102
RTVSPropertyOp43
 70
     1
102
RTVSPropertyOp44
 70
     1
102
RTVSPropertyOp45
 70
     1
102
RTVSPropertyOp46
 70
     1
102
RTVSPropertyOp47
 70
     1
102
RTVSPropertyOp48
 70
     1
102
RTVSPropertyOp49
 70
     1
102
RTVSPropertyOp50
 70
     1
102
RTVSPropertyOp51
 70
     0
102
RTVSPropertyOp52
 70
     0
102
RTVSPropertyOp53
 70
     1
102
RTVSPropertyOp54
 70
     1
102
RTVSPropertyOp55
 70
     1
102
RTVSPropertyOp56
 70
     1
102
RTVSPropertyOp57
 70
     1
102
RTVSPropertyOp58
 70
     1
102
RTVSPropertyOp59
 70
     1
102
RTVSPropertyOp60
 70
     1
102
RTVSPropertyOp61
 70
     1
102
RTVSPropertyOp62
 70
     1
  0
XRECORD
  5
831B
102
{ACAD_REACTORS
330
831A
102
}
330
831A
100
AcDbXrecord
280
     1
102
RTVSPost2010Prop28
280
     0
102
RTVSPost2010PropOp28
 70
     1
102
RTVSPost2010Prop29
280
     1
102
RTVSPost2010PropOp29
 70
     1
102
RTVSPost2010Prop30
280
     1
102
RTVSPost2010PropOp30
 70
     1
102
RTVSPost2010Prop31
280
     0
102
RTVSPost2010PropOp31
 70
     1
102
RTVSPost2010Prop32
280
     0
102
RTVSPost2010PropOp32
 70
     1
102
RTVSPost2010Prop33
280
     0
102
RTVSPost2010PropOp33
 70
     1
102
RTVSPost2010Prop34
280
     0
102
RTVSPost2010PropOp34
 70
     1
102
RTVSPost2010Prop35
280
     0
102
RTVSPost2010PropOp35
 70
     1
102
RTVSPost2010Prop36
280
     0
102
RTVSPost2010PropOp36
 70
     1
102
RTVSPost2010Prop37
 90
       50
102
RTVSPost2010PropOp37
 70
     1
102
RTVSPost2010Prop38
140
0.0
102
RTVSPost2010PropOp38
 70
     1
102
RTVSPost2010Prop39
140
1.0
102
RTVSPost2010PropOp39
 70
     1
102
RTVSPost2010Prop40
 90
        0
102
RTVSPost2010PropOp40
 70
     1
102
RTVSPost2010Prop41ColorIndex
 90
       18
102
RTVSPost2010Prop41ColorRGB
 90
        0
102
RTVSPost2010PropOp41
 70
     1
102
RTVSPost2010Prop42
 90
       50
102
RTVSPost2010PropOp42
 70
     1
102
RTVSPost2010Prop43
 90
        3
102
RTVSPost2010PropOp43
 70
     1
102
RTVSPost2010Prop44ColorIndex
 90
        5
102
RTVSPost2010Prop44ColorRGB
 90
      255
102
RTVSPost2010PropOp44
 70
     1
102
RTVSPost2010Prop45
280
     0
102
RTVSPost2010PropOp45
 70
     1
102
RTVSPost2010Prop46
 90
       50
102
RTVSPost2010PropOp46
 70
     1
102
RTVSPost2010Prop47
 90
       50
102
RTVSPost2010PropOp47
 70
     1
102
RTVSPost2010Prop48
 90
       50
102
RTVSPost2010PropOp48
 70
     1
102
RTVSPost2010Prop49
280
     0
102
RTVSPost2010PropOp49
 70
     1
102
RTVSPost2010Prop50
 90
       50
102
RTVSPost2010PropOp50
 70
     1
102
RTVSPost2010Prop51ColorIndex
 90
      256
102
RTVSPost2010Prop51ColorRGB
 90
-16777216
102
RTVSPost2010PropOp51
 70
     0
102
RTVSPost2010Prop52
140
1.0
102
RTVSPost2010PropOp52
 70
     0
102
RTVSPost2010Prop53
 90
        2
102
RTVSPost2010PropOp53
 70
     1
102
RTVSPost2010Prop54
  1
strokes_ogs.tif
102
RTVSPost2010PropOp54
 70
     1
102
RTVSPost2010Prop55
280
     0
102
RTVSPost2010PropOp55
 70
     1
102
RTVSPost2010Prop56
140
1.0
102
RTVSPost2010PropOp56
 70
     1
102
RTVSPost2010Prop57
140
1.0
102
RTVSPost2010PropOp57
 70
     1
102
RTVSPropertyOp0
 70
     1
102
RTVSPropertyOp1
 70
     1
102
RTVSPropertyOp2
 70
     1
102
RTVSPropertyOp3
 70
     1
102
RTVSPropertyOp4
 70
     1
102
RTVSPropertyOp5
 70
     1
102
RTVSPropertyOp6
 70
     1
102
RTVSPropertyOp7
 70
     1
102
RTVSPropertyOp8
 70
     1
102
RTVSPropertyOp9
 70
     1
102
RTVSPropertyOp10
 70
     1
102
RTVSPropertyOp11
 70
     1
102
RTVSPropertyOp12
 70
     1
102
RTVSPropertyOp13
 70
     1
102
RTVSPropertyOp14
 70
     1
102
RTVSPropertyOp15
 70
     1
102
RTVSPropertyOp16
 70
     1
102
RTVSPropertyOp17
 70
     1
102
RTVSPropertyOp18
 70
     1
102
RTVSPropertyOp19
 70
     1
102
RTVSPropertyOp20
 70
     1
102
RTVSPropertyOp21
 70
     1
102
RTVSPropertyOp22
 70
     1
102
RTVSPropertyOp23
 70
     1
102
RTVSPropertyOp24
 70
     1
102
RTVSPropertyOp25
 70
     1
102
RTVSPropertyOp26
 70
     1
102
RTVSPropertyOp27
 70
     1
102
RTVSPropertyOp28
 70
     1
102
RTVSPropertyOp29
 70
     1
102
RTVSPropertyOp30
 70
     1
102
RTVSPropertyOp31
 70
     1
102
RTVSPropertyOp32
 70
     1
102
RTVSPropertyOp33
 70
     1
102
RTVSPropertyOp34
 70
     1
102
RTVSPropertyOp35
 70
     1
102
RTVSPropertyOp36
 70
     1
102
RTVSPropertyOp37
 70
     1
102
RTVSPropertyOp38
 70
     1
102
RTVSPropertyOp39
 70
     1
102
RTVSPropertyOp40
 70
     1
102
RTVSPropertyOp41
 70
     1
102
RTVSPropertyOp42
 70
     1
102
RTVSPropertyOp43
 70
     1
102
RTVSPropertyOp44
 70
     1
102
RTVSPropertyOp45
 70
     1
102
RTVSPropertyOp46
 70
     1
102
RTVSPropertyOp47
 70
     1
102
RTVSPropertyOp48
 70
     1
102
RTVSPropertyOp49
 70
     1
102
RTVSPropertyOp50
 70
     1
102
RTVSPropertyOp51
 70
     0
102
RTVSPropertyOp52
 70
     0
102
RTVSPropertyOp53
 70
     1
102
RTVSPropertyOp54
 70
     1
102
RTVSPropertyOp55
 70
     1
102
RTVSPropertyOp56
 70
     1
102
RTVSPropertyOp57
 70
     1
102
RTVSPropertyOp58
 70
     1
102
RTVSPropertyOp59
 70
     1
102
RTVSPropertyOp60
 70
     1
102
RTVSPropertyOp61
 70
     1
102
RTVSPropertyOp62
 70
     1
  0
XRECORD
  5
82FF
102
{ACAD_REACTORS
330
82FE
102
}
330
82FE
100
AcDbXrecord
280
     1
102
RTVSPost2010Prop28
280
     0
102
RTVSPost2010PropOp28
 70
     1
102
RTVSPost2010Prop29
280
     1
102
RTVSPost2010PropOp29
 70
     1
102
RTVSPost2010Prop30
280
     1
102
RTVSPost2010PropOp30
 70
     1
102
RTVSPost2010Prop31
280
     0
102
RTVSPost2010PropOp31
 70
     1
102
RTVSPost2010Prop32
280
     0
102
RTVSPost2010PropOp32
 70
     1
102
RTVSPost2010Prop33
280
     0
102
RTVSPost2010PropOp33
 70
     1
102
RTVSPost2010Prop34
280
     0
102
RTVSPost2010PropOp34
 70
     1
102
RTVSPost2010Prop35
280
     0
102
RTVSPost2010PropOp35
 70
     1
102
RTVSPost2010Prop36
280
     0
102
RTVSPost2010PropOp36
 70
     1
102
RTVSPost2010Prop37
 90
       50
102
RTVSPost2010PropOp37
 70
     1
102
RTVSPost2010Prop38
140
0.0
102
RTVSPost2010PropOp38
 70
     1
102
RTVSPost2010Prop39
140
1.0
102
RTVSPost2010PropOp39
 70
     1
102
RTVSPost2010Prop40
 90
        0
102
RTVSPost2010PropOp40
 70
     1
102
RTVSPost2010Prop41ColorIndex
 90
       18
102
RTVSPost2010Prop41ColorRGB
 90
        0
102
RTVSPost2010PropOp41
 70
     1
102
RTVSPost2010Prop42
 90
       50
102
RTVSPost2010PropOp42
 70
     1
102
RTVSPost2010Prop43
 90
        3
102
RTVSPost2010PropOp43
 70
     1
102
RTVSPost2010Prop44ColorIndex
 90
        5
102
RTVSPost2010Prop44ColorRGB
 90
      255
102
RTVSPost2010PropOp44
 70
     1
102
RTVSPost2010Prop45
280
     0
102
RTVSPost2010PropOp45
 70
     1
102
RTVSPost2010Prop46
 90
       50
102
RTVSPost2010PropOp46
 70
     1
102
RTVSPost2010Prop47
 90
       50
102
RTVSPost2010PropOp47
 70
     1
102
RTVSPost2010Prop48
 90
       50
102
RTVSPost2010PropOp48
 70
     1
102
RTVSPost2010Prop49
280
     0
102
RTVSPost2010PropOp49
 70
     1
102
RTVSPost2010Prop50
 90
       50
102
RTVSPost2010PropOp50
 70
     1
102
RTVSPost2010Prop51ColorIndex
 90
      256
102
RTVSPost2010Prop51ColorRGB
 90
-16777216
102
RTVSPost2010PropOp51
 70
     0
102
RTVSPost2010Prop52
140
1.0
102
RTVSPost2010PropOp52
 70
     0
102
RTVSPost2010Prop53
 90
        2
102
RTVSPost2010PropOp53
 70
     1
102
RTVSPost2010Prop54
  1
strokes_ogs.tif
102
RTVSPost2010PropOp54
 70
     1
102
RTVSPost2010Prop55
280
     0
102
RTVSPost2010PropOp55
 70
     1
102
RTVSPost2010Prop56
140
1.0
102
RTVSPost2010PropOp56
 70
     1
102
RTVSPost2010Prop57
140
1.0
102
RTVSPost2010PropOp57
 70
     1
102
RTVSPropertyOp0
 70
     1
102
RTVSPropertyOp1
 70
     1
102
RTVSPropertyOp2
 70
     1
102
RTVSPropertyOp3
 70
     1
102
RTVSPropertyOp4
 70
     1
102
RTVSPropertyOp5
 70
     1
102
RTVSPropertyOp6
 70
     1
102
RTVSPropertyOp7
 70
     1
102
RTVSPropertyOp8
 70
     1
102
RTVSPropertyOp9
 70
     1
102
RTVSPropertyOp10
 70
     1
102
RTVSPropertyOp11
 70
     1
102
RTVSPropertyOp12
 70
     1
102
RTVSPropertyOp13
 70
     1
102
RTVSPropertyOp14
 70
     1
102
RTVSPropertyOp15
 70
     1
102
RTVSPropertyOp16
 70
     1
102
RTVSPropertyOp17
 70
     1
102
RTVSPropertyOp18
 70
     1
102
RTVSPropertyOp19
 70
     1
102
RTVSPropertyOp20
 70
     1
102
RTVSPropertyOp21
 70
     1
102
RTVSPropertyOp22
 70
     1
102
RTVSPropertyOp23
 70
     1
102
RTVSPropertyOp24
 70
     1
102
RTVSPropertyOp25
 70
     1
102
RTVSPropertyOp26
 70
     1
102
RTVSPropertyOp27
 70
     1
102
RTVSPropertyOp28
 70
     1
102
RTVSPropertyOp29
 70
     1
102
RTVSPropertyOp30
 70
     1
102
RTVSPropertyOp31
 70
     1
102
RTVSPropertyOp32
 70
     1
102
RTVSPropertyOp33
 70
     1
102
RTVSPropertyOp34
 70
     1
102
RTVSPropertyOp35
 70
     1
102
RTVSPropertyOp36
 70
     1
102
RTVSPropertyOp37
 70
     1
102
RTVSPropertyOp38
 70
     1
102
RTVSPropertyOp39
 70
     1
102
RTVSPropertyOp40
 70
     1
102
RTVSPropertyOp41
 70
     1
102
RTVSPropertyOp42
 70
     1
102
RTVSPropertyOp43
 70
     1
102
RTVSPropertyOp44
 70
     1
102
RTVSPropertyOp45
 70
     1
102
RTVSPropertyOp46
 70
     1
102
RTVSPropertyOp47
 70
     1
102
RTVSPropertyOp48
 70
     1
102
RTVSPropertyOp49
 70
     1
102
RTVSPropertyOp50
 70
     1
102
RTVSPropertyOp51
 70
     0
102
RTVSPropertyOp52
 70
     0
102
RTVSPropertyOp53
 70
     1
102
RTVSPropertyOp54
 70
     1
102
RTVSPropertyOp55
 70
     1
102
RTVSPropertyOp56
 70
     1
102
RTVSPropertyOp57
 70
     1
102
RTVSPropertyOp58
 70
     1
102
RTVSPropertyOp59
 70
     1
102
RTVSPropertyOp60
 70
     1
102
RTVSPropertyOp61
 70
     1
102
RTVSPropertyOp62
 70
     1
  0
XRECORD
  5
8301
102
{ACAD_REACTORS
330
8300
102
}
330
8300
100
AcDbXrecord
280
     1
102
RTVSPost2010Prop28
280
     0
102
RTVSPost2010PropOp28
 70
     1
102
RTVSPost2010Prop29
280
     1
102
RTVSPost2010PropOp29
 70
     1
102
RTVSPost2010Prop30
280
     1
102
RTVSPost2010PropOp30
 70
     1
102
RTVSPost2010Prop31
280
     0
102
RTVSPost2010PropOp31
 70
     1
102
RTVSPost2010Prop32
280
     0
102
RTVSPost2010PropOp32
 70
     1
102
RTVSPost2010Prop33
280
     0
102
RTVSPost2010PropOp33
 70
     1
102
RTVSPost2010Prop34
280
     0
102
RTVSPost2010PropOp34
 70
     1
102
RTVSPost2010Prop35
280
     0
102
RTVSPost2010PropOp35
 70
     1
102
RTVSPost2010Prop36
280
     0
102
RTVSPost2010PropOp36
 70
     1
102
RTVSPost2010Prop37
 90
       50
102
RTVSPost2010PropOp37
 70
     1
102
RTVSPost2010Prop38
140
0.0
102
RTVSPost2010PropOp38
 70
     1
102
RTVSPost2010Prop39
140
1.0
102
RTVSPost2010PropOp39
 70
     1
102
RTVSPost2010Prop40
 90
        0
102
RTVSPost2010PropOp40
 70
     1
102
RTVSPost2010Prop41ColorIndex
 90
       18
102
RTVSPost2010Prop41ColorRGB
 90
        0
102
RTVSPost2010PropOp41
 70
     1
102
RTVSPost2010Prop42
 90
       50
102
RTVSPost2010PropOp42
 70
     1
102
RTVSPost2010Prop43
 90
        3
102
RTVSPost2010PropOp43
 70
     1
102
RTVSPost2010Prop44ColorIndex
 90
        5
102
RTVSPost2010Prop44ColorRGB
 90
      255
102
RTVSPost2010PropOp44
 70
     1
102
RTVSPost2010Prop45
280
     0
102
RTVSPost2010PropOp45
 70
     1
102
RTVSPost2010Prop46
 90
       50
102
RTVSPost2010PropOp46
 70
     1
102
RTVSPost2010Prop47
 90
       50
102
RTVSPost2010PropOp47
 70
     1
102
RTVSPost2010Prop48
 90
       50
102
RTVSPost2010PropOp48
 70
     1
102
RTVSPost2010Prop49
280
     0
102
RTVSPost2010PropOp49
 70
     1
102
RTVSPost2010Prop50
 90
       50
102
RTVSPost2010PropOp50
 70
     1
102
RTVSPost2010Prop51ColorIndex
 90
      256
102
RTVSPost2010Prop51ColorRGB
 90
-16777216
102
RTVSPost2010PropOp51
 70
     0
102
RTVSPost2010Prop52
140
1.0
102
RTVSPost2010PropOp52
 70
     0
102
RTVSPost2010Prop53
 90
        2
102
RTVSPost2010PropOp53
 70
     1
102
RTVSPost2010Prop54
  1
strokes_ogs.tif
102
RTVSPost2010PropOp54
 70
     1
102
RTVSPost2010Prop55
280
     0
102
RTVSPost2010PropOp55
 70
     1
102
RTVSPost2010Prop56
140
1.0
102
RTVSPost2010PropOp56
 70
     1
102
RTVSPost2010Prop57
140
1.0
102
RTVSPost2010PropOp57
 70
     1
102
RTVSPropertyOp0
 70
     1
102
RTVSPropertyOp1
 70
     1
102
RTVSPropertyOp2
 70
     1
102
RTVSPropertyOp3
 70
     1
102
RTVSPropertyOp4
 70
     1
102
RTVSPropertyOp5
 70
     1
102
RTVSPropertyOp6
 70
     1
102
RTVSPropertyOp7
 70
     1
102
RTVSPropertyOp8
 70
     1
102
RTVSPropertyOp9
 70
     1
102
RTVSPropertyOp10
 70
     1
102
RTVSPropertyOp11
 70
     1
102
RTVSPropertyOp12
 70
     1
102
RTVSPropertyOp13
 70
     1
102
RTVSPropertyOp14
 70
     1
102
RTVSPropertyOp15
 70
     1
102
RTVSPropertyOp16
 70
     1
102
RTVSPropertyOp17
 70
     1
102
RTVSPropertyOp18
 70
     1
102
RTVSPropertyOp19
 70
     1
102
RTVSPropertyOp20
 70
     1
102
RTVSPropertyOp21
 70
     1
102
RTVSPropertyOp22
 70
     1
102
RTVSPropertyOp23
 70
     1
102
RTVSPropertyOp24
 70
     1
102
RTVSPropertyOp25
 70
     1
102
RTVSPropertyOp26
 70
     1
102
RTVSPropertyOp27
 70
     1
102
RTVSPropertyOp28
 70
     1
102
RTVSPropertyOp29
 70
     1
102
RTVSPropertyOp30
 70
     1
102
RTVSPropertyOp31
 70
     1
102
RTVSPropertyOp32
 70
     1
102
RTVSPropertyOp33
 70
     1
102
RTVSPropertyOp34
 70
     1
102
RTVSPropertyOp35
 70
     1
102
RTVSPropertyOp36
 70
     1
102
RTVSPropertyOp37
 70
     1
102
RTVSPropertyOp38
 70
     1
102
RTVSPropertyOp39
 70
     1
102
RTVSPropertyOp40
 70
     1
102
RTVSPropertyOp41
 70
     1
102
RTVSPropertyOp42
 70
     1
102
RTVSPropertyOp43
 70
     1
102
RTVSPropertyOp44
 70
     1
102
RTVSPropertyOp45
 70
     1
102
RTVSPropertyOp46
 70
     1
102
RTVSPropertyOp47
 70
     1
102
RTVSPropertyOp48
 70
     1
102
RTVSPropertyOp49
 70
     1
102
RTVSPropertyOp50
 70
     1
102
RTVSPropertyOp51
 70
     0
102
RTVSPropertyOp52
 70
     0
102
RTVSPropertyOp53
 70
     1
102
RTVSPropertyOp54
 70
     1
102
RTVSPropertyOp55
 70
     1
102
RTVSPropertyOp56
 70
     1
102
RTVSPropertyOp57
 70
     1
102
RTVSPropertyOp58
 70
     1
102
RTVSPropertyOp59
 70
     1
102
RTVSPropertyOp60
 70
     1
102
RTVSPropertyOp61
 70
     1
102
RTVSPropertyOp62
 70
     1
  0
XRECORD
  5
8303
102
{ACAD_REACTORS
330
8302
102
}
330
8302
100
AcDbXrecord
280
     1
102
RTVSPost2010Prop28
280
     0
102
RTVSPost2010PropOp28
 70
     1
102
RTVSPost2010Prop29
280
     1
102
RTVSPost2010PropOp29
 70
     1
102
RTVSPost2010Prop30
280
     1
102
RTVSPost2010PropOp30
 70
     1
102
RTVSPost2010Prop31
280
     0
102
RTVSPost2010PropOp31
 70
     1
102
RTVSPost2010Prop32
280
     0
102
RTVSPost2010PropOp32
 70
     1
102
RTVSPost2010Prop33
280
     0
102
RTVSPost2010PropOp33
 70
     1
102
RTVSPost2010Prop34
280
     0
102
RTVSPost2010PropOp34
 70
     1
102
RTVSPost2010Prop35
280
     0
102
RTVSPost2010PropOp35
 70
     1
102
RTVSPost2010Prop36
280
     0
102
RTVSPost2010PropOp36
 70
     1
102
RTVSPost2010Prop37
 90
       50
102
RTVSPost2010PropOp37
 70
     1
102
RTVSPost2010Prop38
140
0.0
102
RTVSPost2010PropOp38
 70
     1
102
RTVSPost2010Prop39
140
1.0
102
RTVSPost2010PropOp39
 70
     1
102
RTVSPost2010Prop40
 90
        0
102
RTVSPost2010PropOp40
 70
     1
102
RTVSPost2010Prop41ColorIndex
 90
       18
102
RTVSPost2010Prop41ColorRGB
 90
        0
102
RTVSPost2010PropOp41
 70
     1
102
RTVSPost2010Prop42
 90
       50
102
RTVSPost2010PropOp42
 70
     1
102
RTVSPost2010Prop43
 90
        3
102
RTVSPost2010PropOp43
 70
     1
102
RTVSPost2010Prop44ColorIndex
 90
        5
102
RTVSPost2010Prop44ColorRGB
 90
      255
102
RTVSPost2010PropOp44
 70
     1
102
RTVSPost2010Prop45
280
     0
102
RTVSPost2010PropOp45
 70
     1
102
RTVSPost2010Prop46
 90
       50
102
RTVSPost2010PropOp46
 70
     1
102
RTVSPost2010Prop47
 90
       50
102
RTVSPost2010PropOp47
 70
     1
102
RTVSPost2010Prop48
 90
       50
102
RTVSPost2010PropOp48
 70
     1
102
RTVSPost2010Prop49
280
     0
102
RTVSPost2010PropOp49
 70
     1
102
RTVSPost2010Prop50
 90
       50
102
RTVSPost2010PropOp50
 70
     1
102
RTVSPost2010Prop51ColorIndex
 90
      256
102
RTVSPost2010Prop51ColorRGB
 90
-16777216
102
RTVSPost2010PropOp51
 70
     0
102
RTVSPost2010Prop52
140
1.0
102
RTVSPost2010PropOp52
 70
     0
102
RTVSPost2010Prop53
 90
        2
102
RTVSPost2010PropOp53
 70
     1
102
RTVSPost2010Prop54
  1
strokes_ogs.tif
102
RTVSPost2010PropOp54
 70
     1
102
RTVSPost2010Prop55
280
     0
102
RTVSPost2010PropOp55
 70
     1
102
RTVSPost2010Prop56
140
1.0
102
RTVSPost2010PropOp56
 70
     1
102
RTVSPost2010Prop57
140
1.0
102
RTVSPost2010PropOp57
 70
     1
102
RTVSPropertyOp0
 70
     1
102
RTVSPropertyOp1
 70
     1
102
RTVSPropertyOp2
 70
     1
102
RTVSPropertyOp3
 70
     1
102
RTVSPropertyOp4
 70
     1
102
RTVSPropertyOp5
 70
     1
102
RTVSPropertyOp6
 70
     1
102
RTVSPropertyOp7
 70
     1
102
RTVSPropertyOp8
 70
     1
102
RTVSPropertyOp9
 70
     1
102
RTVSPropertyOp10
 70
     1
102
RTVSPropertyOp11
 70
     1
102
RTVSPropertyOp12
 70
     1
102
RTVSPropertyOp13
 70
     1
102
RTVSPropertyOp14
 70
     1
102
RTVSPropertyOp15
 70
     1
102
RTVSPropertyOp16
 70
     1
102
RTVSPropertyOp17
 70
     1
102
RTVSPropertyOp18
 70
     1
102
RTVSPropertyOp19
 70
     1
102
RTVSPropertyOp20
 70
     1
102
RTVSPropertyOp21
 70
     1
102
RTVSPropertyOp22
 70
     1
102
RTVSPropertyOp23
 70
     1
102
RTVSPropertyOp24
 70
     1
102
RTVSPropertyOp25
 70
     1
102
RTVSPropertyOp26
 70
     1
102
RTVSPropertyOp27
 70
     1
102
RTVSPropertyOp28
 70
     1
102
RTVSPropertyOp29
 70
     1
102
RTVSPropertyOp30
 70
     1
102
RTVSPropertyOp31
 70
     1
102
RTVSPropertyOp32
 70
     1
102
RTVSPropertyOp33
 70
     1
102
RTVSPropertyOp34
 70
     1
102
RTVSPropertyOp35
 70
     1
102
RTVSPropertyOp36
 70
     1
102
RTVSPropertyOp37
 70
     1
102
RTVSPropertyOp38
 70
     1
102
RTVSPropertyOp39
 70
     1
102
RTVSPropertyOp40
 70
     1
102
RTVSPropertyOp41
 70
     1
102
RTVSPropertyOp42
 70
     1
102
RTVSPropertyOp43
 70
     1
102
RTVSPropertyOp44
 70
     1
102
RTVSPropertyOp45
 70
     1
102
RTVSPropertyOp46
 70
     1
102
RTVSPropertyOp47
 70
     1
102
RTVSPropertyOp48
 70
     1
102
RTVSPropertyOp49
 70
     1
102
RTVSPropertyOp50
 70
     1
102
RTVSPropertyOp51
 70
     0
102
RTVSPropertyOp52
 70
     0
102
RTVSPropertyOp53
 70
     1
102
RTVSPropertyOp54
 70
     1
102
RTVSPropertyOp55
 70
     1
102
RTVSPropertyOp56
 70
     1
102
RTVSPropertyOp57
 70
     1
102
RTVSPropertyOp58
 70
     1
102
RTVSPropertyOp59
 70
     1
102
RTVSPropertyOp60
 70
     1
102
RTVSPropertyOp61
 70
     1
102
RTVSPropertyOp62
 70
     1
  0
XRECORD
  5
8305
102
{ACAD_REACTORS
330
8304
102
}
330
8304
100
AcDbXrecord
280
     1
102
RTVSPost2010Prop28
280
     0
102
RTVSPost2010PropOp28
 70
     1
102
RTVSPost2010Prop29
280
     1
102
RTVSPost2010PropOp29
 70
     1
102
RTVSPost2010Prop30
280
     1
102
RTVSPost2010PropOp30
 70
     1
102
RTVSPost2010Prop31
280
     0
102
RTVSPost2010PropOp31
 70
     1
102
RTVSPost2010Prop32
280
     0
102
RTVSPost2010PropOp32
 70
     1
102
RTVSPost2010Prop33
280
     0
102
RTVSPost2010PropOp33
 70
     1
102
RTVSPost2010Prop34
280
     0
102
RTVSPost2010PropOp34
 70
     1
102
RTVSPost2010Prop35
280
     0
102
RTVSPost2010PropOp35
 70
     1
102
RTVSPost2010Prop36
280
     0
102
RTVSPost2010PropOp36
 70
     1
102
RTVSPost2010Prop37
 90
       50
102
RTVSPost2010PropOp37
 70
     1
102
RTVSPost2010Prop38
140
0.0
102
RTVSPost2010PropOp38
 70
     1
102
RTVSPost2010Prop39
140
1.0
102
RTVSPost2010PropOp39
 70
     1
102
RTVSPost2010Prop40
 90
        0
102
RTVSPost2010PropOp40
 70
     1
102
RTVSPost2010Prop41ColorIndex
 90
       18
102
RTVSPost2010Prop41ColorRGB
 90
        0
102
RTVSPost2010PropOp41
 70
     1
102
RTVSPost2010Prop42
 90
       50
102
RTVSPost2010PropOp42
 70
     1
102
RTVSPost2010Prop43
 90
        3
102
RTVSPost2010PropOp43
 70
     1
102
RTVSPost2010Prop44ColorIndex
 90
        5
102
RTVSPost2010Prop44ColorRGB
 90
      255
102
RTVSPost2010PropOp44
 70
     1
102
RTVSPost2010Prop45
280
     0
102
RTVSPost2010PropOp45
 70
     1
102
RTVSPost2010Prop46
 90
       50
102
RTVSPost2010PropOp46
 70
     1
102
RTVSPost2010Prop47
 90
       50
102
RTVSPost2010PropOp47
 70
     1
102
RTVSPost2010Prop48
 90
       50
102
RTVSPost2010PropOp48
 70
     1
102
RTVSPost2010Prop49
280
     0
102
RTVSPost2010PropOp49
 70
     1
102
RTVSPost2010Prop50
 90
       50
102
RTVSPost2010PropOp50
 70
     1
102
RTVSPost2010Prop51ColorIndex
 90
      256
102
RTVSPost2010Prop51ColorRGB
 90
-16777216
102
RTVSPost2010PropOp51
 70
     0
102
RTVSPost2010Prop52
140
1.0
102
RTVSPost2010PropOp52
 70
     0
102
RTVSPost2010Prop53
 90
        2
102
RTVSPost2010PropOp53
 70
     1
102
RTVSPost2010Prop54
  1
strokes_ogs.tif
102
RTVSPost2010PropOp54
 70
     1
102
RTVSPost2010Prop55
280
     0
102
RTVSPost2010PropOp55
 70
     1
102
RTVSPost2010Prop56
140
1.0
102
RTVSPost2010PropOp56
 70
     1
102
RTVSPost2010Prop57
140
1.0
102
RTVSPost2010PropOp57
 70
     1
102
RTVSPropertyOp0
 70
     1
102
RTVSPropertyOp1
 70
     1
102
RTVSPropertyOp2
 70
     1
102
RTVSPropertyOp3
 70
     1
102
RTVSPropertyOp4
 70
     1
102
RTVSPropertyOp5
 70
     1
102
RTVSPropertyOp6
 70
     1
102
RTVSPropertyOp7
 70
     1
102
RTVSPropertyOp8
 70
     1
102
RTVSPropertyOp9
 70
     1
102
RTVSPropertyOp10
 70
     1
102
RTVSPropertyOp11
 70
     1
102
RTVSPropertyOp12
 70
     1
102
RTVSPropertyOp13
 70
     1
102
RTVSPropertyOp14
 70
     1
102
RTVSPropertyOp15
 70
     1
102
RTVSPropertyOp16
 70
     1
102
RTVSPropertyOp17
 70
     1
102
RTVSPropertyOp18
 70
     1
102
RTVSPropertyOp19
 70
     1
102
RTVSPropertyOp20
 70
     1
102
RTVSPropertyOp21
 70
     1
102
RTVSPropertyOp22
 70
     1
102
RTVSPropertyOp23
 70
     1
102
RTVSPropertyOp24
 70
     1
102
RTVSPropertyOp25
 70
     1
102
RTVSPropertyOp26
 70
     1
102
RTVSPropertyOp27
 70
     1
102
RTVSPropertyOp28
 70
     1
102
RTVSPropertyOp29
 70
     1
102
RTVSPropertyOp30
 70
     1
102
RTVSPropertyOp31
 70
     1
102
RTVSPropertyOp32
 70
     1
102
RTVSPropertyOp33
 70
     1
102
RTVSPropertyOp34
 70
     1
102
RTVSPropertyOp35
 70
     1
102
RTVSPropertyOp36
 70
     1
102
RTVSPropertyOp37
 70
     1
102
RTVSPropertyOp38
 70
     1
102
RTVSPropertyOp39
 70
     1
102
RTVSPropertyOp40
 70
     1
102
RTVSPropertyOp41
 70
     1
102
RTVSPropertyOp42
 70
     1
102
RTVSPropertyOp43
 70
     1
102
RTVSPropertyOp44
 70
     1
102
RTVSPropertyOp45
 70
     1
102
RTVSPropertyOp46
 70
     1
102
RTVSPropertyOp47
 70
     1
102
RTVSPropertyOp48
 70
     1
102
RTVSPropertyOp49
 70
     1
102
RTVSPropertyOp50
 70
     1
102
RTVSPropertyOp51
 70
     0
102
RTVSPropertyOp52
 70
     0
102
RTVSPropertyOp53
 70
     1
102
RTVSPropertyOp54
 70
     1
102
RTVSPropertyOp55
 70
     1
102
RTVSPropertyOp56
 70
     1
102
RTVSPropertyOp57
 70
     1
102
RTVSPropertyOp58
 70
     1
102
RTVSPropertyOp59
 70
     1
102
RTVSPropertyOp60
 70
     1
102
RTVSPropertyOp61
 70
     1
102
RTVSPropertyOp62
 70
     1
  0
XRECORD
  5
8327
102
{ACAD_REACTORS
330
8326
102
}
330
8326
100
AcDbXrecord
280
     1
102
RTVSPost2010Prop28
280
     0
102
RTVSPost2010PropOp28
 70
     1
102
RTVSPost2010Prop29
280
     1
102
RTVSPost2010PropOp29
 70
     1
102
RTVSPost2010Prop30
280
     1
102
RTVSPost2010PropOp30
 70
     1
102
RTVSPost2010Prop31
280
     0
102
RTVSPost2010PropOp31
 70
     1
102
RTVSPost2010Prop32
280
     0
102
RTVSPost2010PropOp32
 70
     1
102
RTVSPost2010Prop33
280
     0
102
RTVSPost2010PropOp33
 70
     1
102
RTVSPost2010Prop34
280
     0
102
RTVSPost2010PropOp34
 70
     1
102
RTVSPost2010Prop35
280
     0
102
RTVSPost2010PropOp35
 70
     1
102
RTVSPost2010Prop36
280
     0
102
RTVSPost2010PropOp36
 70
     1
102
RTVSPost2010Prop37
 90
       50
102
RTVSPost2010PropOp37
 70
     1
102
RTVSPost2010Prop38
140
0.0
102
RTVSPost2010PropOp38
 70
     1
102
RTVSPost2010Prop39
140
1.0
102
RTVSPost2010PropOp39
 70
     1
102
RTVSPost2010Prop40
 90
        0
102
RTVSPost2010PropOp40
 70
     1
102
RTVSPost2010Prop41ColorIndex
 90
       18
102
RTVSPost2010Prop41ColorRGB
 90
        0
102
RTVSPost2010PropOp41
 70
     1
102
RTVSPost2010Prop42
 90
       50
102
RTVSPost2010PropOp42
 70
     1
102
RTVSPost2010Prop43
 90
        3
102
RTVSPost2010PropOp43
 70
     1
102
RTVSPost2010Prop44ColorIndex
 90
        5
102
RTVSPost2010Prop44ColorRGB
 90
      255
102
RTVSPost2010PropOp44
 70
     1
102
RTVSPost2010Prop45
280
     0
102
RTVSPost2010PropOp45
 70
     1
102
RTVSPost2010Prop46
 90
       50
102
RTVSPost2010PropOp46
 70
     1
102
RTVSPost2010Prop47
 90
       50
102
RTVSPost2010PropOp47
 70
     1
102
RTVSPost2010Prop48
 90
       50
102
RTVSPost2010PropOp48
 70
     1
102
RTVSPost2010Prop49
280
     0
102
RTVSPost2010PropOp49
 70
     1
102
RTVSPost2010Prop50
 90
       50
102
RTVSPost2010PropOp50
 70
     1
102
RTVSPost2010Prop51ColorIndex
 90
      256
102
RTVSPost2010Prop51ColorRGB
 90
-16777216
102
RTVSPost2010PropOp51
 70
     0
102
RTVSPost2010Prop52
140
1.0
102
RTVSPost2010PropOp52
 70
     0
102
RTVSPost2010Prop53
 90
        2
102
RTVSPost2010PropOp53
 70
     1
102
RTVSPost2010Prop54
  1
strokes_ogs.tif
102
RTVSPost2010PropOp54
 70
     1
102
RTVSPost2010Prop55
280
     0
102
RTVSPost2010PropOp55
 70
     1
102
RTVSPost2010Prop56
140
1.0
102
RTVSPost2010PropOp56
 70
     1
102
RTVSPost2010Prop57
140
1.0
102
RTVSPost2010PropOp57
 70
     1
102
RTVSPropertyOp0
 70
     1
102
RTVSPropertyOp1
 70
     1
102
RTVSPropertyOp2
 70
     1
102
RTVSPropertyOp3
 70
     1
102
RTVSPropertyOp4
 70
     1
102
RTVSPropertyOp5
 70
     1
102
RTVSPropertyOp6
 70
     1
102
RTVSPropertyOp7
 70
     1
102
RTVSPropertyOp8
 70
     1
102
RTVSPropertyOp9
 70
     1
102
RTVSPropertyOp10
 70
     1
102
RTVSPropertyOp11
 70
     1
102
RTVSPropertyOp12
 70
     1
102
RTVSPropertyOp13
 70
     1
102
RTVSPropertyOp14
 70
     1
102
RTVSPropertyOp15
 70
     1
102
RTVSPropertyOp16
 70
     1
102
RTVSPropertyOp17
 70
     1
102
RTVSPropertyOp18
 70
     1
102
RTVSPropertyOp19
 70
     1
102
RTVSPropertyOp20
 70
     1
102
RTVSPropertyOp21
 70
     1
102
RTVSPropertyOp22
 70
     1
102
RTVSPropertyOp23
 70
     1
102
RTVSPropertyOp24
 70
     1
102
RTVSPropertyOp25
 70
     1
102
RTVSPropertyOp26
 70
     1
102
RTVSPropertyOp27
 70
     1
102
RTVSPropertyOp28
 70
     1
102
RTVSPropertyOp29
 70
     1
102
RTVSPropertyOp30
 70
     1
102
RTVSPropertyOp31
 70
     1
102
RTVSPropertyOp32
 70
     1
102
RTVSPropertyOp33
 70
     1
102
RTVSPropertyOp34
 70
     1
102
RTVSPropertyOp35
 70
     1
102
RTVSPropertyOp36
 70
     1
102
RTVSPropertyOp37
 70
     1
102
RTVSPropertyOp38
 70
     1
102
RTVSPropertyOp39
 70
     1
102
RTVSPropertyOp40
 70
     1
102
RTVSPropertyOp41
 70
     1
102
RTVSPropertyOp42
 70
     1
102
RTVSPropertyOp43
 70
     1
102
RTVSPropertyOp44
 70
     1
102
RTVSPropertyOp45
 70
     1
102
RTVSPropertyOp46
 70
     1
102
RTVSPropertyOp47
 70
     1
102
RTVSPropertyOp48
 70
     1
102
RTVSPropertyOp49
 70
     1
102
RTVSPropertyOp50
 70
     1
102
RTVSPropertyOp51
 70
     0
102
RTVSPropertyOp52
 70
     0
102
RTVSPropertyOp53
 70
     1
102
RTVSPropertyOp54
 70
     1
102
RTVSPropertyOp55
 70
     1
102
RTVSPropertyOp56
 70
     1
102
RTVSPropertyOp57
 70
     1
102
RTVSPropertyOp58
 70
     1
102
RTVSPropertyOp59
 70
     1
102
RTVSPropertyOp60
 70
     1
102
RTVSPropertyOp61
 70
     1
102
RTVSPropertyOp62
 70
     1
  0
XRECORD
  5
831F
102
{ACAD_REACTORS
330
831E
102
}
330
831E
100
AcDbXrecord
280
     1
102
RTVSPost2010Prop28
280
     0
102
RTVSPost2010PropOp28
 70
     1
102
RTVSPost2010Prop29
280
     1
102
RTVSPost2010PropOp29
 70
     1
102
RTVSPost2010Prop30
280
     1
102
RTVSPost2010PropOp30
 70
     1
102
RTVSPost2010Prop31
280
     0
102
RTVSPost2010PropOp31
 70
     1
102
RTVSPost2010Prop32
280
     0
102
RTVSPost2010PropOp32
 70
     1
102
RTVSPost2010Prop33
280
     0
102
RTVSPost2010PropOp33
 70
     1
102
RTVSPost2010Prop34
280
     0
102
RTVSPost2010PropOp34
 70
     1
102
RTVSPost2010Prop35
280
     0
102
RTVSPost2010PropOp35
 70
     1
102
RTVSPost2010Prop36
280
     0
102
RTVSPost2010PropOp36
 70
     1
102
RTVSPost2010Prop37
 90
       50
102
RTVSPost2010PropOp37
 70
     1
102
RTVSPost2010Prop38
140
0.0
102
RTVSPost2010PropOp38
 70
     1
102
RTVSPost2010Prop39
140
1.0
102
RTVSPost2010PropOp39
 70
     1
102
RTVSPost2010Prop40
 90
        0
102
RTVSPost2010PropOp40
 70
     1
102
RTVSPost2010Prop41ColorIndex
 90
       18
102
RTVSPost2010Prop41ColorRGB
 90
        0
102
RTVSPost2010PropOp41
 70
     1
102
RTVSPost2010Prop42
 90
       50
102
RTVSPost2010PropOp42
 70
     1
102
RTVSPost2010Prop43
 90
        3
102
RTVSPost2010PropOp43
 70
     1
102
RTVSPost2010Prop44ColorIndex
 90
        5
102
RTVSPost2010Prop44ColorRGB
 90
      255
102
RTVSPost2010PropOp44
 70
     1
102
RTVSPost2010Prop45
280
     0
102
RTVSPost2010PropOp45
 70
     1
102
RTVSPost2010Prop46
 90
       50
102
RTVSPost2010PropOp46
 70
     1
102
RTVSPost2010Prop47
 90
       50
102
RTVSPost2010PropOp47
 70
     1
102
RTVSPost2010Prop48
 90
       50
102
RTVSPost2010PropOp48
 70
     1
102
RTVSPost2010Prop49
280
     0
102
RTVSPost2010PropOp49
 70
     1
102
RTVSPost2010Prop50
 90
       50
102
RTVSPost2010PropOp50
 70
     1
102
RTVSPost2010Prop51ColorIndex
 90
      256
102
RTVSPost2010Prop51ColorRGB
 90
-16777216
102
RTVSPost2010PropOp51
 70
     0
102
RTVSPost2010Prop52
140
1.0
102
RTVSPost2010PropOp52
 70
     0
102
RTVSPost2010Prop53
 90
        2
102
RTVSPost2010PropOp53
 70
     1
102
RTVSPost2010Prop54
  1
strokes_ogs.tif
102
RTVSPost2010PropOp54
 70
     1
102
RTVSPost2010Prop55
280
     0
102
RTVSPost2010PropOp55
 70
     1
102
RTVSPost2010Prop56
140
1.0
102
RTVSPost2010PropOp56
 70
     1
102
RTVSPost2010Prop57
140
1.0
102
RTVSPost2010PropOp57
 70
     1
102
RTVSPropertyOp0
 70
     0
102
RTVSPropertyOp1
 70
     0
102
RTVSPropertyOp2
 70
     0
102
RTVSPropertyOp3
 70
     0
102
RTVSPropertyOp4
 70
     0
102
RTVSPropertyOp5
 70
     0
102
RTVSPropertyOp6
 70
     0
102
RTVSPropertyOp7
 70
     0
102
RTVSPropertyOp8
 70
     0
102
RTVSPropertyOp9
 70
     0
102
RTVSPropertyOp10
 70
     0
102
RTVSPropertyOp11
 70
     0
102
RTVSPropertyOp12
 70
     0
102
RTVSPropertyOp13
 70
     0
102
RTVSPropertyOp14
 70
     2
102
RTVSPropertyOp15
 70
     0
102
RTVSPropertyOp16
 70
     0
102
RTVSPropertyOp17
 70
     0
102
RTVSPropertyOp18
 70
     0
102
RTVSPropertyOp19
 70
     0
102
RTVSPropertyOp20
 70
     0
102
RTVSPropertyOp21
 70
     0
102
RTVSPropertyOp22
 70
     0
102
RTVSPropertyOp23
 70
     0
102
RTVSPropertyOp24
 70
     0
102
RTVSPropertyOp25
 70
     0
102
RTVSPropertyOp26
 70
     0
102
RTVSPropertyOp27
 70
     0
102
RTVSPropertyOp28
 70
     1
102
RTVSPropertyOp29
 70
     1
102
RTVSPropertyOp30
 70
     1
102
RTVSPropertyOp31
 70
     1
102
RTVSPropertyOp32
 70
     1
102
RTVSPropertyOp33
 70
     1
102
RTVSPropertyOp34
 70
     1
102
RTVSPropertyOp35
 70
     1
102
RTVSPropertyOp36
 70
     1
102
RTVSPropertyOp37
 70
     1
102
RTVSPropertyOp38
 70
     1
102
RTVSPropertyOp39
 70
     1
102
RTVSPropertyOp40
 70
     1
102
RTVSPropertyOp41
 70
     1
102
RTVSPropertyOp42
 70
     1
102
RTVSPropertyOp43
 70
     1
102
RTVSPropertyOp44
 70
     1
102
RTVSPropertyOp45
 70
     1
102
RTVSPropertyOp46
 70
     1
102
RTVSPropertyOp47
 70
     1
102
RTVSPropertyOp48
 70
     1
102
RTVSPropertyOp49
 70
     1
102
RTVSPropertyOp50
 70
     1
102
RTVSPropertyOp51
 70
     0
102
RTVSPropertyOp52
 70
     0
102
RTVSPropertyOp53
 70
     1
102
RTVSPropertyOp54
 70
     1
102
RTVSPropertyOp55
 70
     1
102
RTVSPropertyOp56
 70
     1
102
RTVSPropertyOp57
 70
     1
102
RTVSPropertyOp58
 70
     1
102
RTVSPropertyOp59
 70
     1
102
RTVSPropertyOp60
 70
     1
102
RTVSPropertyOp61
 70
     1
102
RTVSPropertyOp62
 70
     1
  0
XRECORD
  5
8319
102
{ACAD_REACTORS
330
8318
102
}
330
8318
100
AcDbXrecord
280
     1
102
RTVSPost2010Prop28
280
     0
102
RTVSPost2010PropOp28
 70
     1
102
RTVSPost2010Prop29
280
     1
102
RTVSPost2010PropOp29
 70
     1
102
RTVSPost2010Prop30
280
     1
102
RTVSPost2010PropOp30
 70
     1
102
RTVSPost2010Prop31
280
     0
102
RTVSPost2010PropOp31
 70
     1
102
RTVSPost2010Prop32
280
     0
102
RTVSPost2010PropOp32
 70
     1
102
RTVSPost2010Prop33
280
     0
102
RTVSPost2010PropOp33
 70
     1
102
RTVSPost2010Prop34
280
     0
102
RTVSPost2010PropOp34
 70
     1
102
RTVSPost2010Prop35
280
     0
102
RTVSPost2010PropOp35
 70
     1
102
RTVSPost2010Prop36
280
     0
102
RTVSPost2010PropOp36
 70
     1
102
RTVSPost2010Prop37
 90
       50
102
RTVSPost2010PropOp37
 70
     1
102
RTVSPost2010Prop38
140
0.0
102
RTVSPost2010PropOp38
 70
     1
102
RTVSPost2010Prop39
140
1.0
102
RTVSPost2010PropOp39
 70
     1
102
RTVSPost2010Prop40
 90
        0
102
RTVSPost2010PropOp40
 70
     1
102
RTVSPost2010Prop41ColorIndex
 90
       18
102
RTVSPost2010Prop41ColorRGB
 90
        0
102
RTVSPost2010PropOp41
 70
     1
102
RTVSPost2010Prop42
 90
       50
102
RTVSPost2010PropOp42
 70
     1
102
RTVSPost2010Prop43
 90
        3
102
RTVSPost2010PropOp43
 70
     1
102
RTVSPost2010Prop44ColorIndex
 90
        5
102
RTVSPost2010Prop44ColorRGB
 90
      255
102
RTVSPost2010PropOp44
 70
     1
102
RTVSPost2010Prop45
280
     0
102
RTVSPost2010PropOp45
 70
     1
102
RTVSPost2010Prop46
 90
       50
102
RTVSPost2010PropOp46
 70
     1
102
RTVSPost2010Prop47
 90
       50
102
RTVSPost2010PropOp47
 70
     1
102
RTVSPost2010Prop48
 90
       50
102
RTVSPost2010PropOp48
 70
     1
102
RTVSPost2010Prop49
280
     0
102
RTVSPost2010PropOp49
 70
     1
102
RTVSPost2010Prop50
 90
       50
102
RTVSPost2010PropOp50
 70
     1
102
RTVSPost2010Prop51ColorIndex
 90
      256
102
RTVSPost2010Prop51ColorRGB
 90
-16777216
102
RTVSPost2010PropOp51
 70
     0
102
RTVSPost2010Prop52
140
1.0
102
RTVSPost2010PropOp52
 70
     0
102
RTVSPost2010Prop53
 90
        2
102
RTVSPost2010PropOp53
 70
     1
102
RTVSPost2010Prop54
  1
strokes_ogs.tif
102
RTVSPost2010PropOp54
 70
     1
102
RTVSPost2010Prop55
280
     0
102
RTVSPost2010PropOp55
 70
     1
102
RTVSPost2010Prop56
140
1.0
102
RTVSPost2010PropOp56
 70
     1
102
RTVSPost2010Prop57
140
1.0
102
RTVSPost2010PropOp57
 70
     1
102
RTVSPropertyOp0
 70
     1
102
RTVSPropertyOp1
 70
     1
102
RTVSPropertyOp2
 70
     1
102
RTVSPropertyOp3
 70
     1
102
RTVSPropertyOp4
 70
     1
102
RTVSPropertyOp5
 70
     1
102
RTVSPropertyOp6
 70
     1
102
RTVSPropertyOp7
 70
     1
102
RTVSPropertyOp8
 70
     1
102
RTVSPropertyOp9
 70
     1
102
RTVSPropertyOp10
 70
     1
102
RTVSPropertyOp11
 70
     1
102
RTVSPropertyOp12
 70
     1
102
RTVSPropertyOp13
 70
     1
102
RTVSPropertyOp14
 70
     1
102
RTVSPropertyOp15
 70
     1
102
RTVSPropertyOp16
 70
     1
102
RTVSPropertyOp17
 70
     1
102
RTVSPropertyOp18
 70
     1
102
RTVSPropertyOp19
 70
     1
102
RTVSPropertyOp20
 70
     1
102
RTVSPropertyOp21
 70
     1
102
RTVSPropertyOp22
 70
     1
102
RTVSPropertyOp23
 70
     1
102
RTVSPropertyOp24
 70
     1
102
RTVSPropertyOp25
 70
     1
102
RTVSPropertyOp26
 70
     1
102
RTVSPropertyOp27
 70
     1
102
RTVSPropertyOp28
 70
     1
102
RTVSPropertyOp29
 70
     1
102
RTVSPropertyOp30
 70
     1
102
RTVSPropertyOp31
 70
     1
102
RTVSPropertyOp32
 70
     1
102
RTVSPropertyOp33
 70
     1
102
RTVSPropertyOp34
 70
     1
102
RTVSPropertyOp35
 70
     1
102
RTVSPropertyOp36
 70
     1
102
RTVSPropertyOp37
 70
     1
102
RTVSPropertyOp38
 70
     1
102
RTVSPropertyOp39
 70
     1
102
RTVSPropertyOp40
 70
     1
102
RTVSPropertyOp41
 70
     1
102
RTVSPropertyOp42
 70
     1
102
RTVSPropertyOp43
 70
     1
102
RTVSPropertyOp44
 70
     1
102
RTVSPropertyOp45
 70
     1
102
RTVSPropertyOp46
 70
     1
102
RTVSPropertyOp47
 70
     1
102
RTVSPropertyOp48
 70
     1
102
RTVSPropertyOp49
 70
     1
102
RTVSPropertyOp50
 70
     1
102
RTVSPropertyOp51
 70
     0
102
RTVSPropertyOp52
 70
     0
102
RTVSPropertyOp53
 70
     1
102
RTVSPropertyOp54
 70
     1
102
RTVSPropertyOp55
 70
     1
102
RTVSPropertyOp56
 70
     1
102
RTVSPropertyOp57
 70
     1
102
RTVSPropertyOp58
 70
     1
102
RTVSPropertyOp59
 70
     1
102
RTVSPropertyOp60
 70
     1
102
RTVSPropertyOp61
 70
     1
102
RTVSPropertyOp62
 70
     1
  0
XRECORD
  5
8321
102
{ACAD_REACTORS
330
8320
102
}
330
8320
100
AcDbXrecord
280
     1
102
RTVSPost2010Prop28
280
     0
102
RTVSPost2010PropOp28
 70
     1
102
RTVSPost2010Prop29
280
     1
102
RTVSPost2010PropOp29
 70
     1
102
RTVSPost2010Prop30
280
     1
102
RTVSPost2010PropOp30
 70
     1
102
RTVSPost2010Prop31
280
     0
102
RTVSPost2010PropOp31
 70
     1
102
RTVSPost2010Prop32
280
     0
102
RTVSPost2010PropOp32
 70
     1
102
RTVSPost2010Prop33
280
     0
102
RTVSPost2010PropOp33
 70
     1
102
RTVSPost2010Prop34
280
     0
102
RTVSPost2010PropOp34
 70
     1
102
RTVSPost2010Prop35
280
     0
102
RTVSPost2010PropOp35
 70
     1
102
RTVSPost2010Prop36
280
     0
102
RTVSPost2010PropOp36
 70
     1
102
RTVSPost2010Prop37
 90
       50
102
RTVSPost2010PropOp37
 70
     1
102
RTVSPost2010Prop38
140
0.0
102
RTVSPost2010PropOp38
 70
     1
102
RTVSPost2010Prop39
140
1.0
102
RTVSPost2010PropOp39
 70
     1
102
RTVSPost2010Prop40
 90
        0
102
RTVSPost2010PropOp40
 70
     1
102
RTVSPost2010Prop41ColorIndex
 90
       18
102
RTVSPost2010Prop41ColorRGB
 90
        0
102
RTVSPost2010PropOp41
 70
     1
102
RTVSPost2010Prop42
 90
       50
102
RTVSPost2010PropOp42
 70
     1
102
RTVSPost2010Prop43
 90
        3
102
RTVSPost2010PropOp43
 70
     1
102
RTVSPost2010Prop44ColorIndex
 90
        5
102
RTVSPost2010Prop44ColorRGB
 90
      255
102
RTVSPost2010PropOp44
 70
     1
102
RTVSPost2010Prop45
280
     0
102
RTVSPost2010PropOp45
 70
     1
102
RTVSPost2010Prop46
 90
       50
102
RTVSPost2010PropOp46
 70
     1
102
RTVSPost2010Prop47
 90
       50
102
RTVSPost2010PropOp47
 70
     1
102
RTVSPost2010Prop48
 90
       50
102
RTVSPost2010PropOp48
 70
     1
102
RTVSPost2010Prop49
280
     0
102
RTVSPost2010PropOp49
 70
     1
102
RTVSPost2010Prop50
 90
       50
102
RTVSPost2010PropOp50
 70
     1
102
RTVSPost2010Prop51ColorIndex
 90
      256
102
RTVSPost2010Prop51ColorRGB
 90
-16777216
102
RTVSPost2010PropOp51
 70
     0
102
RTVSPost2010Prop52
140
1.0
102
RTVSPost2010PropOp52
 70
     0
102
RTVSPost2010Prop53
 90
        2
102
RTVSPost2010PropOp53
 70
     1
102
RTVSPost2010Prop54
  1
strokes_ogs.tif
102
RTVSPost2010PropOp54
 70
     1
102
RTVSPost2010Prop55
280
     0
102
RTVSPost2010PropOp55
 70
     1
102
RTVSPost2010Prop56
140
1.0
102
RTVSPost2010PropOp56
 70
     1
102
RTVSPost2010Prop57
140
1.0
102
RTVSPost2010PropOp57
 70
     1
102
RTVSPropertyOp0
 70
     0
102
RTVSPropertyOp1
 70
     0
102
RTVSPropertyOp2
 70
     0
102
RTVSPropertyOp3
 70
     0
102
RTVSPropertyOp4
 70
     0
102
RTVSPropertyOp5
 70
     0
102
RTVSPropertyOp6
 70
     0
102
RTVSPropertyOp7
 70
     0
102
RTVSPropertyOp8
 70
     0
102
RTVSPropertyOp9
 70
     0
102
RTVSPropertyOp10
 70
     0
102
RTVSPropertyOp11
 70
     0
102
RTVSPropertyOp12
 70
     0
102
RTVSPropertyOp13
 70
     0
102
RTVSPropertyOp14
 70
     2
102
RTVSPropertyOp15
 70
     0
102
RTVSPropertyOp16
 70
     0
102
RTVSPropertyOp17
 70
     0
102
RTVSPropertyOp18
 70
     0
102
RTVSPropertyOp19
 70
     0
102
RTVSPropertyOp20
 70
     0
102
RTVSPropertyOp21
 70
     0
102
RTVSPropertyOp22
 70
     0
102
RTVSPropertyOp23
 70
     0
102
RTVSPropertyOp24
 70
     0
102
RTVSPropertyOp25
 70
     0
102
RTVSPropertyOp26
 70
     0
102
RTVSPropertyOp27
 70
     0
102
RTVSPropertyOp28
 70
     1
102
RTVSPropertyOp29
 70
     1
102
RTVSPropertyOp30
 70
     1
102
RTVSPropertyOp31
 70
     1
102
RTVSPropertyOp32
 70
     1
102
RTVSPropertyOp33
 70
     1
102
RTVSPropertyOp34
 70
     1
102
RTVSPropertyOp35
 70
     1
102
RTVSPropertyOp36
 70
     1
102
RTVSPropertyOp37
 70
     1
102
RTVSPropertyOp38
 70
     1
102
RTVSPropertyOp39
 70
     1
102
RTVSPropertyOp40
 70
     1
102
RTVSPropertyOp41
 70
     1
102
RTVSPropertyOp42
 70
     1
102
RTVSPropertyOp43
 70
     1
102
RTVSPropertyOp44
 70
     1
102
RTVSPropertyOp45
 70
     1
102
RTVSPropertyOp46
 70
     1
102
RTVSPropertyOp47
 70
     1
102
RTVSPropertyOp48
 70
     1
102
RTVSPropertyOp49
 70
     1
102
RTVSPropertyOp50
 70
     1
102
RTVSPropertyOp51
 70
     0
102
RTVSPropertyOp52
 70
     0
102
RTVSPropertyOp53
 70
     1
102
RTVSPropertyOp54
 70
     1
102
RTVSPropertyOp55
 70
     1
102
RTVSPropertyOp56
 70
     1
102
RTVSPropertyOp57
 70
     1
102
RTVSPropertyOp58
 70
     1
102
RTVSPropertyOp59
 70
     1
102
RTVSPropertyOp60
 70
     1
102
RTVSPropertyOp61
 70
     1
102
RTVSPropertyOp62
 70
     1
  0
XRECORD
  5
8311
102
{ACAD_REACTORS
330
8310
102
}
330
8310
100
AcDbXrecord
280
     1
102
RTVSPost2010Prop28
280
     0
102
RTVSPost2010PropOp28
 70
     1
102
RTVSPost2010Prop29
280
     1
102
RTVSPost2010PropOp29
 70
     1
102
RTVSPost2010Prop30
280
     1
102
RTVSPost2010PropOp30
 70
     1
102
RTVSPost2010Prop31
280
     0
102
RTVSPost2010PropOp31
 70
     1
102
RTVSPost2010Prop32
280
     0
102
RTVSPost2010PropOp32
 70
     1
102
RTVSPost2010Prop33
280
     0
102
RTVSPost2010PropOp33
 70
     1
102
RTVSPost2010Prop34
280
     0
102
RTVSPost2010PropOp34
 70
     1
102
RTVSPost2010Prop35
280
     0
102
RTVSPost2010PropOp35
 70
     1
102
RTVSPost2010Prop36
280
     0
102
RTVSPost2010PropOp36
 70
     1
102
RTVSPost2010Prop37
 90
       50
102
RTVSPost2010PropOp37
 70
     1
102
RTVSPost2010Prop38
140
0.0
102
RTVSPost2010PropOp38
 70
     1
102
RTVSPost2010Prop39
140
1.0
102
RTVSPost2010PropOp39
 70
     1
102
RTVSPost2010Prop40
 90
        0
102
RTVSPost2010PropOp40
 70
     1
102
RTVSPost2010Prop41ColorIndex
 90
       18
102
RTVSPost2010Prop41ColorRGB
 90
        0
102
RTVSPost2010PropOp41
 70
     1
102
RTVSPost2010Prop42
 90
       50
102
RTVSPost2010PropOp42
 70
     1
102
RTVSPost2010Prop43
 90
        3
102
RTVSPost2010PropOp43
 70
     1
102
RTVSPost2010Prop44ColorIndex
 90
        5
102
RTVSPost2010Prop44ColorRGB
 90
      255
102
RTVSPost2010PropOp44
 70
     1
102
RTVSPost2010Prop45
280
     0
102
RTVSPost2010PropOp45
 70
     1
102
RTVSPost2010Prop46
 90
       50
102
RTVSPost2010PropOp46
 70
     1
102
RTVSPost2010Prop47
 90
       50
102
RTVSPost2010PropOp47
 70
     1
102
RTVSPost2010Prop48
 90
       50
102
RTVSPost2010PropOp48
 70
     1
102
RTVSPost2010Prop49
280
     0
102
RTVSPost2010PropOp49
 70
     1
102
RTVSPost2010Prop50
 90
       50
102
RTVSPost2010PropOp50
 70
     1
102
RTVSPost2010Prop51ColorIndex
 90
      256
102
RTVSPost2010Prop51ColorRGB
 90
-16777216
102
RTVSPost2010PropOp51
 70
     0
102
RTVSPost2010Prop52
140
1.0
102
RTVSPost2010PropOp52
 70
     0
102
RTVSPost2010Prop53
 90
        2
102
RTVSPost2010PropOp53
 70
     1
102
RTVSPost2010Prop54
  1
strokes_ogs.tif
102
RTVSPost2010PropOp54
 70
     1
102
RTVSPost2010Prop55
280
     0
102
RTVSPost2010PropOp55
 70
     1
102
RTVSPost2010Prop56
140
1.0
102
RTVSPost2010PropOp56
 70
     1
102
RTVSPost2010Prop57
140
1.0
102
RTVSPost2010PropOp57
 70
     1
102
RTVSPropertyOp0
 70
     1
102
RTVSPropertyOp1
 70
     1
102
RTVSPropertyOp2
 70
     1
102
RTVSPropertyOp3
 70
     1
102
RTVSPropertyOp4
 70
     1
102
RTVSPropertyOp5
 70
     1
102
RTVSPropertyOp6
 70
     1
102
RTVSPropertyOp7
 70
     1
102
RTVSPropertyOp8
 70
     1
102
RTVSPropertyOp9
 70
     1
102
RTVSPropertyOp10
 70
     1
102
RTVSPropertyOp11
 70
     1
102
RTVSPropertyOp12
 70
     1
102
RTVSPropertyOp13
 70
     1
102
RTVSPropertyOp14
 70
     1
102
RTVSPropertyOp15
 70
     1
102
RTVSPropertyOp16
 70
     1
102
RTVSPropertyOp17
 70
     1
102
RTVSPropertyOp18
 70
     1
102
RTVSPropertyOp19
 70
     1
102
RTVSPropertyOp20
 70
     1
102
RTVSPropertyOp21
 70
     1
102
RTVSPropertyOp22
 70
     1
102
RTVSPropertyOp23
 70
     1
102
RTVSPropertyOp24
 70
     1
102
RTVSPropertyOp25
 70
     1
102
RTVSPropertyOp26
 70
     1
102
RTVSPropertyOp27
 70
     1
102
RTVSPropertyOp28
 70
     1
102
RTVSPropertyOp29
 70
     1
102
RTVSPropertyOp30
 70
     1
102
RTVSPropertyOp31
 70
     1
102
RTVSPropertyOp32
 70
     1
102
RTVSPropertyOp33
 70
     1
102
RTVSPropertyOp34
 70
     1
102
RTVSPropertyOp35
 70
     1
102
RTVSPropertyOp36
 70
     1
102
RTVSPropertyOp37
 70
     1
102
RTVSPropertyOp38
 70
     1
102
RTVSPropertyOp39
 70
     1
102
RTVSPropertyOp40
 70
     1
102
RTVSPropertyOp41
 70
     1
102
RTVSPropertyOp42
 70
     1
102
RTVSPropertyOp43
 70
     1
102
RTVSPropertyOp44
 70
     1
102
RTVSPropertyOp45
 70
     1
102
RTVSPropertyOp46
 70
     1
102
RTVSPropertyOp47
 70
     1
102
RTVSPropertyOp48
 70
     1
102
RTVSPropertyOp49
 70
     1
102
RTVSPropertyOp50
 70
     1
102
RTVSPropertyOp51
 70
     0
102
RTVSPropertyOp52
 70
     0
102
RTVSPropertyOp53
 70
     1
102
RTVSPropertyOp54
 70
     1
102
RTVSPropertyOp55
 70
     1
102
RTVSPropertyOp56
 70
     1
102
RTVSPropertyOp57
 70
     1
102
RTVSPropertyOp58
 70
     1
102
RTVSPropertyOp59
 70
     1
102
RTVSPropertyOp60
 70
     1
102
RTVSPropertyOp61
 70
     1
102
RTVSPropertyOp62
 70
     1
  0
XRECORD
  5
8331
102
{ACAD_REACTORS
330
8330
102
}
330
8330
100
AcDbXrecord
280
     1
102
RTVSPost2010Prop28
280
     0
102
RTVSPost2010PropOp28
 70
     1
102
RTVSPost2010Prop29
280
     1
102
RTVSPost2010PropOp29
 70
     1
102
RTVSPost2010Prop30
280
     1
102
RTVSPost2010PropOp30
 70
     1
102
RTVSPost2010Prop31
280
     0
102
RTVSPost2010PropOp31
 70
     1
102
RTVSPost2010Prop32
280
     0
102
RTVSPost2010PropOp32
 70
     1
102
RTVSPost2010Prop33
280
     0
102
RTVSPost2010PropOp33
 70
     1
102
RTVSPost2010Prop34
280
     0
102
RTVSPost2010PropOp34
 70
     1
102
RTVSPost2010Prop35
280
     0
102
RTVSPost2010PropOp35
 70
     1
102
RTVSPost2010Prop36
280
     0
102
RTVSPost2010PropOp36
 70
     1
102
RTVSPost2010Prop37
 90
       50
102
RTVSPost2010PropOp37
 70
     1
102
RTVSPost2010Prop38
140
0.0
102
RTVSPost2010PropOp38
 70
     1
102
RTVSPost2010Prop39
140
1.0
102
RTVSPost2010PropOp39
 70
     1
102
RTVSPost2010Prop40
 90
        0
102
RTVSPost2010PropOp40
 70
     1
102
RTVSPost2010Prop41ColorIndex
 90
       18
102
RTVSPost2010Prop41ColorRGB
 90
        0
102
RTVSPost2010PropOp41
 70
     1
102
RTVSPost2010Prop42
 90
       50
102
RTVSPost2010PropOp42
 70
     1
102
RTVSPost2010Prop43
 90
        3
102
RTVSPost2010PropOp43
 70
     1
102
RTVSPost2010Prop44ColorIndex
 90
        5
102
RTVSPost2010Prop44ColorRGB
 90
      255
102
RTVSPost2010PropOp44
 70
     1
102
RTVSPost2010Prop45
280
     0
102
RTVSPost2010PropOp45
 70
     1
102
RTVSPost2010Prop46
 90
       50
102
RTVSPost2010PropOp46
 70
     1
102
RTVSPost2010Prop47
 90
       50
102
RTVSPost2010PropOp47
 70
     1
102
RTVSPost2010Prop48
 90
       50
102
RTVSPost2010PropOp48
 70
     1
102
RTVSPost2010Prop49
280
     0
102
RTVSPost2010PropOp49
 70
     1
102
RTVSPost2010Prop50
 90
       50
102
RTVSPost2010PropOp50
 70
     1
102
RTVSPost2010Prop51ColorIndex
 90
      256
102
RTVSPost2010Prop51ColorRGB
 90
-16777216
102
RTVSPost2010PropOp51
 70
     0
102
RTVSPost2010Prop52
140
1.0
102
RTVSPost2010PropOp52
 70
     0
102
RTVSPost2010Prop53
 90
        2
102
RTVSPost2010PropOp53
 70
     1
102
RTVSPost2010Prop54
  1
strokes_ogs.tif
102
RTVSPost2010PropOp54
 70
     1
102
RTVSPost2010Prop55
280
     0
102
RTVSPost2010PropOp55
 70
     1
102
RTVSPost2010Prop56
140
1.0
102
RTVSPost2010PropOp56
 70
     1
102
RTVSPost2010Prop57
140
1.0
102
RTVSPost2010PropOp57
 70
     1
102
RTVSPropertyOp0
 70
     1
102
RTVSPropertyOp1
 70
     1
102
RTVSPropertyOp2
 70
     1
102
RTVSPropertyOp3
 70
     1
102
RTVSPropertyOp4
 70
     1
102
RTVSPropertyOp5
 70
     1
102
RTVSPropertyOp6
 70
     1
102
RTVSPropertyOp7
 70
     1
102
RTVSPropertyOp8
 70
     1
102
RTVSPropertyOp9
 70
     1
102
RTVSPropertyOp10
 70
     1
102
RTVSPropertyOp11
 70
     1
102
RTVSPropertyOp12
 70
     1
102
RTVSPropertyOp13
 70
     1
102
RTVSPropertyOp14
 70
     1
102
RTVSPropertyOp15
 70
     1
102
RTVSPropertyOp16
 70
     1
102
RTVSPropertyOp17
 70
     1
102
RTVSPropertyOp18
 70
     1
102
RTVSPropertyOp19
 70
     1
102
RTVSPropertyOp20
 70
     1
102
RTVSPropertyOp21
 70
     1
102
RTVSPropertyOp22
 70
     1
102
RTVSPropertyOp23
 70
     1
102
RTVSPropertyOp24
 70
     1
102
RTVSPropertyOp25
 70
     1
102
RTVSPropertyOp26
 70
     1
102
RTVSPropertyOp27
 70
     1
102
RTVSPropertyOp28
 70
     1
102
RTVSPropertyOp29
 70
     1
102
RTVSPropertyOp30
 70
     1
102
RTVSPropertyOp31
 70
     1
102
RTVSPropertyOp32
 70
     1
102
RTVSPropertyOp33
 70
     1
102
RTVSPropertyOp34
 70
     1
102
RTVSPropertyOp35
 70
     1
102
RTVSPropertyOp36
 70
     1
102
RTVSPropertyOp37
 70
     1
102
RTVSPropertyOp38
 70
     1
102
RTVSPropertyOp39
 70
     1
102
RTVSPropertyOp40
 70
     1
102
RTVSPropertyOp41
 70
     1
102
RTVSPropertyOp42
 70
     1
102
RTVSPropertyOp43
 70
     1
102
RTVSPropertyOp44
 70
     1
102
RTVSPropertyOp45
 70
     1
102
RTVSPropertyOp46
 70
     1
102
RTVSPropertyOp47
 70
     1
102
RTVSPropertyOp48
 70
     1
102
RTVSPropertyOp49
 70
     1
102
RTVSPropertyOp50
 70
     1
102
RTVSPropertyOp51
 70
     0
102
RTVSPropertyOp52
 70
     0
102
RTVSPropertyOp53
 70
     1
102
RTVSPropertyOp54
 70
     1
102
RTVSPropertyOp55
 70
     1
102
RTVSPropertyOp56
 70
     1
102
RTVSPropertyOp57
 70
     1
102
RTVSPropertyOp58
 70
     1
102
RTVSPropertyOp59
 70
     1
102
RTVSPropertyOp60
 70
     1
102
RTVSPropertyOp61
 70
     1
102
RTVSPropertyOp62
 70
     1
  0
XRECORD
  5
832F
102
{ACAD_REACTORS
330
832E
102
}
330
832E
100
AcDbXrecord
280
     1
102
RTVSPost2010Prop28
280
     0
102
RTVSPost2010PropOp28
 70
     1
102
RTVSPost2010Prop29
280
     1
102
RTVSPost2010PropOp29
 70
     1
102
RTVSPost2010Prop30
280
     1
102
RTVSPost2010PropOp30
 70
     1
102
RTVSPost2010Prop31
280
     0
102
RTVSPost2010PropOp31
 70
     1
102
RTVSPost2010Prop32
280
     0
102
RTVSPost2010PropOp32
 70
     1
102
RTVSPost2010Prop33
280
     0
102
RTVSPost2010PropOp33
 70
     1
102
RTVSPost2010Prop34
280
     0
102
RTVSPost2010PropOp34
 70
     1
102
RTVSPost2010Prop35
280
     0
102
RTVSPost2010PropOp35
 70
     1
102
RTVSPost2010Prop36
280
     0
102
RTVSPost2010PropOp36
 70
     1
102
RTVSPost2010Prop37
 90
       50
102
RTVSPost2010PropOp37
 70
     1
102
RTVSPost2010Prop38
140
0.0
102
RTVSPost2010PropOp38
 70
     1
102
RTVSPost2010Prop39
140
1.0
102
RTVSPost2010PropOp39
 70
     1
102
RTVSPost2010Prop40
 90
        0
102
RTVSPost2010PropOp40
 70
     1
102
RTVSPost2010Prop41ColorIndex
 90
       18
102
RTVSPost2010Prop41ColorRGB
 90
        0
102
RTVSPost2010PropOp41
 70
     1
102
RTVSPost2010Prop42
 90
       50
102
RTVSPost2010PropOp42
 70
     1
102
RTVSPost2010Prop43
 90
        3
102
RTVSPost2010PropOp43
 70
     1
102
RTVSPost2010Prop44ColorIndex
 90
        5
102
RTVSPost2010Prop44ColorRGB
 90
      255
102
RTVSPost2010PropOp44
 70
     1
102
RTVSPost2010Prop45
280
     0
102
RTVSPost2010PropOp45
 70
     1
102
RTVSPost2010Prop46
 90
       50
102
RTVSPost2010PropOp46
 70
     1
102
RTVSPost2010Prop47
 90
       50
102
RTVSPost2010PropOp47
 70
     1
102
RTVSPost2010Prop48
 90
       50
102
RTVSPost2010PropOp48
 70
     1
102
RTVSPost2010Prop49
280
     0
102
RTVSPost2010PropOp49
 70
     1
102
RTVSPost2010Prop50
 90
       50
102
RTVSPost2010PropOp50
 70
     1
102
RTVSPost2010Prop51ColorIndex
 90
      256
102
RTVSPost2010Prop51ColorRGB
 90
-16777216
102
RTVSPost2010PropOp51
 70
     0
102
RTVSPost2010Prop52
140
1.0
102
RTVSPost2010PropOp52
 70
     0
102
RTVSPost2010Prop53
 90
        2
102
RTVSPost2010PropOp53
 70
     1
102
RTVSPost2010Prop54
  1
strokes_ogs.tif
102
RTVSPost2010PropOp54
 70
     1
102
RTVSPost2010Prop55
280
     0
102
RTVSPost2010PropOp55
 70
     1
102
RTVSPost2010Prop56
140
1.0
102
RTVSPost2010PropOp56
 70
     1
102
RTVSPost2010Prop57
140
1.0
102
RTVSPost2010PropOp57
 70
     1
102
RTVSPropertyOp0
 70
     1
102
RTVSPropertyOp1
 70
     1
102
RTVSPropertyOp2
 70
     1
102
RTVSPropertyOp3
 70
     1
102
RTVSPropertyOp4
 70
     1
102
RTVSPropertyOp5
 70
     1
102
RTVSPropertyOp6
 70
     1
102
RTVSPropertyOp7
 70
     1
102
RTVSPropertyOp8
 70
     1
102
RTVSPropertyOp9
 70
     1
102
RTVSPropertyOp10
 70
     1
102
RTVSPropertyOp11
 70
     1
102
RTVSPropertyOp12
 70
     1
102
RTVSPropertyOp13
 70
     1
102
RTVSPropertyOp14
 70
     1
102
RTVSPropertyOp15
 70
     1
102
RTVSPropertyOp16
 70
     1
102
RTVSPropertyOp17
 70
     1
102
RTVSPropertyOp18
 70
     1
102
RTVSPropertyOp19
 70
     1
102
RTVSPropertyOp20
 70
     1
102
RTVSPropertyOp21
 70
     1
102
RTVSPropertyOp22
 70
     1
102
RTVSPropertyOp23
 70
     1
102
RTVSPropertyOp24
 70
     1
102
RTVSPropertyOp25
 70
     1
102
RTVSPropertyOp26
 70
     1
102
RTVSPropertyOp27
 70
     1
102
RTVSPropertyOp28
 70
     1
102
RTVSPropertyOp29
 70
     1
102
RTVSPropertyOp30
 70
     1
102
RTVSPropertyOp31
 70
     1
102
RTVSPropertyOp32
 70
     1
102
RTVSPropertyOp33
 70
     1
102
RTVSPropertyOp34
 70
     1
102
RTVSPropertyOp35
 70
     1
102
RTVSPropertyOp36
 70
     1
102
RTVSPropertyOp37
 70
     1
102
RTVSPropertyOp38
 70
     1
102
RTVSPropertyOp39
 70
     1
102
RTVSPropertyOp40
 70
     1
102
RTVSPropertyOp41
 70
     1
102
RTVSPropertyOp42
 70
     1
102
RTVSPropertyOp43
 70
     1
102
RTVSPropertyOp44
 70
     1
102
RTVSPropertyOp45
 70
     1
102
RTVSPropertyOp46
 70
     1
102
RTVSPropertyOp47
 70
     1
102
RTVSPropertyOp48
 70
     1
102
RTVSPropertyOp49
 70
     1
102
RTVSPropertyOp50
 70
     1
102
RTVSPropertyOp51
 70
     0
102
RTVSPropertyOp52
 70
     0
102
RTVSPropertyOp53
 70
     1
102
RTVSPropertyOp54
 70
     1
102
RTVSPropertyOp55
 70
     1
102
RTVSPropertyOp56
 70
     1
102
RTVSPropertyOp57
 70
     1
102
RTVSPropertyOp58
 70
     1
102
RTVSPropertyOp59
 70
     1
102
RTVSPropertyOp60
 70
     1
102
RTVSPropertyOp61
 70
     1
102
RTVSPropertyOp62
 70
     1
  0
XRECORD
  5
8329
102
{ACAD_REACTORS
330
8328
102
}
330
8328
100
AcDbXrecord
280
     1
102
RTVSPost2010Prop28
280
     0
102
RTVSPost2010PropOp28
 70
     1
102
RTVSPost2010Prop29
280
     1
102
RTVSPost2010PropOp29
 70
     1
102
RTVSPost2010Prop30
280
     1
102
RTVSPost2010PropOp30
 70
     1
102
RTVSPost2010Prop31
280
     0
102
RTVSPost2010PropOp31
 70
     1
102
RTVSPost2010Prop32
280
     0
102
RTVSPost2010PropOp32
 70
     1
102
RTVSPost2010Prop33
280
     0
102
RTVSPost2010PropOp33
 70
     1
102
RTVSPost2010Prop34
280
     0
102
RTVSPost2010PropOp34
 70
     1
102
RTVSPost2010Prop35
280
     0
102
RTVSPost2010PropOp35
 70
     1
102
RTVSPost2010Prop36
280
     0
102
RTVSPost2010PropOp36
 70
     1
102
RTVSPost2010Prop37
 90
       50
102
RTVSPost2010PropOp37
 70
     1
102
RTVSPost2010Prop38
140
0.0
102
RTVSPost2010PropOp38
 70
     1
102
RTVSPost2010Prop39
140
1.0
102
RTVSPost2010PropOp39
 70
     1
102
RTVSPost2010Prop40
 90
        0
102
RTVSPost2010PropOp40
 70
     1
102
RTVSPost2010Prop41ColorIndex
 90
       18
102
RTVSPost2010Prop41ColorRGB
 90
        0
102
RTVSPost2010PropOp41
 70
     1
102
RTVSPost2010Prop42
 90
       50
102
RTVSPost2010PropOp42
 70
     1
102
RTVSPost2010Prop43
 90
        3
102
RTVSPost2010PropOp43
 70
     1
102
RTVSPost2010Prop44ColorIndex
 90
        5
102
RTVSPost2010Prop44ColorRGB
 90
      255
102
RTVSPost2010PropOp44
 70
     1
102
RTVSPost2010Prop45
280
     0
102
RTVSPost2010PropOp45
 70
     1
102
RTVSPost2010Prop46
 90
       50
102
RTVSPost2010PropOp46
 70
     1
102
RTVSPost2010Prop47
 90
       50
102
RTVSPost2010PropOp47
 70
     1
102
RTVSPost2010Prop48
 90
       50
102
RTVSPost2010PropOp48
 70
     1
102
RTVSPost2010Prop49
280
     0
102
RTVSPost2010PropOp49
 70
     1
102
RTVSPost2010Prop50
 90
       50
102
RTVSPost2010PropOp50
 70
     1
102
RTVSPost2010Prop51ColorIndex
 90
      256
102
RTVSPost2010Prop51ColorRGB
 90
-16777216
102
RTVSPost2010PropOp51
 70
     0
102
RTVSPost2010Prop52
140
1.0
102
RTVSPost2010PropOp52
 70
     0
102
RTVSPost2010Prop53
 90
        2
102
RTVSPost2010PropOp53
 70
     1
102
RTVSPost2010Prop54
  1
strokes_ogs.tif
102
RTVSPost2010PropOp54
 70
     1
102
RTVSPost2010Prop55
280
     0
102
RTVSPost2010PropOp55
 70
     1
102
RTVSPost2010Prop56
140
1.0
102
RTVSPost2010PropOp56
 70
     1
102
RTVSPost2010Prop57
140
1.0
102
RTVSPost2010PropOp57
 70
     1
102
RTVSPropertyOp0
 70
     1
102
RTVSPropertyOp1
 70
     1
102
RTVSPropertyOp2
 70
     1
102
RTVSPropertyOp3
 70
     1
102
RTVSPropertyOp4
 70
     1
102
RTVSPropertyOp5
 70
     1
102
RTVSPropertyOp6
 70
     1
102
RTVSPropertyOp7
 70
     1
102
RTVSPropertyOp8
 70
     1
102
RTVSPropertyOp9
 70
     1
102
RTVSPropertyOp10
 70
     1
102
RTVSPropertyOp11
 70
     1
102
RTVSPropertyOp12
 70
     1
102
RTVSPropertyOp13
 70
     1
102
RTVSPropertyOp14
 70
     1
102
RTVSPropertyOp15
 70
     1
102
RTVSPropertyOp16
 70
     1
102
RTVSPropertyOp17
 70
     1
102
RTVSPropertyOp18
 70
     1
102
RTVSPropertyOp19
 70
     1
102
RTVSPropertyOp20
 70
     1
102
RTVSPropertyOp21
 70
     1
102
RTVSPropertyOp22
 70
     1
102
RTVSPropertyOp23
 70
     1
102
RTVSPropertyOp24
 70
     1
102
RTVSPropertyOp25
 70
     1
102
RTVSPropertyOp26
 70
     1
102
RTVSPropertyOp27
 70
     1
102
RTVSPropertyOp28
 70
     1
102
RTVSPropertyOp29
 70
     1
102
RTVSPropertyOp30
 70
     1
102
RTVSPropertyOp31
 70
     1
102
RTVSPropertyOp32
 70
     1
102
RTVSPropertyOp33
 70
     1
102
RTVSPropertyOp34
 70
     1
102
RTVSPropertyOp35
 70
     1
102
RTVSPropertyOp36
 70
     1
102
RTVSPropertyOp37
 70
     1
102
RTVSPropertyOp38
 70
     1
102
RTVSPropertyOp39
 70
     1
102
RTVSPropertyOp40
 70
     1
102
RTVSPropertyOp41
 70
     1
102
RTVSPropertyOp42
 70
     1
102
RTVSPropertyOp43
 70
     1
102
RTVSPropertyOp44
 70
     1
102
RTVSPropertyOp45
 70
     1
102
RTVSPropertyOp46
 70
     1
102
RTVSPropertyOp47
 70
     1
102
RTVSPropertyOp48
 70
     1
102
RTVSPropertyOp49
 70
     1
102
RTVSPropertyOp50
 70
     1
102
RTVSPropertyOp51
 70
     0
102
RTVSPropertyOp52
 70
     0
102
RTVSPropertyOp53
 70
     1
102
RTVSPropertyOp54
 70
     1
102
RTVSPropertyOp55
 70
     1
102
RTVSPropertyOp56
 70
     1
102
RTVSPropertyOp57
 70
     1
102
RTVSPropertyOp58
 70
     1
102
RTVSPropertyOp59
 70
     1
102
RTVSPropertyOp60
 70
     1
102
RTVSPropertyOp61
 70
     1
102
RTVSPropertyOp62
 70
     1
  0
XRECORD
  5
832B
102
{ACAD_REACTORS
330
832A
102
}
330
832A
100
AcDbXrecord
280
     1
102
RTVSPost2010Prop28
280
     0
102
RTVSPost2010PropOp28
 70
     1
102
RTVSPost2010Prop29
280
     1
102
RTVSPost2010PropOp29
 70
     1
102
RTVSPost2010Prop30
280
     1
102
RTVSPost2010PropOp30
 70
     1
102
RTVSPost2010Prop31
280
     0
102
RTVSPost2010PropOp31
 70
     1
102
RTVSPost2010Prop32
280
     0
102
RTVSPost2010PropOp32
 70
     1
102
RTVSPost2010Prop33
280
     0
102
RTVSPost2010PropOp33
 70
     1
102
RTVSPost2010Prop34
280
     0
102
RTVSPost2010PropOp34
 70
     1
102
RTVSPost2010Prop35
280
     0
102
RTVSPost2010PropOp35
 70
     1
102
RTVSPost2010Prop36
280
     0
102
RTVSPost2010PropOp36
 70
     1
102
RTVSPost2010Prop37
 90
       50
102
RTVSPost2010PropOp37
 70
     1
102
RTVSPost2010Prop38
140
0.0
102
RTVSPost2010PropOp38
 70
     1
102
RTVSPost2010Prop39
140
1.0
102
RTVSPost2010PropOp39
 70
     1
102
RTVSPost2010Prop40
 90
        0
102
RTVSPost2010PropOp40
 70
     1
102
RTVSPost2010Prop41ColorIndex
 90
       18
102
RTVSPost2010Prop41ColorRGB
 90
        0
102
RTVSPost2010PropOp41
 70
     1
102
RTVSPost2010Prop42
 90
       50
102
RTVSPost2010PropOp42
 70
     1
102
RTVSPost2010Prop43
 90
        3
102
RTVSPost2010PropOp43
 70
     1
102
RTVSPost2010Prop44ColorIndex
 90
        5
102
RTVSPost2010Prop44ColorRGB
 90
      255
102
RTVSPost2010PropOp44
 70
     1
102
RTVSPost2010Prop45
280
     0
102
RTVSPost2010PropOp45
 70
     1
102
RTVSPost2010Prop46
 90
       50
102
RTVSPost2010PropOp46
 70
     1
102
RTVSPost2010Prop47
 90
       50
102
RTVSPost2010PropOp47
 70
     1
102
RTVSPost2010Prop48
 90
       50
102
RTVSPost2010PropOp48
 70
     1
102
RTVSPost2010Prop49
280
     0
102
RTVSPost2010PropOp49
 70
     1
102
RTVSPost2010Prop50
 90
       50
102
RTVSPost2010PropOp50
 70
     1
102
RTVSPost2010Prop51ColorIndex
 90
      256
102
RTVSPost2010Prop51ColorRGB
 90
-16777216
102
RTVSPost2010PropOp51
 70
     0
102
RTVSPost2010Prop52
140
1.0
102
RTVSPost2010PropOp52
 70
     0
102
RTVSPost2010Prop53
 90
        2
102
RTVSPost2010PropOp53
 70
     1
102
RTVSPost2010Prop54
  1
strokes_ogs.tif
102
RTVSPost2010PropOp54
 70
     1
102
RTVSPost2010Prop55
280
     0
102
RTVSPost2010PropOp55
 70
     1
102
RTVSPost2010Prop56
140
1.0
102
RTVSPost2010PropOp56
 70
     1
102
RTVSPost2010Prop57
140
1.0
102
RTVSPost2010PropOp57
 70
     1
102
RTVSPropertyOp0
 70
     1
102
RTVSPropertyOp1
 70
     1
102
RTVSPropertyOp2
 70
     1
102
RTVSPropertyOp3
 70
     1
102
RTVSPropertyOp4
 70
     1
102
RTVSPropertyOp5
 70
     1
102
RTVSPropertyOp6
 70
     1
102
RTVSPropertyOp7
 70
     1
102
RTVSPropertyOp8
 70
     1
102
RTVSPropertyOp9
 70
     1
102
RTVSPropertyOp10
 70
     1
102
RTVSPropertyOp11
 70
     1
102
RTVSPropertyOp12
 70
     1
102
RTVSPropertyOp13
 70
     1
102
RTVSPropertyOp14
 70
     1
102
RTVSPropertyOp15
 70
     1
102
RTVSPropertyOp16
 70
     1
102
RTVSPropertyOp17
 70
     1
102
RTVSPropertyOp18
 70
     1
102
RTVSPropertyOp19
 70
     1
102
RTVSPropertyOp20
 70
     1
102
RTVSPropertyOp21
 70
     1
102
RTVSPropertyOp22
 70
     1
102
RTVSPropertyOp23
 70
     1
102
RTVSPropertyOp24
 70
     1
102
RTVSPropertyOp25
 70
     1
102
RTVSPropertyOp26
 70
     1
102
RTVSPropertyOp27
 70
     1
102
RTVSPropertyOp28
 70
     1
102
RTVSPropertyOp29
 70
     1
102
RTVSPropertyOp30
 70
     1
102
RTVSPropertyOp31
 70
     1
102
RTVSPropertyOp32
 70
     1
102
RTVSPropertyOp33
 70
     1
102
RTVSPropertyOp34
 70
     1
102
RTVSPropertyOp35
 70
     1
102
RTVSPropertyOp36
 70
     1
102
RTVSPropertyOp37
 70
     1
102
RTVSPropertyOp38
 70
     1
102
RTVSPropertyOp39
 70
     1
102
RTVSPropertyOp40
 70
     1
102
RTVSPropertyOp41
 70
     1
102
RTVSPropertyOp42
 70
     1
102
RTVSPropertyOp43
 70
     1
102
RTVSPropertyOp44
 70
     1
102
RTVSPropertyOp45
 70
     1
102
RTVSPropertyOp46
 70
     1
102
RTVSPropertyOp47
 70
     1
102
RTVSPropertyOp48
 70
     1
102
RTVSPropertyOp49
 70
     1
102
RTVSPropertyOp50
 70
     1
102
RTVSPropertyOp51
 70
     0
102
RTVSPropertyOp52
 70
     0
102
RTVSPropertyOp53
 70
     1
102
RTVSPropertyOp54
 70
     1
102
RTVSPropertyOp55
 70
     1
102
RTVSPropertyOp56
 70
     1
102
RTVSPropertyOp57
 70
     1
102
RTVSPropertyOp58
 70
     1
102
RTVSPropertyOp59
 70
     1
102
RTVSPropertyOp60
 70
     1
102
RTVSPropertyOp61
 70
     1
102
RTVSPropertyOp62
 70
     1
  0
XRECORD
  5
8317
102
{ACAD_REACTORS
330
8316
102
}
330
8316
100
AcDbXrecord
280
     1
102
RTVSPost2010Prop28
280
     0
102
RTVSPost2010PropOp28
 70
     1
102
RTVSPost2010Prop29
280
     1
102
RTVSPost2010PropOp29
 70
     1
102
RTVSPost2010Prop30
280
     1
102
RTVSPost2010PropOp30
 70
     1
102
RTVSPost2010Prop31
280
     0
102
RTVSPost2010PropOp31
 70
     1
102
RTVSPost2010Prop32
280
     0
102
RTVSPost2010PropOp32
 70
     1
102
RTVSPost2010Prop33
280
     0
102
RTVSPost2010PropOp33
 70
     1
102
RTVSPost2010Prop34
280
     0
102
RTVSPost2010PropOp34
 70
     1
102
RTVSPost2010Prop35
280
     0
102
RTVSPost2010PropOp35
 70
     1
102
RTVSPost2010Prop36
280
     0
102
RTVSPost2010PropOp36
 70
     1
102
RTVSPost2010Prop37
 90
       50
102
RTVSPost2010PropOp37
 70
     1
102
RTVSPost2010Prop38
140
0.0
102
RTVSPost2010PropOp38
 70
     1
102
RTVSPost2010Prop39
140
1.0
102
RTVSPost2010PropOp39
 70
     1
102
RTVSPost2010Prop40
 90
        0
102
RTVSPost2010PropOp40
 70
     1
102
RTVSPost2010Prop41ColorIndex
 90
       18
102
RTVSPost2010Prop41ColorRGB
 90
        0
102
RTVSPost2010PropOp41
 70
     1
102
RTVSPost2010Prop42
 90
       50
102
RTVSPost2010PropOp42
 70
     1
102
RTVSPost2010Prop43
 90
        3
102
RTVSPost2010PropOp43
 70
     1
102
RTVSPost2010Prop44ColorIndex
 90
        5
102
RTVSPost2010Prop44ColorRGB
 90
      255
102
RTVSPost2010PropOp44
 70
     1
102
RTVSPost2010Prop45
280
     0
102
RTVSPost2010PropOp45
 70
     1
102
RTVSPost2010Prop46
 90
       50
102
RTVSPost2010PropOp46
 70
     1
102
RTVSPost2010Prop47
 90
       50
102
RTVSPost2010PropOp47
 70
     1
102
RTVSPost2010Prop48
 90
       50
102
RTVSPost2010PropOp48
 70
     1
102
RTVSPost2010Prop49
280
     0
102
RTVSPost2010PropOp49
 70
     1
102
RTVSPost2010Prop50
 90
       50
102
RTVSPost2010PropOp50
 70
     1
102
RTVSPost2010Prop51ColorIndex
 90
      256
102
RTVSPost2010Prop51ColorRGB
 90
-16777216
102
RTVSPost2010PropOp51
 70
     0
102
RTVSPost2010Prop52
140
1.0
102
RTVSPost2010PropOp52
 70
     0
102
RTVSPost2010Prop53
 90
        2
102
RTVSPost2010PropOp53
 70
     1
102
RTVSPost2010Prop54
  1
strokes_ogs.tif
102
RTVSPost2010PropOp54
 70
     1
102
RTVSPost2010Prop55
280
     0
102
RTVSPost2010PropOp55
 70
     1
102
RTVSPost2010Prop56
140
1.0
102
RTVSPost2010PropOp56
 70
     1
102
RTVSPost2010Prop57
140
1.0
102
RTVSPost2010PropOp57
 70
     1
102
RTVSPropertyOp0
 70
     1
102
RTVSPropertyOp1
 70
     1
102
RTVSPropertyOp2
 70
     1
102
RTVSPropertyOp3
 70
     1
102
RTVSPropertyOp4
 70
     1
102
RTVSPropertyOp5
 70
     1
102
RTVSPropertyOp6
 70
     1
102
RTVSPropertyOp7
 70
     1
102
RTVSPropertyOp8
 70
     1
102
RTVSPropertyOp9
 70
     1
102
RTVSPropertyOp10
 70
     1
102
RTVSPropertyOp11
 70
     1
102
RTVSPropertyOp12
 70
     1
102
RTVSPropertyOp13
 70
     1
102
RTVSPropertyOp14
 70
     1
102
RTVSPropertyOp15
 70
     1
102
RTVSPropertyOp16
 70
     1
102
RTVSPropertyOp17
 70
     1
102
RTVSPropertyOp18
 70
     1
102
RTVSPropertyOp19
 70
     1
102
RTVSPropertyOp20
 70
     1
102
RTVSPropertyOp21
 70
     1
102
RTVSPropertyOp22
 70
     1
102
RTVSPropertyOp23
 70
     1
102
RTVSPropertyOp24
 70
     1
102
RTVSPropertyOp25
 70
     1
102
RTVSPropertyOp26
 70
     1
102
RTVSPropertyOp27
 70
     1
102
RTVSPropertyOp28
 70
     1
102
RTVSPropertyOp29
 70
     1
102
RTVSPropertyOp30
 70
     1
102
RTVSPropertyOp31
 70
     1
102
RTVSPropertyOp32
 70
     1
102
RTVSPropertyOp33
 70
     1
102
RTVSPropertyOp34
 70
     1
102
RTVSPropertyOp35
 70
     1
102
RTVSPropertyOp36
 70
     1
102
RTVSPropertyOp37
 70
     1
102
RTVSPropertyOp38
 70
     1
102
RTVSPropertyOp39
 70
     1
102
RTVSPropertyOp40
 70
     1
102
RTVSPropertyOp41
 70
     1
102
RTVSPropertyOp42
 70
     1
102
RTVSPropertyOp43
 70
     1
102
RTVSPropertyOp44
 70
     1
102
RTVSPropertyOp45
 70
     1
102
RTVSPropertyOp46
 70
     1
102
RTVSPropertyOp47
 70
     1
102
RTVSPropertyOp48
 70
     1
102
RTVSPropertyOp49
 70
     1
102
RTVSPropertyOp50
 70
     1
102
RTVSPropertyOp51
 70
     0
102
RTVSPropertyOp52
 70
     0
102
RTVSPropertyOp53
 70
     1
102
RTVSPropertyOp54
 70
     1
102
RTVSPropertyOp55
 70
     1
102
RTVSPropertyOp56
 70
     1
102
RTVSPropertyOp57
 70
     1
102
RTVSPropertyOp58
 70
     1
102
RTVSPropertyOp59
 70
     1
102
RTVSPropertyOp60
 70
     1
102
RTVSPropertyOp61
 70
     1
102
RTVSPropertyOp62
 70
     1
  0
XRECORD
  5
8325
102
{ACAD_REACTORS
330
8324
102
}
330
8324
100
AcDbXrecord
280
     1
102
RTVSPost2010Prop28
280
     0
102
RTVSPost2010PropOp28
 70
     1
102
RTVSPost2010Prop29
280
     1
102
RTVSPost2010PropOp29
 70
     1
102
RTVSPost2010Prop30
280
     1
102
RTVSPost2010PropOp30
 70
     1
102
RTVSPost2010Prop31
280
     0
102
RTVSPost2010PropOp31
 70
     1
102
RTVSPost2010Prop32
280
     0
102
RTVSPost2010PropOp32
 70
     1
102
RTVSPost2010Prop33
280
     0
102
RTVSPost2010PropOp33
 70
     1
102
RTVSPost2010Prop34
280
     0
102
RTVSPost2010PropOp34
 70
     1
102
RTVSPost2010Prop35
280
     0
102
RTVSPost2010PropOp35
 70
     1
102
RTVSPost2010Prop36
280
     0
102
RTVSPost2010PropOp36
 70
     1
102
RTVSPost2010Prop37
 90
       50
102
RTVSPost2010PropOp37
 70
     1
102
RTVSPost2010Prop38
140
0.0
102
RTVSPost2010PropOp38
 70
     1
102
RTVSPost2010Prop39
140
1.0
102
RTVSPost2010PropOp39
 70
     1
102
RTVSPost2010Prop40
 90
        0
102
RTVSPost2010PropOp40
 70
     1
102
RTVSPost2010Prop41ColorIndex
 90
       18
102
RTVSPost2010Prop41ColorRGB
 90
        0
102
RTVSPost2010PropOp41
 70
     1
102
RTVSPost2010Prop42
 90
       50
102
RTVSPost2010PropOp42
 70
     1
102
RTVSPost2010Prop43
 90
        3
102
RTVSPost2010PropOp43
 70
     1
102
RTVSPost2010Prop44ColorIndex
 90
        5
102
RTVSPost2010Prop44ColorRGB
 90
      255
102
RTVSPost2010PropOp44
 70
     1
102
RTVSPost2010Prop45
280
     0
102
RTVSPost2010PropOp45
 70
     1
102
RTVSPost2010Prop46
 90
       50
102
RTVSPost2010PropOp46
 70
     1
102
RTVSPost2010Prop47
 90
       50
102
RTVSPost2010PropOp47
 70
     1
102
RTVSPost2010Prop48
 90
       50
102
RTVSPost2010PropOp48
 70
     1
102
RTVSPost2010Prop49
280
     0
102
RTVSPost2010PropOp49
 70
     1
102
RTVSPost2010Prop50
 90
       50
102
RTVSPost2010PropOp50
 70
     1
102
RTVSPost2010Prop51ColorIndex
 90
      256
102
RTVSPost2010Prop51ColorRGB
 90
-16777216
102
RTVSPost2010PropOp51
 70
     0
102
RTVSPost2010Prop52
140
1.0
102
RTVSPost2010PropOp52
 70
     0
102
RTVSPost2010Prop53
 90
        2
102
RTVSPost2010PropOp53
 70
     1
102
RTVSPost2010Prop54
  1
strokes_ogs.tif
102
RTVSPost2010PropOp54
 70
     1
102
RTVSPost2010Prop55
280
     0
102
RTVSPost2010PropOp55
 70
     1
102
RTVSPost2010Prop56
140
1.0
102
RTVSPost2010PropOp56
 70
     1
102
RTVSPost2010Prop57
140
1.0
102
RTVSPost2010PropOp57
 70
     1
102
RTVSPropertyOp0
 70
     1
102
RTVSPropertyOp1
 70
     1
102
RTVSPropertyOp2
 70
     1
102
RTVSPropertyOp3
 70
     1
102
RTVSPropertyOp4
 70
     1
102
RTVSPropertyOp5
 70
     1
102
RTVSPropertyOp6
 70
     1
102
RTVSPropertyOp7
 70
     1
102
RTVSPropertyOp8
 70
     1
102
RTVSPropertyOp9
 70
     1
102
RTVSPropertyOp10
 70
     1
102
RTVSPropertyOp11
 70
     1
102
RTVSPropertyOp12
 70
     1
102
RTVSPropertyOp13
 70
     1
102
RTVSPropertyOp14
 70
     1
102
RTVSPropertyOp15
 70
     1
102
RTVSPropertyOp16
 70
     1
102
RTVSPropertyOp17
 70
     1
102
RTVSPropertyOp18
 70
     1
102
RTVSPropertyOp19
 70
     1
102
RTVSPropertyOp20
 70
     1
102
RTVSPropertyOp21
 70
     1
102
RTVSPropertyOp22
 70
     1
102
RTVSPropertyOp23
 70
     1
102
RTVSPropertyOp24
 70
     1
102
RTVSPropertyOp25
 70
     1
102
RTVSPropertyOp26
 70
     1
102
RTVSPropertyOp27
 70
     1
102
RTVSPropertyOp28
 70
     1
102
RTVSPropertyOp29
 70
     1
102
RTVSPropertyOp30
 70
     1
102
RTVSPropertyOp31
 70
     1
102
RTVSPropertyOp32
 70
     1
102
RTVSPropertyOp33
 70
     1
102
RTVSPropertyOp34
 70
     1
102
RTVSPropertyOp35
 70
     1
102
RTVSPropertyOp36
 70
     1
102
RTVSPropertyOp37
 70
     1
102
RTVSPropertyOp38
 70
     1
102
RTVSPropertyOp39
 70
     1
102
RTVSPropertyOp40
 70
     1
102
RTVSPropertyOp41
 70
     1
102
RTVSPropertyOp42
 70
     1
102
RTVSPropertyOp43
 70
     1
102
RTVSPropertyOp44
 70
     1
102
RTVSPropertyOp45
 70
     1
102
RTVSPropertyOp46
 70
     1
102
RTVSPropertyOp47
 70
     1
102
RTVSPropertyOp48
 70
     1
102
RTVSPropertyOp49
 70
     1
102
RTVSPropertyOp50
 70
     1
102
RTVSPropertyOp51
 70
     0
102
RTVSPropertyOp52
 70
     0
102
RTVSPropertyOp53
 70
     1
102
RTVSPropertyOp54
 70
     1
102
RTVSPropertyOp55
 70
     1
102
RTVSPropertyOp56
 70
     1
102
RTVSPropertyOp57
 70
     1
102
RTVSPropertyOp58
 70
     1
102
RTVSPropertyOp59
 70
     1
102
RTVSPropertyOp60
 70
     1
102
RTVSPropertyOp61
 70
     1
102
RTVSPropertyOp62
 70
     1
  0
XRECORD
  5
832D
102
{ACAD_REACTORS
330
832C
102
}
330
832C
100
AcDbXrecord
280
     1
102
RTVSPost2010Prop28
280
     0
102
RTVSPost2010PropOp28
 70
     1
102
RTVSPost2010Prop29
280
     1
102
RTVSPost2010PropOp29
 70
     1
102
RTVSPost2010Prop30
280
     1
102
RTVSPost2010PropOp30
 70
     1
102
RTVSPost2010Prop31
280
     0
102
RTVSPost2010PropOp31
 70
     1
102
RTVSPost2010Prop32
280
     0
102
RTVSPost2010PropOp32
 70
     1
102
RTVSPost2010Prop33
280
     0
102
RTVSPost2010PropOp33
 70
     1
102
RTVSPost2010Prop34
280
     0
102
RTVSPost2010PropOp34
 70
     1
102
RTVSPost2010Prop35
280
     0
102
RTVSPost2010PropOp35
 70
     1
102
RTVSPost2010Prop36
280
     0
102
RTVSPost2010PropOp36
 70
     1
102
RTVSPost2010Prop37
 90
       50
102
RTVSPost2010PropOp37
 70
     1
102
RTVSPost2010Prop38
140
0.0
102
RTVSPost2010PropOp38
 70
     1
102
RTVSPost2010Prop39
140
1.0
102
RTVSPost2010PropOp39
 70
     1
102
RTVSPost2010Prop40
 90
        0
102
RTVSPost2010PropOp40
 70
     1
102
RTVSPost2010Prop41ColorIndex
 90
       18
102
RTVSPost2010Prop41ColorRGB
 90
        0
102
RTVSPost2010PropOp41
 70
     1
102
RTVSPost2010Prop42
 90
       50
102
RTVSPost2010PropOp42
 70
     1
102
RTVSPost2010Prop43
 90
        3
102
RTVSPost2010PropOp43
 70
     1
102
RTVSPost2010Prop44ColorIndex
 90
        5
102
RTVSPost2010Prop44ColorRGB
 90
      255
102
RTVSPost2010PropOp44
 70
     1
102
RTVSPost2010Prop45
280
     0
102
RTVSPost2010PropOp45
 70
     1
102
RTVSPost2010Prop46
 90
       50
102
RTVSPost2010PropOp46
 70
     1
102
RTVSPost2010Prop47
 90
       50
102
RTVSPost2010PropOp47
 70
     1
102
RTVSPost2010Prop48
 90
       50
102
RTVSPost2010PropOp48
 70
     1
102
RTVSPost2010Prop49
280
     0
102
RTVSPost2010PropOp49
 70
     1
102
RTVSPost2010Prop50
 90
       50
102
RTVSPost2010PropOp50
 70
     1
102
RTVSPost2010Prop51ColorIndex
 90
      256
102
RTVSPost2010Prop51ColorRGB
 90
-16777216
102
RTVSPost2010PropOp51
 70
     0
102
RTVSPost2010Prop52
140
1.0
102
RTVSPost2010PropOp52
 70
     0
102
RTVSPost2010Prop53
 90
        2
102
RTVSPost2010PropOp53
 70
     1
102
RTVSPost2010Prop54
  1
strokes_ogs.tif
102
RTVSPost2010PropOp54
 70
     1
102
RTVSPost2010Prop55
280
     0
102
RTVSPost2010PropOp55
 70
     1
102
RTVSPost2010Prop56
140
1.0
102
RTVSPost2010PropOp56
 70
     1
102
RTVSPost2010Prop57
140
1.0
102
RTVSPost2010PropOp57
 70
     1
102
RTVSPropertyOp0
 70
     1
102
RTVSPropertyOp1
 70
     1
102
RTVSPropertyOp2
 70
     1
102
RTVSPropertyOp3
 70
     1
102
RTVSPropertyOp4
 70
     1
102
RTVSPropertyOp5
 70
     1
102
RTVSPropertyOp6
 70
     1
102
RTVSPropertyOp7
 70
     1
102
RTVSPropertyOp8
 70
     1
102
RTVSPropertyOp9
 70
     1
102
RTVSPropertyOp10
 70
     1
102
RTVSPropertyOp11
 70
     1
102
RTVSPropertyOp12
 70
     1
102
RTVSPropertyOp13
 70
     1
102
RTVSPropertyOp14
 70
     1
102
RTVSPropertyOp15
 70
     1
102
RTVSPropertyOp16
 70
     1
102
RTVSPropertyOp17
 70
     1
102
RTVSPropertyOp18
 70
     1
102
RTVSPropertyOp19
 70
     1
102
RTVSPropertyOp20
 70
     1
102
RTVSPropertyOp21
 70
     1
102
RTVSPropertyOp22
 70
     1
102
RTVSPropertyOp23
 70
     1
102
RTVSPropertyOp24
 70
     1
102
RTVSPropertyOp25
 70
     1
102
RTVSPropertyOp26
 70
     1
102
RTVSPropertyOp27
 70
     1
102
RTVSPropertyOp28
 70
     1
102
RTVSPropertyOp29
 70
     1
102
RTVSPropertyOp30
 70
     1
102
RTVSPropertyOp31
 70
     1
102
RTVSPropertyOp32
 70
     1
102
RTVSPropertyOp33
 70
     1
102
RTVSPropertyOp34
 70
     1
102
RTVSPropertyOp35
 70
     1
102
RTVSPropertyOp36
 70
     1
102
RTVSPropertyOp37
 70
     1
102
RTVSPropertyOp38
 70
     1
102
RTVSPropertyOp39
 70
     1
102
RTVSPropertyOp40
 70
     1
102
RTVSPropertyOp41
 70
     1
102
RTVSPropertyOp42
 70
     1
102
RTVSPropertyOp43
 70
     1
102
RTVSPropertyOp44
 70
     1
102
RTVSPropertyOp45
 70
     1
102
RTVSPropertyOp46
 70
     1
102
RTVSPropertyOp47
 70
     1
102
RTVSPropertyOp48
 70
     1
102
RTVSPropertyOp49
 70
     1
102
RTVSPropertyOp50
 70
     1
102
RTVSPropertyOp51
 70
     0
102
RTVSPropertyOp52
 70
     0
102
RTVSPropertyOp53
 70
     1
102
RTVSPropertyOp54
 70
     1
102
RTVSPropertyOp55
 70
     1
102
RTVSPropertyOp56
 70
     1
102
RTVSPropertyOp57
 70
     1
102
RTVSPropertyOp58
 70
     1
102
RTVSPropertyOp59
 70
     1
102
RTVSPropertyOp60
 70
     1
102
RTVSPropertyOp61
 70
     1
102
RTVSPropertyOp62
 70
     1
  0
ENDSEC
  0
EOF
