  0
SECTION
  2
HEADER
  9
$ACADVER
  1
AC1009
  9
$INSBASE
 10
0.0
 20
0.0
 30
0.0
  9
$EXTMIN
 10
-0.7047249471918243
 20
-1.0573512447404181
 30
-0.062
  9
$EXTMAX
 10
4.6848855196941432
 20
1.7388919542111889
 30
0.0
  9
$LIMMIN
 10
0.0
 20
0.0
  9
$LIMMAX
 10
17.0
 20
11.0
  9
$ORTHOMODE
 70
     1
  9
$REGENMODE
 70
     1
  9
$FILLMODE
 70
     1
  9
$QTEXTMODE
 70
     0
  9
$MIRRTEXT
 70
     0
  9
$DRAGMODE
 70
     2
  9
$LTSCALE
 40
1.0
  9
$OSMODE
 70
   183
  9
$ATTMODE
 70
     1
  9
$TEXTSIZE
 40
0.1386260590296713
  9
$TRACEWID
 40
0.05
  9
$TEXTSTYLE
  7
STANDARD
  9
$CLAYER
  8
PCB_BOT
  9
$CELTYPE
  6
BYLAYER
  9
$CECOLOR
 62
   256
  9
$DIMSCALE
 40
1.0
  9
$DIMASZ
 40
0.125
  9
$DIMEXO
 40
0.0625
  9
$DIMDLI
 40
0.38
  9
$DIMRND
 40
0.0
  9
$DIMDLE
 40
0.0
  9
$DIMEXE
 40
0.08
  9
$DIMTP
 40
0.0
  9
$DIMTM
 40
0.0
  9
$DIMTXT
 40
0.09
  9
$DIMCEN
 40
0.09
  9
$DIMTSZ
 40
0.0
  9
$DIMTOL
 70
     0
  9
$DIMLIM
 70
     0
  9
$DIMTIH
 70
     1
  9
$DIMTOH
 70
     1
  9
$DIMSE1
 70
     0
  9
$DIMSE2
 70
     0
  9
$DIMTAD
 70
     0
  9
$DIMZIN
 70
     4
  9
$DIMBLK
  1

  9
$DIMASO
 70
     1
  9
$DIMSHO
 70
     1
  9
$DIMPOST
  1

  9
$DIMAPOST
  1

  9
$DIMALT
 70
     0
  9
$DIMALTD
 70
     2
  9
$DIMALTF
 40
25.399999999999999
  9
$DIMLFAC
 40
1.0
  9
$DIMTOFL
 70
     0
  9
$DIMTVP
 40
0.0
  9
$DIMTIX
 70
     0
  9
$DIMSOXD
 70
     0
  9
$DIMSAH
 70
     0
  9
$DIMBLK1
  1

  9
$DIMBLK2
  1

  9
$DIMSTYLE
  2
3_DECIMAL_PLACES
  9
$DIMCLRD
 70
   256
  9
$DIMCLRE
 70
   256
  9
$DIMCLRT
 70
   256
  9
$DIMTFAC
 40
1.0
  9
$DIMGAP
 40
0.09
  9
$LUNITS
 70
     2
  9
$LUPREC
 70
     4
  9
$SKETCHINC
 40
0.1
  9
$FILLETRAD
 40
0.125
  9
$AUNITS
 70
     0
  9
$AUPREC
 70
     0
  9
$MENU
  1
.
  9
$ELEVATION
 40
0.0
  9
$PELEVATION
 40
0.0
  9
$THICKNESS
 40
0.0
  9
$LIMCHECK
 70
     0
  9
$BLIPMODE
 70
     0
  9
$CHAMFERA
 40
0.125
  9
$CHAMFERB
 40
0.125
  9
$SKPOLY
 70
     0
  9
$TDCREATE
 40
2456709.4752335418
  9
$TDUPDATE
 40
2458346.5588277201
  9
$TDINDWG
 40
0.0194932523
  9
$TDUSRTIMER
 40
0.0194930324
  9
$USRTIMER
 70
     1
  9
$ANGBASE
 50
0.0
  9
$ANGDIR
 70
     0
  9
$PDMODE
 70
     0
  9
$PDSIZE
 40
0.0
  9
$PLINEWID
 40
0.0
  9
$COORDS
 70
     1
  9
$SPLFRAME
 70
     0
  9
$SPLINETYPE
 70
     6
  9
$SPLINESEGS
 70
     8
  9
$ATTDIA
 70
     1
  9
$ATTREQ
 70
     1
  9
$HANDLING
 70
     1
  9
$HANDSEED
  5
130E
  9
$SURFTAB1
 70
     6
  9
$SURFTAB2
 70
     6
  9
$SURFTYPE
 70
     6
  9
$SURFU
 70
     6
  9
$SURFV
 70
     6
  9
$UCSNAME
  2

  9
$UCSORG
 10
0.0
 20
0.0
 30
0.0
  9
$UCSXDIR
 10
1.0
 20
0.0
 30
0.0
  9
$UCSYDIR
 10
0.0
 20
1.0
 30
0.0
  9
$PUCSNAME
  2

  9
$PUCSORG
 10
0.0
 20
0.0
 30
0.0
  9
$PUCSXDIR
 10
1.0
 20
0.0
 30
0.0
  9
$PUCSYDIR
 10
0.0
 20
1.0
 30
0.0
  9
$USERI1
 70
     0
  9
$USERI2
 70
     0
  9
$USERI3
 70
     0
  9
$USERI4
 70
     0
  9
$USERI5
 70
     0
  9
$USERR1
 40
0.0
  9
$USERR2
 40
0.0
  9
$USERR3
 40
0.0
  9
$USERR4
 40
0.0
  9
$USERR5
 40
0.0
  9
$WORLDVIEW
 70
     1
  9
$SHADEDGE
 70
     3
  9
$SHADEDIF
 70
    70
  9
$TILEMODE
 70
     1
  9
$MAXACTVP
 70
    64
  9
$PLIMCHECK
 70
     0
  9
$PEXTMIN
 10
1.0000000000000000E+020
 20
1.0000000000000000E+020
 30
1.0000000000000000E+020
  9
$PEXTMAX
 10
-1.0000000000000000E+020
 20
-1.0000000000000000E+020
 30
-1.0000000000000000E+020
  9
$PLIMMIN
 10
0.0
 20
0.0
  9
$PLIMMAX
 10
12.0
 20
9.0
  9
$UNITMODE
 70
     0
  9
$VISRETAIN
 70
     1
  9
$PLINEGEN
 70
     0
  9
$PSLTSCALE
 70
     1
  0
ENDSEC
  0
SECTION
  2
TABLES
  0
TABLE
  2
VPORT
 70
     1
  0
VPORT
  2
*ACTIVE
 70
     0
 10
0.0
 20
0.0
 11
1.0
 21
1.0
 12
3.0995567056389661
 22
0.2420911801221179
 13
0.0
 23
0.0
 14
0.125
 24
0.125
 15
1.0
 25
1.0
 16
0.0
 26
0.0
 36
1.0
 17
0.0
 27
0.0
 37
0.0
 40
2.809212259349481
 41
3.2561475409836071
 42
50.0
 43
0.0
 44
0.0
 50
0.0
 51
0.0
 71
     0
 72
  1000
 73
     1
 74
     3
 75
     0
 76
     0
 77
     0
 78
     0
  0
ENDTAB
  0
TABLE
  2
LTYPE
 70
    18
  0
LTYPE
  2
CONTINUOUS
 70
     0
  3
Solid line
 72
    65
 73
     0
 40
0.0
  0
LTYPE
  2
PHANTOM2
 70
     0
  3
Phantom (.5x) ___ _ _ ___ _ _ ___ _ _ ___ _ _
 72
    65
 73
     6
 40
1.25
 49
0.625
 49
-0.125
 49
0.125
 49
-0.125
 49
0.125
 49
-0.125
  0
LTYPE
  2
HIDDEN
 70
     0
  3
Hidden __ __ __ __ __ __ __ __ __ __ __ __ __ _
 72
    65
 73
     2
 40
0.375
 49
0.25
 49
-0.125
  0
LTYPE
  2
CENTER
 70
     0
  3
Center ____ _ ____ _ ____ _ ____ _ ____ _ ____
 72
    65
 73
     4
 40
2.0
 49
1.25
 49
-0.25
 49
0.25
 49
-0.25
  0
LTYPE
  2
AMCONSTR
 70
     0
  3
_______________________
 72
    65
 73
     2
 40
9999.0
 49
9999.0
 49
0.0
  0
LTYPE
  2
CENTER2
 70
     0
  3
Center (.5x) ___ _ ___ _ ___ _ ___ _ ___ _ ___
 72
    65
 73
     4
 40
1.125
 49
0.75
 49
-0.125
 49
0.125
 49
-0.125
  0
LTYPE
  2
HIDDEN2
 70
     0
  3
Hidden (.5x) _ _ _ _ _ _ _ _ _ _ _ _ _ _ _ _ _
 72
    65
 73
     2
 40
0.1875
 49
0.125
 49
-0.0625
  0
LTYPE
  2
AMZIGZAG2
 70
     0
  3
/\/-/\/-/\/-/\/-/\/-/\/
 72
    65
 73
     2
 40
0.4401
 49
0.0001
 49
-0.4400000000000003
  0
LTYPE
  2
ACANSTGB
 70
     0
  3
__ . . __ . .
 72
    65
 73
     6
 40
0.35433070866
 49
0.15748031496
 49
-0.03937007874
 49
0.03937007874
 49
-0.03937007874
 49
0.03937007874
 49
-0.03937007874
  0
LTYPE
  2
ACANSTGL
 70
     0
  3
_ _ _ _ _
 72
    65
 73
     2
 40
0.11811023622
 49
0.07874015748
 49
-0.03937007874
  0
LTYPE
  2
AM_ISO02W050
 70
     0
  3
__ __ __ __ __ __ __ __ __ __ __ __ __ __ __
 72
    65
 73
     2
 40
7.5
 49
6.0
 49
-1.5
  0
LTYPE
  2
AM_ISO08W050
 70
     0
  3
____ . ____ . ____ . ____ . ____ . ____ . ____
 72
    65
 73
     4
 40
18.0
 49
12.0
 49
-1.5
 49
3.0
 49
-1.5
  0
LTYPE
  2
AM_ISO09W050
 70
     0
  3
_____ . . _____ . . _____ . . ____ .. ____
 72
    65
 73
     6
 40
22.5
 49
12.0
 49
-1.5
 49
3.0
 49
-1.5
 49
3.0
 49
-1.5
  0
LTYPE
  2
AM_ISO08W050X2
 70
     0
  3
__ . __ . __ . __ . __ . __
 72
    65
 73
     4
 40
9.0
 49
6.0
 49
-0.75
 49
1.5
 49
-0.75
  0
LTYPE
  2
AM_ISO02W050X2
 70
     0
  3
 _ _ _ _ _ _ _ _ _ _ _ _
 72
    65
 73
     2
 40
3.75
 49
3.0
 49
-0.75
  0
LTYPE
  2
AMZIGZAG
 70
     0
  3
/\/-/\/-/\/-/\/-/\/-/\/
 72
    65
 73
     2
 40
11.0001
 49
0.0001
 49
-11.0
  0
ENDTAB
  0
TABLE
  2
LAYER
 70
     8
  0
LAYER
  2
0
 70
     0
 62
     7
  6
CONTINUOUS
  0
LAYER
  2
REF
 70
     0
 62
     7
  6
CONTINUOUS
  0
LAYER
  2
TEXT
 70
     0
 62
     3
  6
CONTINUOUS
  0
LAYER
  2
PCB_TOP
 70
     0
 62
     5
  6
CONTINUOUS
  0
LAYER
  2
PCB_BOT
 70
     0
 62
     1
  6
CONTINUOUS
  0
LAYER
  2
PCB_OUTLINE
 70
     0
 62
   142
  6
CONTINUOUS
  0
LAYER
  2
PART
 70
     0
 62
     1
  6
CONTINUOUS
  0
ENDTAB
  0
TABLE
  2
STYLE
 70
     7
  0
STYLE
  2
STANDARD
 70
     0
 40
0.0
 41
1.0
 50
0.0
 71
     0
 42
0.1386260590296713
  3
ROMANS.SHX
  4

  0
STYLE
  2
ANNOTATIVE
 70
     0
 40
0.0
 41
1.0
 50
0.0
 71
     0
 42
0.2
  3
txt
  4

  0
STYLE
  2

 70
     1
 40
0.0
 41
1.0
 50
0.0
 71
     0
 42
0.2
  3
genltshp.shx
  4

  0
STYLE
  2
ACANSGDT
 70
     0
 40
0.0
 41
1.0
 50
0.0
 71
     0
 42
0.2
  3
amgdt.shx
  4

  0
STYLE
  2
ANNOTATIVE0
 70
     0
 40
0.0
 41
1.0
 50
0.0
 71
     0
 42
0.2
  3
txt
  4

  0
STYLE
  2
ARIAL
 70
     0
 40
0.0
 41
1.0
 50
0.0
 71
     0
 42
0.2452744685283672
  3
txt
  4

  0
STYLE
  2
ACANSTS
 70
     0
 40
1.0
 41
1.0
 50
0.0
 71
     0
 42
0.2
  3
romans.shx
  4

  0
ENDTAB
  0
TABLE
  2
VIEW
 70
     0
  0
ENDTAB
  0
TABLE
  2
UCS
 70
     0
  0
ENDTAB
  0
TABLE
  2
APPID
 70
    21
  0
APPID
  2
ACAD
 70
     0
  0
APPID
  2
ACADANNOTATIVE
 70
     0
  0
APPID
  2
ACAD_NAV_VCDISPLAY
 70
     0
  0
APPID
  2
MCAD_NO_VIS
 70
     0
  0
APPID
  2
ACAD_TEMP_GRAPHIC
 70
     0
  0
APPID
  2
ACATTRIBSERVICES
 70
     0
  0
APPID
  2
DESIGNERASSEMBLIES
 70
     0
  0
APPID
  2
ACAD_DSTYLE_DIMJAG
 70
     0
  0
APPID
  2
ACAD_DSTYLE_DIMBREAK
 70
     0
  0
APPID
  2
RAK
 70
     0
  0
APPID
  2
ACAECLAYERSTANDARD
 70
     0
  0
APPID
  2
ACAD_PSEXT
 70
     0
  0
APPID
  2
GRADIENTCOLOR1ACI
 70
     0
  0
APPID
  2
GRADIENTCOLOR2ACI
 70
     0
  0
APPID
  2
ACAD_MLEADERVER
 70
     0
  0
APPID
  2
ACAD_DSTYLE_DIMARC_LENGTH_
 70
     0
  0
APPID
  2
ACAD_DSTYLE_DIM_LINETYPE
 70
     0
  0
APPID
  2
ACAD_DSTYLE_DIM_EXT1_LINETYPE
 70
     0
  0
APPID
  2
ACAD_DSTYLE_DIM_EXT2_LINETYPE
 70
     0
  0
APPID
  2
ACAD_DSTYLE_DIMJOGGED_JOGA
 70
     0
  0
APPID
  2
ACAD_EXEMPT_FROM_CAD_STANDARDS
 70
     0
  0
ENDTAB
  0
TABLE
  2
DIMSTYLE
 70
    10
  0
DIMSTYLE
  2
STANDARD
 70
     0
  3

  4

  5

  6

  7

 40
1.0
 41
0.18
 42
0.0625
 43
0.38
 44
0.18
 45
0.0
 46
0.0
 47
0.0
 48
0.0
140
0.18
141
0.09
142
0.0
143
25.399999999999999
144
1.0
145
0.0
146
1.0
147
0.09
 71
     0
 72
     0
 73
     1
 74
     1
 75
     0
 76
     0
 77
     0
 78
     0
170
     0
171
     2
172
     0
173
     0
174
     0
175
     0
176
     0
177
     0
178
     0
  0
DIMSTYLE
  2
ANNOTATIVE
 70
     0
  3

  4

  5

  6

  7

 40
1.0
 41
0.18
 42
0.0625
 43
0.38
 44
0.18
 45
0.0
 46
0.0
 47
0.0
 48
0.0
140
0.18
141
0.09
142
0.0
143
25.399999999999999
144
1.0
145
0.0
146
1.0
147
0.09
 71
     0
 72
     0
 73
     1
 74
     1
 75
     0
 76
     0
 77
     0
 78
     0
170
     0
171
     2
172
     0
173
     0
174
     0
175
     0
176
     0
177
     0
178
     0
  0
DIMSTYLE
  2
AM_ANSI
 70
     0
  3

  4
mm
  5

  6

  7

 40
1.0
 41
0.12
 42
0.05
 43
0.5
 44
0.1
 45
0.0
 46
0.0
 47
0.1
 48
0.1
140
0.12
141
0.0
142
0.0
143
25.399999999999999
144
1.0
145
0.0
146
0.71
147
0.06
 71
     0
 72
     0
 73
     1
 74
     1
 75
     0
 76
     0
 77
     0
 78
     7
170
     0
171
     2
172
     0
173
     0
174
     0
175
     0
176
   256
177
   256
178
     2
  0
DIMSTYLE
  2
AM_ANSI$3
 70
     0
  3

  4
mm
  5

  6

  7

 40
1.0
 41
0.12
 42
0.05
 43
0.5
 44
0.1
 45
0.0
 46
0.0
 47
0.1
 48
0.1
140
0.12
141
0.0
142
0.0
143
25.399999999999999
144
1.0
145
0.0
146
0.71
147
0.06
 71
     0
 72
     0
 73
     1
 74
     1
 75
     0
 76
     0
 77
     0
 78
     7
170
     0
171
     2
172
     0
173
     0
174
     0
175
     0
176
   256
177
   256
178
     2
  0
DIMSTYLE
  2
AM_ANSI$4
 70
     0
  3

  4
mm
  5

  6

  7

 40
1.0
 41
0.12
 42
0.05
 43
0.5
 44
0.1
 45
0.0
 46
0.0
 47
0.1
 48
0.1
140
0.12
141
0.0
142
0.0
143
25.399999999999999
144
1.0
145
0.0
146
0.71
147
0.06
 71
     0
 72
     0
 73
     1
 74
     1
 75
     0
 76
     0
 77
     0
 78
     7
170
     0
171
     2
172
     0
173
     0
174
     0
175
     0
176
   256
177
   256
178
     2
  0
DIMSTYLE
  2
AM_ANSI$7
 70
     0
  3

  4
mm
  5

  6

  7

 40
1.0
 41
0.12
 42
0.05
 43
0.5
 44
0.1
 45
0.0
 46
0.0
 47
0.1
 48
0.1
140
0.12
141
0.0
142
0.0
143
25.399999999999999
144
1.0
145
0.0
146
0.71
147
0.06
 71
     0
 72
     0
 73
     1
 74
     1
 75
     0
 76
     0
 77
     0
 78
     7
170
     0
171
     2
172
     0
173
     0
174
     0
175
     0
176
   256
177
   256
178
     2
  0
DIMSTYLE
  2
AM_ANSI$SF
 70
     0
  3

  4
mm
  5

  6

  7

 40
1.0
 41
0.12
 42
0.05
 43
0.5
 44
0.1
 45
0.0
 46
0.0
 47
0.1
 48
0.1
140
0.12
141
0.0
142
0.0
143
25.399999999999999
144
1.0
145
0.0
146
0.71
147
0.06
 71
     0
 72
     0
 73
     1
 74
     1
 75
     1
 76
     1
 77
     0
 78
     7
170
     0
171
     2
172
     0
173
     0
174
     0
175
     0
176
   256
177
   256
178
     2
  0
DIMSTYLE
  2
AM_ANSI$SH
 70
     0
  3

  4
mm
  5

  6

  7

 40
1.0
 41
0.12
 42
0.05
 43
0.5
 44
0.1
 45
0.0
 46
0.0
 47
0.1
 48
0.1
140
0.12
141
0.0
142
0.0
143
25.399999999999999
144
1.0
145
0.0
146
0.71
147
0.06
 71
     0
 72
     0
 73
     1
 74
     1
 75
     1
 76
     1
 77
     0
 78
     7
170
     0
171
     2
172
     0
173
     1
174
     0
175
     0
176
   256
177
   256
178
     2
  0
DIMSTYLE
  2
3_DECIMAL_PLACES
 70
     0
  3

  4

  5

  6

  7

 40
1.0
 41
0.125
 42
0.0625
 43
0.38
 44
0.08
 45
0.0
 46
0.0
 47
0.0
 48
0.0
140
0.09
141
0.09
142
0.0
143
25.399999999999999
144
1.0
145
0.0
146
1.0
147
0.09
 71
     0
 72
     0
 73
     1
 74
     1
 75
     0
 76
     0
 77
     0
 78
     4
170
     0
171
     2
172
     0
173
     0
174
     0
175
     0
176
   256
177
   256
178
   256
  0
ENDTAB
  0
ENDSEC
  0
SECTION
  2
BLOCKS
  0
BLOCK
  8
0
  2
$MODEL_SPACE
 70
     0
 10
0.0
 20
0.0
 30
0.0
  3
$MODEL_SPACE
  1

  0
ENDBLK
  5
1170
  8
0
  0
BLOCK
 67
     1
  8
0
  2
$PAPER_SPACE
 70
     0
 10
0.0
 20
0.0
 30
0.0
  3
$PAPER_SPACE
  1

  0
ENDBLK
  5
116C
 67
     1
  8
0
  0
BLOCK
  8
0
  2
GENAXEH
 70
     0
 10
0.0
 20
0.0
 30
0.0
  3
GENAXEH
  1

  0
LINE
  5
D0
  8
0
 10
-1.0
 20
0.0
 30
0.0
 11
1.0
 21
0.0
 31
0.0
  0
ENDBLK
  5
D2
  8
0
  0
BLOCK
  8
0
  2
A$C16A027C3
 70
     0
 10
0.0
 20
0.0
 30
0.0
  3
A$C16A027C3
  1

  0
ARC
  5
F0
  8
PART
 10
0.1447681465283503
 20
-0.1197681337796301
 30
0.0
 40
0.0624999999999989
 50
108.4387282926329
 51
161.56128402685351
  0
LINE
  5
F1
  8
PART
 10
0.1249999999999396
 20
-0.0604767315122632
 30
0.0
 11
0.1249999999999396
 21
-0.0149999999999584
 31
0.0
  0
ARC
  5
F2
  8
PART
 10
0.1249999999999254
 20
0.0000000000000422
 30
0.0
 40
0.0150000000000006
 50
89.999999999945743
 51
270.00000000005417
  0
LINE
  5
F3
  8
PART
 10
0.1249999999999396
 20
0.0150000000000428
 30
0.0
 11
0.1249999999999396
 21
0.0604767315123471
 31
0.0
  0
ARC
  5
F4
  8
PART
 10
0.1447681465283694
 20
0.1197681337797167
 30
0.0
 40
0.0625000000000028
 50
198.43871597295691
 51
251.56127170735081
  0
LINE
  5
F5
  8
PART
 10
0.0854767400104693
 20
0.1000000000000814
 30
0.0
 11
0.0435659231336425
 21
0.1000000000000814
 31
0.0
  0
ARC
  5
F6
  8
PART
 10
0.0209999999999639
 20
0.1197681337796337
 30
0.0
 40
0.0300000000000054
 50
270.00000000002041
 51
318.78108694782838
  0
LINE
  5
F7
  8
PART
 10
0.0209999999999746
 20
0.0897681337796284
 30
0.0
 11
-0.0209999999999382
 21
0.0897681337795415
 31
0.0
  0
ARC
  5
F8
  8
PART
 10
-0.0209999999999382
 20
0.1197681337795426
 30
0.0
 40
0.0300000000000011
 50
221.2189130521962
 51
270.0
  0
LINE
  5
F9
  8
PART
 10
-0.0435659231336101
 20
0.0999999999999832
 30
0.0
 11
-0.0854767400104577
 21
0.0999999999999832
 31
0.0
  0
ARC
  5
FA
  8
PART
 10
-0.1447681465283743
 20
0.1197681337795426
 30
0.0
 40
0.0624999999999977
 50
288.4387282926462
 51
341.5612840271138
  0
LINE
  5
FB
  8
PART
 10
-0.1249999999999516
 20
0.0604767315121779
 30
0.0
 11
-0.1249999999999516
 21
0.0149999999999824
 31
0.0
  0
ARC
  5
FC
  8
PART
 10
-0.1249999999999516
 20
-0.0000000000000182
 30
0.0
 40
0.0150000000000006
 50
270.0
 51
90.0
  0
LINE
  5
FD
  8
PART
 10
-0.1249999999999516
 20
-0.0150000000000188
 30
0.0
 11
-0.1249999999999516
 21
-0.0604767315122121
 31
0.0
  0
ARC
  5
FE
  8
PART
 10
-0.1447681465283983
 20
-0.1197681337795746
 30
0.0
 40
0.0625000000000017
 50
18.438715972891551
 51
71.561271707333475
  0
LINE
  5
FF
  8
PART
 10
0.0854767400104693
 20
-0.0999999999999948
 30
0.0
 11
0.0435659231336425
 21
-0.0999999999999948
 31
0.0
  0
ARC
  5
100
  8
PART
 10
0.0209999999999639
 20
-0.1197681337795546
 30
0.0
 40
0.0300000000000054
 50
41.218913052171487
 51
89.999999999979664
  0
LINE
  5
101
  8
PART
 10
0.0209999999999639
 20
-0.0897681337795493
 30
0.0
 11
-0.0209999999999382
 21
-0.0897681337796446
 31
0.0
  0
ARC
  5
102
  8
PART
 10
-0.0209999999999382
 20
-0.1197681337796457
 30
0.0
 40
0.0300000000000011
 50
90.0
 51
138.7810869478036
  0
LINE
  5
103
  8
PART
 10
-0.0435659231336101
 20
-0.1000000000000814
 30
0.0
 11
-0.0854767400104577
 21
-0.1000000000000814
 31
0.0
  0
LINE
  5
104
  8
PART
 10
-0.0499999999998608
 20
0.0949999999998694
 30
0.0
 11
-0.0499999999998608
 21
0.0249999999998902
 31
0.0
  0
LINE
  5
105
  8
PART
 10
-0.0499999999998608
 20
0.0249999999998902
 30
0.0
 11
-0.1249999999998499
 21
0.0249999999998902
 31
0.0
  0
LINE
  5
106
  8
PART
 10
-0.1249999999998499
 20
0.0199999999998903
 30
0.0
 11
-0.1249999999998472
 21
0.0149999999999824
 31
0.0
  0
LINE
  5
107
  8
PART
 10
-0.1249999999998472
 20
-0.0150000000000188
 30
0.0
 11
-0.1249999999998499
 21
-0.0200000000001066
 31
0.0
  0
LINE
  5
108
  8
PART
 10
0.1250000000000484
 20
0.0200000000000142
 30
0.0
 11
0.1250000000000484
 21
0.0150000000000428
 31
0.0
  0
LINE
  5
109
  8
PART
 10
0.1250000000000484
 20
-0.0149999999999584
 30
0.0
 11
0.1250000000000484
 21
-0.0200000000000227
 31
0.0
  0
LINE
  5
10A
  8
PART
 10
-0.0379274791114974
 20
0.0949999999998694
 30
0.0
 11
-0.0499999999998608
 21
0.0949999999998694
 31
0.0
  0
POLYLINE
  5
10B
  8
PART
 66
     1
 10
0.0
 20
0.0
 30
0.0
  0
VERTEX
  5
124D
  8
PART
 10
-0.1199999999998709
 20
0.0623853060560653
 30
0.0
  0
VERTEX
  5
124E
  8
PART
 10
-0.1199999999998709
 20
0.0499999999998693
 30
0.0
  0
VERTEX
  5
124F
  8
PART
 10
-0.074999999999871
 20
0.0499999999998693
 30
0.0
  0
VERTEX
  5
1250
  8
PART
 10
-0.074999999999871
 20
0.0949999999998692
 30
0.0
  0
VERTEX
  5
1251
  8
PART
 10
-0.0873853133021223
 20
0.0949999999998692
 30
0.0
  0
SEQEND
  5
1252
  8
PART
  0
LINE
  5
10C
  8
PART
 10
0.0499999999998488
 20
0.0949999999998694
 30
0.0
 11
0.0499999999998488
 21
0.0249999999998902
 31
0.0
  0
LINE
  5
10D
  8
PART
 10
0.0499999999998488
 20
0.0249999999998902
 30
0.0
 11
0.1249999999998379
 21
0.0249999999998902
 31
0.0
  0
LINE
  5
10E
  8
PART
 10
0.0379274791114854
 20
0.0949999999998694
 30
0.0
 11
0.0499999999998488
 21
0.0949999999998694
 31
0.0
  0
POLYLINE
  5
10F
  8
PART
 66
     1
 10
0.0
 20
0.0
 30
0.0
  0
VERTEX
  5
1253
  8
PART
 10
0.1199999999998589
 20
0.0623853060560653
 30
0.0
  0
VERTEX
  5
1254
  8
PART
 10
0.1199999999998589
 20
0.0499999999998693
 30
0.0
  0
VERTEX
  5
1255
  8
PART
 10
0.074999999999859
 20
0.0499999999998693
 30
0.0
  0
VERTEX
  5
1256
  8
PART
 10
0.074999999999859
 20
0.0949999999998692
 30
0.0
  0
VERTEX
  5
1257
  8
PART
 10
0.0873853133021099
 20
0.0949999999998692
 30
0.0
  0
SEQEND
  5
1258
  8
PART
  0
LINE
  5
110
  8
PART
 10
-0.0499999999998151
 20
-0.0949999999998697
 30
0.0
 11
-0.0499999999998488
 21
-0.0249999999998905
 31
0.0
  0
LINE
  5
111
  8
PART
 10
-0.0499999999998488
 20
-0.0249999999998905
 30
0.0
 11
-0.1249999999998379
 21
-0.0249999999999266
 31
0.0
  0
LINE
  5
112
  8
PART
 10
-0.0379274791114517
 20
-0.0949999999998637
 30
0.0
 11
-0.0499999999998151
 21
-0.0949999999998697
 31
0.0
  0
POLYLINE
  5
113
  8
PART
 66
     1
 10
0.0
 20
0.0
 30
0.0
  0
VERTEX
  5
1259
  8
PART
 10
-0.1199999999998407
 20
-0.0623853060560993
 30
0.0
  0
VERTEX
  5
125A
  8
PART
 10
-0.1199999999998464
 20
-0.0499999999999032
 30
0.0
  0
VERTEX
  5
125B
  8
PART
 10
-0.0749999999998465
 20
-0.0499999999998815
 30
0.0
  0
VERTEX
  5
125C
  8
PART
 10
-0.0749999999998252
 20
-0.0949999999998814
 30
0.0
  0
VERTEX
  5
125D
  8
PART
 10
-0.0873853133020761
 20
-0.0949999999998874
 30
0.0
  0
SEQEND
  5
125E
  8
PART
  0
LINE
  5
114
  8
PART
 10
0.049999999999895
 20
-0.0949999999998212
 30
0.0
 11
0.0499999999998608
 21
-0.024999999999842
 31
0.0
  0
LINE
  5
115
  8
PART
 10
0.0499999999998608
 20
-0.024999999999842
 30
0.0
 11
0.1249999999998499
 21
-0.0249999999998059
 31
0.0
  0
LINE
  5
116
  8
PART
 10
0.0379274791115316
 20
-0.094999999999827
 30
0.0
 11
0.049999999999895
 21
-0.0949999999998212
 31
0.0
  0
POLYLINE
  5
117
  8
PART
 66
     1
 10
0.0
 20
0.0
 30
0.0
  0
VERTEX
  5
125F
  8
PART
 10
0.1199999999998891
 20
-0.0623853060559834
 30
0.0
  0
VERTEX
  5
1260
  8
PART
 10
0.1199999999998829
 20
-0.0499999999997873
 30
0.0
  0
VERTEX
  5
1261
  8
PART
 10
0.074999999999883
 20
-0.0499999999998091
 30
0.0
  0
VERTEX
  5
1262
  8
PART
 10
0.0749999999999052
 20
-0.094999999999809
 30
0.0
  0
VERTEX
  5
1263
  8
PART
 10
0.0873853133021561
 20
-0.094999999999803
 30
0.0
  0
SEQEND
  5
1264
  8
PART
  0
INSERT
  5
118
  8
0
  2
*U4
 10
0.0
 20
0.0
 30
0.0
  0
CIRCLE
  5
119
  8
PART
 10
-0.0849999999998259
 20
-0.0599999999999013
 30
0.0
 40
0.005
  0
CIRCLE
  5
11A
  8
PART
 10
-0.0849999999998259
 20
0.0599999999998688
 30
0.0
 40
0.005
  0
CIRCLE
  5
11B
  8
PART
 10
0.0849999999999094
 20
-0.0599999999999013
 30
0.0
 40
0.005
  0
CIRCLE
  5
11C
  8
PART
 10
0.0849999999999094
 20
0.0599999999998688
 30
0.0
 40
0.005
  0
INSERT
  5
11D
  8
PART
  6
CONTINUOUS
  2
*U5
 10
0.0
 20
0.0
 30
0.0
1001
GRADIENTCOLOR1ACI
1070
     5
1001
GRADIENTCOLOR2ACI
1070
     2
1001
ACAD
1002
{
1000
R14_HATCH_DATA
1000
11D
1011
1.0
1021
0.0
1031
0.0
1021
0.0
1031
0.0
1011
0.0
1021
0.0
1031
0.0
1021
1.0
1031
0.0
1011
0.0
1021
0.0
1031
0.0
1021
0.0
1031
1.0
1040
0.0
1010
0.0
1020
0.0
1030
1.0
1000
SOLID
1070
     1
1070
     1
1071
        1
1071
        7
1070
     1
1070
     1
1071
        2
1040
-0.0399999999998876
1040
-0.0447681337796573
1040
1.0
1040
-0.0099999999998876
1040
-0.0447681337796573
1040
1.0
1071
        1
1005
11E
1070
     1
1070
     1
1040
0.0004981169146732
1071
        1
1040
-0.0189874387975388
1040
-0.0438107539168604
1040
0.0
1002
}
  0
CIRCLE
  5
11E
  8
PART
 10
-0.0249999999998876
 20
-0.0447681337796573
 30
0.0
 40
0.015
  0
ENDBLK
  5
11F
  8
0
  0
BLOCK
  8
0
  2
*U4
 70
     1
 10
0.0
 20
0.0
 30
0.0
  3
*U4
  1

  0
TEXT
  5
8F1
  8
PART
 10
-0.1031377899042969
 20
-0.017607435197773
 30
0.0
 40
0.035
  1
IPP-7112
  7
ARIAL
  0
ENDBLK
  5
8F3
  8
0
  0
BLOCK
  8
0
  2
*U5
 70
     1
 10
0.0
 20
0.0
 30
0.0
  3
*U5
  1

  0
SOLID
  5
8F5
  8
PART
  6
CONTINUOUS
 10
0.0263840253918371
 20
-0.0298321211352318
 30
0.0
 11
0.0208950551488064
 21
-0.030340749132065
 31
0.0
 12
0.0291049448509689
 22
-0.030340749132065
 32
0.0
 13
0.0291049448509689
 23
-0.030340749132065
 33
0.0
210
0.0
220
0.0
230
-1.0
  0
SOLID
  5
8F6
  8
PART
  6
CONTINUOUS
 10
0.0263840253918371
 20
-0.0298321211352318
 30
0.0
 11
0.0236159746079381
 21
-0.0298321211352318
 31
0.0
 12
0.0208950551488064
 22
-0.030340749132065
 32
0.0
 13
0.0208950551488064
 23
-0.030340749132065
 33
0.0
210
0.0
220
0.0
230
-1.0
  0
SOLID
  5
8F7
  8
PART
  6
CONTINUOUS
 10
0.0291049448509689
 20
-0.030340749132065
 30
0.0
 11
0.0183139246632395
 21
-0.0313406844093314
 31
0.0
 12
0.0316860753365357
 22
-0.0313406844093314
 32
0.0
 13
0.0316860753365357
 23
-0.0313406844093314
 33
0.0
210
0.0
220
0.0
230
-1.0
  0
SOLID
  5
8F8
  8
PART
  6
CONTINUOUS
 10
0.0291049448509689
 20
-0.030340749132065
 30
0.0
 11
0.0208950551488064
 21
-0.030340749132065
 31
0.0
 12
0.0183139246632395
 22
-0.0313406844093314
 32
0.0
 13
0.0183139246632395
 23
-0.0313406844093314
 33
0.0
210
0.0
220
0.0
230
-1.0
  0
SOLID
  5
8F9
  8
PART
  6
CONTINUOUS
 10
0.0316860753365357
 20
-0.0313406844093314
 30
0.0
 11
0.0159604804541988
 21
-0.0327978753704537
 31
0.0
 12
0.0340395195455765
 22
-0.0327978753704537
 32
0.0
 13
0.0340395195455765
 23
-0.0327978753704537
 33
0.0
210
0.0
220
0.0
230
-1.0
  0
SOLID
  5
8FA
  8
PART
  6
CONTINUOUS
 10
0.0316860753365357
 20
-0.0313406844093314
 30
0.0
 11
0.0183139246632395
 21
-0.0313406844093314
 31
0.0
 12
0.0159604804541988
 22
-0.0327978753704537
 32
0.0
 13
0.0159604804541988
 23
-0.0327978753704537
 33
0.0
210
0.0
220
0.0
230
-1.0
  0
SOLID
  5
8FB
  8
PART
  6
CONTINUOUS
 10
0.0340395195455765
 20
-0.0327978753704537
 30
0.0
 11
0.0139148662415777
 21
-0.034662699124959
 31
0.0
 12
0.0360851337581975
 22
-0.034662699124959
 32
0.0
 13
0.0360851337581975
 23
-0.034662699124959
 33
0.0
210
0.0
220
0.0
230
-1.0
  0
SOLID
  5
8FC
  8
PART
  6
CONTINUOUS
 10
0.0340395195455765
 20
-0.0327978753704537
 30
0.0
 11
0.0159604804541988
 21
-0.0327978753704537
 31
0.0
 12
0.0139148662415777
 22
-0.034662699124959
 32
0.0
 13
0.0139148662415777
 23
-0.034662699124959
 33
0.0
210
0.0
220
0.0
230
-1.0
  0
SOLID
  5
8FD
  8
PART
  6
CONTINUOUS
 10
0.0360851337581975
 20
-0.034662699124959
 30
0.0
 11
0.0122467429639434
 21
-0.036871651336497
 31
0.0
 12
0.0377532570358318
 22
-0.036871651336497
 32
0.0
 13
0.0377532570358318
 23
-0.036871651336497
 33
0.0
210
0.0
220
0.0
230
-1.0
  0
SOLID
  5
8FE
  8
PART
  6
CONTINUOUS
 10
0.0360851337581975
 20
-0.034662699124959
 30
0.0
 11
0.0139148662415777
 21
-0.034662699124959
 31
0.0
 12
0.0122467429639434
 22
-0.036871651336497
 32
0.0
 13
0.0122467429639434
 23
-0.036871651336497
 33
0.0
210
0.0
220
0.0
230
-1.0
  0
SOLID
  5
8FF
  8
PART
  6
CONTINUOUS
 10
0.0377532570358318
 20
-0.036871651336497
 30
0.0
 11
0.0110129165588223
 21
-0.03934950878685
 31
0.0
 12
0.0389870834409529
 22
-0.03934950878685
 32
0.0
 13
0.0389870834409529
 23
-0.03934950878685
 33
0.0
210
0.0
220
0.0
230
-1.0
  0
SOLID
  5
900
  8
PART
  6
CONTINUOUS
 10
0.0377532570358318
 20
-0.036871651336497
 30
0.0
 11
0.0122467429639434
 21
-0.036871651336497
 31
0.0
 12
0.0110129165588223
 22
-0.03934950878685
 32
0.0
 13
0.0110129165588223
 23
-0.03934950878685
 33
0.0
210
0.0
220
0.0
230
-1.0
  0
SOLID
  5
901
  8
PART
  6
CONTINUOUS
 10
0.0389870834409529
 20
-0.03934950878685
 30
0.0
 11
0.0102554035046291
 21
-0.0420118910124088
 31
0.0
 12
0.0397445964951461
 22
-0.0420118910124088
 32
0.0
 13
0.0397445964951461
 23
-0.0420118910124088
 33
0.0
210
0.0
220
0.0
230
-1.0
  0
SOLID
  5
902
  8
PART
  6
CONTINUOUS
 10
0.0389870834409529
 20
-0.03934950878685
 30
0.0
 11
0.0110129165588223
 21
-0.03934950878685
 31
0.0
 12
0.0102554035046291
 22
-0.0420118910124088
 32
0.0
 13
0.0102554035046291
 23
-0.0420118910124088
 33
0.0
210
0.0
220
0.0
230
-1.0
  0
SOLID
  5
903
  8
PART
  6
CONTINUOUS
 10
0.0397445964951461
 20
-0.0420118910124088
 30
0.0
 11
0.0099999999998876
 21
-0.0447681337796573
 31
0.0
 12
0.0399999999998876
 22
-0.0447681337796573
 32
0.0
 13
0.0399999999998876
 23
-0.0447681337796573
 33
0.0
210
0.0
220
0.0
230
-1.0
  0
SOLID
  5
904
  8
PART
  6
CONTINUOUS
 10
0.0397445964951461
 20
-0.0420118910124088
 30
0.0
 11
0.0102554035046291
 21
-0.0420118910124088
 31
0.0
 12
0.0099999999998876
 22
-0.0447681337796573
 32
0.0
 13
0.0099999999998876
 23
-0.0447681337796573
 33
0.0
210
0.0
220
0.0
230
-1.0
  0
SOLID
  5
905
  8
PART
  6
CONTINUOUS
 10
0.0399999999998876
 20
-0.0447681337796573
 30
0.0
 11
0.0102554035046291
 21
-0.0475243765469059
 31
0.0
 12
0.0397445964951461
 22
-0.0475243765469059
 32
0.0
 13
0.0397445964951461
 23
-0.0475243765469059
 33
0.0
210
0.0
220
0.0
230
-1.0
  0
SOLID
  5
906
  8
PART
  6
CONTINUOUS
 10
0.0399999999998876
 20
-0.0447681337796573
 30
0.0
 11
0.0099999999998876
 21
-0.0447681337796573
 31
0.0
 12
0.0102554035046291
 22
-0.0475243765469059
 32
0.0
 13
0.0102554035046291
 23
-0.0475243765469059
 33
0.0
210
0.0
220
0.0
230
-1.0
  0
SOLID
  5
907
  8
PART
  6
CONTINUOUS
 10
0.0397445964951461
 20
-0.0475243765469059
 30
0.0
 11
0.0110129165588223
 21
-0.0501867587724646
 31
0.0
 12
0.0389870834409529
 22
-0.0501867587724646
 32
0.0
 13
0.0389870834409529
 23
-0.0501867587724646
 33
0.0
210
0.0
220
0.0
230
-1.0
  0
SOLID
  5
908
  8
PART
  6
CONTINUOUS
 10
0.0397445964951461
 20
-0.0475243765469059
 30
0.0
 11
0.0102554035046291
 21
-0.0475243765469059
 31
0.0
 12
0.0110129165588223
 22
-0.0501867587724646
 32
0.0
 13
0.0110129165588223
 23
-0.0501867587724646
 33
0.0
210
0.0
220
0.0
230
-1.0
  0
SOLID
  5
909
  8
PART
  6
CONTINUOUS
 10
0.0389870834409529
 20
-0.0501867587724646
 30
0.0
 11
0.0122467429639434
 21
-0.0526646162228176
 31
0.0
 12
0.0377532570358318
 22
-0.0526646162228176
 32
0.0
 13
0.0377532570358318
 23
-0.0526646162228176
 33
0.0
210
0.0
220
0.0
230
-1.0
  0
SOLID
  5
90A
  8
PART
  6
CONTINUOUS
 10
0.0389870834409529
 20
-0.0501867587724646
 30
0.0
 11
0.0110129165588223
 21
-0.0501867587724646
 31
0.0
 12
0.0122467429639434
 22
-0.0526646162228176
 32
0.0
 13
0.0122467429639434
 23
-0.0526646162228176
 33
0.0
210
0.0
220
0.0
230
-1.0
  0
SOLID
  5
90B
  8
PART
  6
CONTINUOUS
 10
0.0377532570358318
 20
-0.0526646162228176
 30
0.0
 11
0.0139148662415777
 21
-0.0548735684343557
 31
0.0
 12
0.0360851337581975
 22
-0.0548735684343557
 32
0.0
 13
0.0360851337581975
 23
-0.0548735684343557
 33
0.0
210
0.0
220
0.0
230
-1.0
  0
SOLID
  5
90C
  8
PART
  6
CONTINUOUS
 10
0.0377532570358318
 20
-0.0526646162228176
 30
0.0
 11
0.0122467429639434
 21
-0.0526646162228176
 31
0.0
 12
0.0139148662415777
 22
-0.0548735684343557
 32
0.0
 13
0.0139148662415777
 23
-0.0548735684343557
 33
0.0
210
0.0
220
0.0
230
-1.0
  0
SOLID
  5
90D
  8
PART
  6
CONTINUOUS
 10
0.0360851337581975
 20
-0.0548735684343557
 30
0.0
 11
0.0159604804541988
 21
-0.0567383921888609
 31
0.0
 12
0.0340395195455765
 22
-0.0567383921888609
 32
0.0
 13
0.0340395195455765
 23
-0.0567383921888609
 33
0.0
210
0.0
220
0.0
230
-1.0
  0
SOLID
  5
90E
  8
PART
  6
CONTINUOUS
 10
0.0360851337581975
 20
-0.0548735684343557
 30
0.0
 11
0.0139148662415777
 21
-0.0548735684343557
 31
0.0
 12
0.0159604804541988
 22
-0.0567383921888609
 32
0.0
 13
0.0159604804541988
 23
-0.0567383921888609
 33
0.0
210
0.0
220
0.0
230
-1.0
  0
SOLID
  5
90F
  8
PART
  6
CONTINUOUS
 10
0.0340395195455765
 20
-0.0567383921888609
 30
0.0
 11
0.0183139246632395
 21
-0.0581955831499832
 31
0.0
 12
0.0316860753365357
 22
-0.0581955831499832
 32
0.0
 13
0.0316860753365357
 23
-0.0581955831499832
 33
0.0
210
0.0
220
0.0
230
-1.0
  0
SOLID
  5
910
  8
PART
  6
CONTINUOUS
 10
0.0340395195455765
 20
-0.0567383921888609
 30
0.0
 11
0.0159604804541988
 21
-0.0567383921888609
 31
0.0
 12
0.0183139246632395
 22
-0.0581955831499832
 32
0.0
 13
0.0183139246632395
 23
-0.0581955831499832
 33
0.0
210
0.0
220
0.0
230
-1.0
  0
SOLID
  5
911
  8
PART
  6
CONTINUOUS
 10
0.0316860753365357
 20
-0.0581955831499832
 30
0.0
 11
0.0208950551488064
 21
-0.0591955184272496
 31
0.0
 12
0.0291049448509689
 22
-0.0591955184272496
 32
0.0
 13
0.0291049448509689
 23
-0.0591955184272496
 33
0.0
210
0.0
220
0.0
230
-1.0
  0
SOLID
  5
912
  8
PART
  6
CONTINUOUS
 10
0.0316860753365357
 20
-0.0581955831499832
 30
0.0
 11
0.0183139246632395
 21
-0.0581955831499832
 31
0.0
 12
0.0208950551488064
 22
-0.0591955184272496
 32
0.0
 13
0.0208950551488064
 23
-0.0591955184272496
 33
0.0
210
0.0
220
0.0
230
-1.0
  0
SOLID
  5
913
  8
PART
  6
CONTINUOUS
 10
0.0291049448509689
 20
-0.0591955184272496
 30
0.0
 11
0.0236159746079381
 21
-0.0597041464240828
 31
0.0
 12
0.0263840253918371
 22
-0.0597041464240828
 32
0.0
 13
0.0263840253918371
 23
-0.0597041464240828
 33
0.0
210
0.0
220
0.0
230
-1.0
  0
SOLID
  5
914
  8
PART
  6
CONTINUOUS
 10
0.0291049448509689
 20
-0.0591955184272496
 30
0.0
 11
0.0208950551488064
 21
-0.0591955184272496
 31
0.0
 12
0.0236159746079381
 22
-0.0597041464240828
 32
0.0
 13
0.0236159746079381
 23
-0.0597041464240828
 33
0.0
210
0.0
220
0.0
230
-1.0
  0
LINE
  5
915
  8
PART
  6
CONTINUOUS
 10
-0.0291049448509689
 20
-0.030340749132065
 30
0.0
 11
-0.0263840253918371
 21
-0.0298321211352318
 31
0.0
  0
LINE
  5
916
  8
PART
  6
CONTINUOUS
 10
-0.0236159746079381
 20
-0.0298321211352318
 30
0.0
 11
-0.0208950551488064
 21
-0.030340749132065
 31
0.0
  0
LINE
  5
917
  8
PART
  6
CONTINUOUS
 10
-0.0316860753365357
 20
-0.0313406844093314
 30
0.0
 11
-0.0291049448509689
 21
-0.030340749132065
 31
0.0
  0
LINE
  5
918
  8
PART
  6
CONTINUOUS
 10
-0.0208950551488064
 20
-0.030340749132065
 30
0.0
 11
-0.0183139246632395
 21
-0.0313406844093314
 31
0.0
  0
LINE
  5
919
  8
PART
  6
CONTINUOUS
 10
-0.0340395195455765
 20
-0.0327978753704537
 30
0.0
 11
-0.0316860753365357
 21
-0.0313406844093314
 31
0.0
  0
LINE
  5
91A
  8
PART
  6
CONTINUOUS
 10
-0.0183139246632395
 20
-0.0313406844093314
 30
0.0
 11
-0.0159604804541988
 21
-0.0327978753704537
 31
0.0
  0
LINE
  5
91B
  8
PART
  6
CONTINUOUS
 10
-0.0360851337581975
 20
-0.034662699124959
 30
0.0
 11
-0.0340395195455765
 21
-0.0327978753704537
 31
0.0
  0
LINE
  5
91C
  8
PART
  6
CONTINUOUS
 10
-0.0159604804541988
 20
-0.0327978753704537
 30
0.0
 11
-0.0139148662415777
 21
-0.034662699124959
 31
0.0
  0
LINE
  5
91D
  8
PART
  6
CONTINUOUS
 10
-0.0377532570358318
 20
-0.036871651336497
 30
0.0
 11
-0.0360851337581975
 21
-0.034662699124959
 31
0.0
  0
LINE
  5
91E
  8
PART
  6
CONTINUOUS
 10
-0.0139148662415777
 20
-0.034662699124959
 30
0.0
 11
-0.0122467429639434
 21
-0.036871651336497
 31
0.0
  0
LINE
  5
91F
  8
PART
  6
CONTINUOUS
 10
-0.0389870834409529
 20
-0.03934950878685
 30
0.0
 11
-0.0377532570358318
 21
-0.036871651336497
 31
0.0
  0
LINE
  5
920
  8
PART
  6
CONTINUOUS
 10
-0.0122467429639434
 20
-0.036871651336497
 30
0.0
 11
-0.0110129165588223
 21
-0.03934950878685
 31
0.0
  0
LINE
  5
921
  8
PART
  6
CONTINUOUS
 10
-0.0397445964951461
 20
-0.0420118910124088
 30
0.0
 11
-0.0389870834409529
 21
-0.03934950878685
 31
0.0
  0
LINE
  5
922
  8
PART
  6
CONTINUOUS
 10
-0.0110129165588223
 20
-0.03934950878685
 30
0.0
 11
-0.0102554035046291
 21
-0.0420118910124088
 31
0.0
  0
LINE
  5
923
  8
PART
  6
CONTINUOUS
 10
-0.0399999999998876
 20
-0.0447681337796573
 30
0.0
 11
-0.0397445964951461
 21
-0.0420118910124088
 31
0.0
  0
LINE
  5
924
  8
PART
  6
CONTINUOUS
 10
-0.0102554035046291
 20
-0.0420118910124088
 30
0.0
 11
-0.0099999999998876
 21
-0.0447681337796573
 31
0.0
  0
LINE
  5
925
  8
PART
  6
CONTINUOUS
 10
-0.0397445964951461
 20
-0.0475243765469059
 30
0.0
 11
-0.0399999999998876
 21
-0.0447681337796573
 31
0.0
  0
LINE
  5
926
  8
PART
  6
CONTINUOUS
 10
-0.0099999999998876
 20
-0.0447681337796573
 30
0.0
 11
-0.0102554035046291
 21
-0.0475243765469059
 31
0.0
  0
LINE
  5
927
  8
PART
  6
CONTINUOUS
 10
-0.0389870834409529
 20
-0.0501867587724646
 30
0.0
 11
-0.0397445964951461
 21
-0.0475243765469059
 31
0.0
  0
LINE
  5
928
  8
PART
  6
CONTINUOUS
 10
-0.0102554035046291
 20
-0.0475243765469059
 30
0.0
 11
-0.0110129165588223
 21
-0.0501867587724646
 31
0.0
  0
LINE
  5
929
  8
PART
  6
CONTINUOUS
 10
-0.0377532570358318
 20
-0.0526646162228176
 30
0.0
 11
-0.0389870834409529
 21
-0.0501867587724646
 31
0.0
  0
LINE
  5
92A
  8
PART
  6
CONTINUOUS
 10
-0.0110129165588223
 20
-0.0501867587724646
 30
0.0
 11
-0.0122467429639434
 21
-0.0526646162228176
 31
0.0
  0
LINE
  5
92B
  8
PART
  6
CONTINUOUS
 10
-0.0360851337581975
 20
-0.0548735684343557
 30
0.0
 11
-0.0377532570358318
 21
-0.0526646162228176
 31
0.0
  0
LINE
  5
92C
  8
PART
  6
CONTINUOUS
 10
-0.0122467429639434
 20
-0.0526646162228176
 30
0.0
 11
-0.0139148662415777
 21
-0.0548735684343557
 31
0.0
  0
LINE
  5
92D
  8
PART
  6
CONTINUOUS
 10
-0.0340395195455765
 20
-0.0567383921888609
 30
0.0
 11
-0.0360851337581975
 21
-0.0548735684343557
 31
0.0
  0
LINE
  5
92E
  8
PART
  6
CONTINUOUS
 10
-0.0139148662415777
 20
-0.0548735684343557
 30
0.0
 11
-0.0159604804541988
 21
-0.0567383921888609
 31
0.0
  0
LINE
  5
92F
  8
PART
  6
CONTINUOUS
 10
-0.0316860753365357
 20
-0.0581955831499832
 30
0.0
 11
-0.0340395195455765
 21
-0.0567383921888609
 31
0.0
  0
LINE
  5
930
  8
PART
  6
CONTINUOUS
 10
-0.0159604804541988
 20
-0.0567383921888609
 30
0.0
 11
-0.0183139246632395
 21
-0.0581955831499832
 31
0.0
  0
LINE
  5
931
  8
PART
  6
CONTINUOUS
 10
-0.0291049448509689
 20
-0.0591955184272496
 30
0.0
 11
-0.0316860753365357
 21
-0.0581955831499832
 31
0.0
  0
LINE
  5
932
  8
PART
  6
CONTINUOUS
 10
-0.0183139246632395
 20
-0.0581955831499832
 30
0.0
 11
-0.0208950551488064
 21
-0.0591955184272496
 31
0.0
  0
LINE
  5
933
  8
PART
  6
CONTINUOUS
 10
-0.0263840253918371
 20
-0.0597041464240828
 30
0.0
 11
-0.0291049448509689
 21
-0.0591955184272496
 31
0.0
  0
LINE
  5
934
  8
PART
  6
CONTINUOUS
 10
-0.0208950551488064
 20
-0.0591955184272496
 30
0.0
 11
-0.0236159746079381
 21
-0.0597041464240828
 31
0.0
  0
ENDBLK
  5
936
  8
0
  0
BLOCK
  8
0
  2
_ACMFILLEDHALF
 70
     0
 10
0.0
 20
0.0
 30
0.0
  3
_ACMFILLEDHALF
  1

  0
TRACE
  5
5D2
  8
0
 62
     0
 10
-0.8
 20
0.0
 30
0.0
 11
-1.0
 21
0.166666666
 31
0.0
 12
0.0
 22
0.0
 32
0.0
 13
0.0
 23
0.0
 33
0.0
  0
LINE
  5
5D3
  8
0
 62
     0
 10
-1.0
 20
0.0
 30
0.0
 11
-0.8
 21
0.0
 31
0.0
  0
ENDBLK
  5
5D1
  8
0
  0
BLOCK
  8
0
  2
*U7
 70
     1
 10
0.0
 20
0.0
 30
0.0
  3
*U7
  1

  0
SOLID
  5
938
  8
PCB_BOT
  6
CONTINUOUS
 10
0.5512595478599887
 20
0.5687805514607858
 30
0.0
 11
0.5422717931298673
 21
0.5578289406350151
 31
0.0
 12
0.5622111586857586
 22
0.5578289406350151
 32
0.0
 13
0.5622111586857586
 23
0.5578289406350151
 33
0.0
210
0.0
220
0.0
230
-1.0
  0
SOLID
  5
939
  8
PCB_BOT
  6
CONTINUOUS
 10
0.5622111586857586
 20
0.5578289406350151
 30
0.0
 11
0.5355932888692845
 21
0.5453343379758933
 31
0.0
 12
0.5747057613448795
 22
0.5453343379758933
 32
0.0
 13
0.5747057613448795
 23
0.5453343379758933
 33
0.0
210
0.0
220
0.0
230
-1.0
  0
SOLID
  5
93A
  8
PCB_BOT
  6
CONTINUOUS
 10
0.5622111586857586
 20
0.5578289406350151
 30
0.0
 11
0.5422717931298673
 21
0.5578289406350151
 31
0.0
 12
0.5355932888692845
 22
0.5453343379758933
 32
0.0
 13
0.5355932888692845
 23
0.5453343379758933
 33
0.0
210
0.0
220
0.0
230
-1.0
  0
SOLID
  5
93B
  8
PCB_BOT
  6
CONTINUOUS
 10
0.5747057613448795
 20
0.5453343379758933
 30
0.0
 11
0.5314806862516263
 21
0.5317769040565568
 31
0.0
 12
0.5882631952642156
 22
0.5317769040565568
 32
0.0
 13
0.5882631952642156
 23
0.5317769040565568
 33
0.0
210
0.0
220
0.0
230
-1.0
  0
SOLID
  5
93C
  8
PCB_BOT
  6
CONTINUOUS
 10
0.5747057613448795
 20
0.5453343379758933
 30
0.0
 11
0.5355932888692845
 21
0.5453343379758933
 31
0.0
 12
0.5314806862516263
 22
0.5317769040565568
 32
0.0
 13
0.5314806862516263
 23
0.5317769040565568
 33
0.0
210
0.0
220
0.0
230
-1.0
  0
SOLID
  5
93D
  8
PCB_BOT
  6
CONTINUOUS
 10
0.6023624558613429
 20
0.5176776434594244
 30
0.0
 11
0.5882631952642181
 21
0.5035783828622995
 31
0.0
 12
0.6023624558613429
 22
0.5035783828622995
 32
0.0
 13
0.6023624558613429
 23
0.5035783828622995
 33
0.0
210
0.0
220
0.0
230
-1.0
  0
SOLID
  5
93E
  8
PCB_BOT
  6
CONTINUOUS
 10
0.5882631952642156
 20
0.5317769040565568
 30
0.0
 11
0.5300920302891147
 21
0.5176776434594244
 31
0.0
 12
0.6023624558613464
 22
0.5176776434594244
 32
0.0
 13
0.6023624558613464
 23
0.5176776434594244
 33
0.0
210
0.0
220
0.0
230
-1.0
  0
SOLID
  5
93F
  8
PCB_BOT
  6
CONTINUOUS
 10
0.5882631952642156
 20
0.5317769040565568
 30
0.0
 11
0.5314806862516263
 21
0.5317769040565568
 31
0.0
 12
0.5300920302891147
 22
0.5176776434594244
 32
0.0
 13
0.5300920302891147
 23
0.5176776434594244
 33
0.0
210
0.0
220
0.0
230
-1.0
  0
SOLID
  5
940
  8
PCB_BOT
  6
CONTINUOUS
 10
0.6023624558613393
 20
0.5176776434594244
 30
0.0
 11
0.5314806862516264
 21
0.5035783828622995
 31
0.0
 12
0.5882631952642144
 22
0.5035783828622995
 32
0.0
 13
0.5882631952642144
 23
0.5035783828622995
 33
0.0
210
0.0
220
0.0
230
-1.0
  0
SOLID
  5
941
  8
PCB_BOT
  6
CONTINUOUS
 10
0.6023624558613393
 20
0.5176776434594244
 30
0.0
 11
0.5300920302891155
 21
0.5176776434594244
 31
0.0
 12
0.5314806862516264
 22
0.5035783828622995
 32
0.0
 13
0.5314806862516264
 23
0.5035783828622995
 33
0.0
210
0.0
220
0.0
230
-1.0
  0
SOLID
  5
942
  8
PCB_BOT
  6
CONTINUOUS
 10
0.5882631952642144
 20
0.5035783828622995
 30
0.0
 11
0.5355932888692847
 21
0.4900209489429627
 31
0.0
 12
0.5747057613448777
 22
0.4900209489429627
 32
0.0
 13
0.5747057613448777
 23
0.4900209489429627
 33
0.0
210
0.0
220
0.0
230
-1.0
  0
SOLID
  5
943
  8
PCB_BOT
  6
CONTINUOUS
 10
0.5882631952642144
 20
0.5035783828622995
 30
0.0
 11
0.5314806862516264
 21
0.5035783828622995
 31
0.0
 12
0.5355932888692847
 22
0.4900209489429627
 32
0.0
 13
0.5355932888692847
 23
0.4900209489429627
 33
0.0
210
0.0
220
0.0
230
-1.0
  0
SOLID
  5
944
  8
PCB_BOT
  6
CONTINUOUS
 10
0.5622111586857561
 20
0.477526346283841
 30
0.0
 11
0.5422717931298675
 21
0.477526346283841
 31
0.0
 12
0.5512595478599887
 22
0.4665747354580703
 32
0.0
 13
0.5512595478599887
 23
0.4665747354580703
 33
0.0
210
0.0
220
0.0
230
-1.0
  0
SOLID
  5
945
  8
PCB_BOT
  6
CONTINUOUS
 10
0.5747057613448777
 20
0.4900209489429627
 30
0.0
 11
0.5422717931298675
 21
0.477526346283841
 31
0.0
 12
0.5622111586857561
 22
0.477526346283841
 32
0.0
 13
0.5622111586857561
 23
0.477526346283841
 33
0.0
210
0.0
220
0.0
230
-1.0
  0
SOLID
  5
946
  8
PCB_BOT
  6
CONTINUOUS
 10
0.5747057613448777
 20
0.4900209489429627
 30
0.0
 11
0.5355932888692847
 21
0.4900209489429627
 31
0.0
 12
0.5422717931298675
 22
0.477526346283841
 32
0.0
 13
0.5422717931298675
 23
0.477526346283841
 33
0.0
210
0.0
220
0.0
230
-1.0
  0
SOLID
  5
947
  8
PCB_BOT
  6
CONTINUOUS
 10
0.6023624558613429
 20
0.5035783828622995
 30
0.0
 11
0.5512595478599887
 21
0.4665747354580703
 31
0.0
 12
0.6023624558613429
 22
0.4665747354580703
 32
0.0
 13
0.6023624558613429
 23
0.4665747354580703
 33
0.0
210
0.0
220
0.0
230
-1.0
  0
SOLID
  5
948
  8
PCB_BOT
  6
CONTINUOUS
 10
0.6023624558613429
 20
0.5035783828622995
 30
0.0
 11
0.5882631952642181
 21
0.5035783828622995
 31
0.0
 12
0.5512595478599887
 22
0.4665747354580703
 32
0.0
 13
0.5512595478599887
 23
0.4665747354580703
 33
0.0
210
0.0
220
0.0
230
-1.0
  0
SOLID
  5
949
  8
PCB_BOT
  6
CONTINUOUS
 10
0.6023624558613429
 20
0.4665747354580703
 30
0.0
 11
0.5622111586857586
 21
0.4575869807279526
 31
0.0
 12
0.6023624558613429
 22
0.4575869807279526
 32
0.0
 13
0.6023624558613429
 23
0.4575869807279526
 33
0.0
210
0.0
220
0.0
230
-1.0
  0
SOLID
  5
94A
  8
PCB_BOT
  6
CONTINUOUS
 10
0.6023624558613429
 20
0.4665747354580703
 30
0.0
 11
0.5512595478599927
 21
0.4665747354580703
 31
0.0
 12
0.5622111586857586
 22
0.4575869807279526
 32
0.0
 13
0.5622111586857586
 23
0.4575869807279526
 33
0.0
210
0.0
220
0.0
230
-1.0
  0
SOLID
  5
94B
  8
PCB_BOT
  6
CONTINUOUS
 10
0.6023624558613429
 20
0.4575869807279526
 30
0.0
 11
0.5747057613448794
 21
0.45090847646737
 31
0.0
 12
0.6023624558613429
 22
0.45090847646737
 32
0.0
 13
0.6023624558613429
 23
0.45090847646737
 33
0.0
210
0.0
220
0.0
230
-1.0
  0
SOLID
  5
94C
  8
PCB_BOT
  6
CONTINUOUS
 10
0.6023624558613429
 20
0.4575869807279526
 30
0.0
 11
0.5622111586857586
 21
0.4575869807279526
 31
0.0
 12
0.5747057613448794
 22
0.45090847646737
 32
0.0
 13
0.5747057613448794
 23
0.45090847646737
 33
0.0
210
0.0
220
0.0
230
-1.0
  0
SOLID
  5
94D
  8
PCB_BOT
  6
CONTINUOUS
 10
0.6023624558613429
 20
0.4467958738497117
 30
0.0
 11
0.5882631952642156
 21
0.4467958738497117
 31
0.0
 12
0.6023624558613429
 22
0.4454072178872003
 32
0.0
 13
0.6023624558613429
 23
0.4454072178872003
 33
0.0
210
0.0
220
0.0
230
-1.0
  0
SOLID
  5
94E
  8
PCB_BOT
  6
CONTINUOUS
 10
0.6023624558613429
 20
0.45090847646737
 30
0.0
 11
0.5882631952642156
 21
0.4467958738497117
 31
0.0
 12
0.6023624558613429
 22
0.4467958738497117
 32
0.0
 13
0.6023624558613429
 23
0.4467958738497117
 33
0.0
210
0.0
220
0.0
230
-1.0
  0
SOLID
  5
94F
  8
PCB_BOT
  6
CONTINUOUS
 10
0.6023624558613429
 20
0.45090847646737
 30
0.0
 11
0.5747057613448794
 21
0.45090847646737
 31
0.0
 12
0.5882631952642156
 22
0.4467958738497117
 32
0.0
 13
0.5882631952642156
 23
0.4467958738497117
 33
0.0
210
0.0
220
0.0
230
-1.0
  0
LINE
  5
950
  8
PCB_BOT
  6
CONTINUOUS
 10
-0.5512595478599887
 20
0.5687805514607858
 30
0.0
 11
-0.5422717931298673
 21
0.5578289406350151
 31
0.0
  0
LINE
  5
951
  8
PCB_BOT
  6
CONTINUOUS
 10
-0.5622111586857586
 20
0.5578289406350151
 30
0.0
 11
-0.5512595478599887
 21
0.5687805514607858
 31
0.0
  0
LINE
  5
952
  8
PCB_BOT
  6
CONTINUOUS
 10
-0.5747057613448795
 20
0.5453343379758933
 30
0.0
 11
-0.5622111586857586
 21
0.5578289406350151
 31
0.0
  0
LINE
  5
953
  8
PCB_BOT
  6
CONTINUOUS
 10
-0.5422717931298673
 20
0.5578289406350151
 30
0.0
 11
-0.5355932888692845
 21
0.5453343379758933
 31
0.0
  0
LINE
  5
954
  8
PCB_BOT
  6
CONTINUOUS
 10
-0.5882631952642156
 20
0.5317769040565568
 30
0.0
 11
-0.5747057613448795
 21
0.5453343379758933
 31
0.0
  0
LINE
  5
955
  8
PCB_BOT
  6
CONTINUOUS
 10
-0.5355932888692845
 20
0.5453343379758933
 30
0.0
 11
-0.5314806862516263
 21
0.5317769040565568
 31
0.0
  0
LINE
  5
956
  8
PCB_BOT
  6
CONTINUOUS
 10
-0.6023624558613429
 20
0.5176776434594244
 30
0.0
 11
-0.5882631952642181
 21
0.5035783828622995
 31
0.0
  0
LINE
  5
957
  8
PCB_BOT
  6
CONTINUOUS
 10
-0.6023624558613429
 20
0.5035783828622995
 30
0.0
 11
-0.6023624558613429
 21
0.5176776434594244
 31
0.0
  0
LINE
  5
958
  8
PCB_BOT
  6
CONTINUOUS
 10
-0.6023624558613464
 20
0.5176776434594244
 30
0.0
 11
-0.5882631952642156
 21
0.5317769040565568
 31
0.0
  0
LINE
  5
959
  8
PCB_BOT
  6
CONTINUOUS
 10
-0.5314806862516263
 20
0.5317769040565568
 30
0.0
 11
-0.5300920302891147
 21
0.5176776434594244
 31
0.0
  0
LINE
  5
95A
  8
PCB_BOT
  6
CONTINUOUS
 10
-0.5882631952642144
 20
0.5035783828622995
 30
0.0
 11
-0.6023624558613393
 21
0.5176776434594244
 31
0.0
  0
LINE
  5
95B
  8
PCB_BOT
  6
CONTINUOUS
 10
-0.5300920302891155
 20
0.5176776434594244
 30
0.0
 11
-0.5314806862516264
 21
0.5035783828622995
 31
0.0
  0
LINE
  5
95C
  8
PCB_BOT
  6
CONTINUOUS
 10
-0.5747057613448777
 20
0.4900209489429627
 30
0.0
 11
-0.5882631952642144
 21
0.5035783828622995
 31
0.0
  0
LINE
  5
95D
  8
PCB_BOT
  6
CONTINUOUS
 10
-0.5314806862516264
 20
0.5035783828622995
 30
0.0
 11
-0.5355932888692847
 21
0.4900209489429627
 31
0.0
  0
LINE
  5
95E
  8
PCB_BOT
  6
CONTINUOUS
 10
-0.5422717931298675
 20
0.477526346283841
 30
0.0
 11
-0.5512595478599887
 21
0.4665747354580703
 31
0.0
  0
LINE
  5
95F
  8
PCB_BOT
  6
CONTINUOUS
 10
-0.5512595478599887
 20
0.4665747354580703
 30
0.0
 11
-0.5622111586857561
 21
0.477526346283841
 31
0.0
  0
LINE
  5
960
  8
PCB_BOT
  6
CONTINUOUS
 10
-0.5622111586857561
 20
0.477526346283841
 30
0.0
 11
-0.5747057613448777
 21
0.4900209489429627
 31
0.0
  0
LINE
  5
961
  8
PCB_BOT
  6
CONTINUOUS
 10
-0.5355932888692847
 20
0.4900209489429627
 30
0.0
 11
-0.5422717931298675
 21
0.477526346283841
 31
0.0
  0
LINE
  5
962
  8
PCB_BOT
  6
CONTINUOUS
 10
-0.6023624558613429
 20
0.4665747354580703
 30
0.0
 11
-0.6023624558613429
 21
0.5035783828622995
 31
0.0
  0
LINE
  5
963
  8
PCB_BOT
  6
CONTINUOUS
 10
-0.5882631952642181
 20
0.5035783828622995
 30
0.0
 11
-0.5512595478599887
 21
0.4665747354580703
 31
0.0
  0
LINE
  5
964
  8
PCB_BOT
  6
CONTINUOUS
 10
-0.6023624558613429
 20
0.4575869807279526
 30
0.0
 11
-0.6023624558613429
 21
0.4665747354580703
 31
0.0
  0
LINE
  5
965
  8
PCB_BOT
  6
CONTINUOUS
 10
-0.5512595478599927
 20
0.4665747354580703
 30
0.0
 11
-0.5622111586857586
 21
0.4575869807279526
 31
0.0
  0
LINE
  5
966
  8
PCB_BOT
  6
CONTINUOUS
 10
-0.6023624558613429
 20
0.45090847646737
 30
0.0
 11
-0.6023624558613429
 21
0.4575869807279526
 31
0.0
  0
LINE
  5
967
  8
PCB_BOT
  6
CONTINUOUS
 10
-0.5622111586857586
 20
0.4575869807279526
 30
0.0
 11
-0.5747057613448794
 21
0.45090847646737
 31
0.0
  0
LINE
  5
968
  8
PCB_BOT
  6
CONTINUOUS
 10
-0.5882631952642156
 20
0.4467958738497117
 30
0.0
 11
-0.6023624558613429
 21
0.4454072178872003
 31
0.0
  0
LINE
  5
969
  8
PCB_BOT
  6
CONTINUOUS
 10
-0.6023624558613429
 20
0.4454072178872003
 30
0.0
 11
-0.6023624558613429
 21
0.4467958738497117
 31
0.0
  0
LINE
  5
96A
  8
PCB_BOT
  6
CONTINUOUS
 10
-0.6023624558613429
 20
0.4467958738497117
 30
0.0
 11
-0.6023624558613429
 21
0.45090847646737
 31
0.0
  0
LINE
  5
96B
  8
PCB_BOT
  6
CONTINUOUS
 10
-0.5747057613448794
 20
0.45090847646737
 30
0.0
 11
-0.5882631952642156
 21
0.4467958738497117
 31
0.0
  0
ENDBLK
  5
96D
  8
0
  0
BLOCK
  8
0
  2
*U8
 70
     1
 10
0.0
 20
0.0
 30
0.0
  3
*U8
  1

  0
SOLID
  5
96F
  8
PCB_OUTLINE
  6
CONTINUOUS
 10
0.6023624558613465
 20
0.5176776434594279
 30
0.0
 11
0.6023624558613374
 21
0.5035783828623006
 31
0.0
 12
0.6164617164584758
 22
0.5035783828623006
 32
0.0
 13
0.6164617164584758
 23
0.5035783828623006
 33
0.0
210
0.0
220
0.0
230
-1.0
  0
SOLID
  5
970
  8
PCB_OUTLINE
  6
CONTINUOUS
 10
0.6746328814335705
 20
0.5176776434594279
 30
0.0
 11
0.6164617164584783
 21
0.5035783828623006
 31
0.0
 12
0.6732442254710628
 22
0.5035783828623006
 32
0.0
 13
0.6732442254710628
 23
0.5035783828623006
 33
0.0
210
0.0
220
0.0
230
-1.0
  0
SOLID
  5
971
  8
PCB_OUTLINE
  6
CONTINUOUS
 10
0.6746328814335705
 20
0.5176776434594279
 30
0.0
 11
0.60236245586135
 21
0.5176776434594279
 31
0.0
 12
0.6164617164584783
 22
0.5035783828623006
 32
0.0
 13
0.6164617164584783
 23
0.5035783828623006
 33
0.0
210
0.0
220
0.0
230
-1.0
  0
SOLID
  5
972
  8
PCB_OUTLINE
  6
CONTINUOUS
 10
0.6732442254710628
 20
0.5035783828623006
 30
0.0
 11
0.6300191503778158
 21
0.4900209489429641
 31
0.0
 12
0.6691316228534082
 22
0.4900209489429641
 32
0.0
 13
0.6691316228534082
 23
0.4900209489429641
 33
0.0
210
0.0
220
0.0
230
-1.0
  0
SOLID
  5
973
  8
PCB_OUTLINE
  6
CONTINUOUS
 10
0.6732442254710628
 20
0.5035783828623006
 30
0.0
 11
0.6164617164584783
 21
0.5035783828623006
 31
0.0
 12
0.6300191503778158
 22
0.4900209489429641
 32
0.0
 13
0.6300191503778158
 23
0.4900209489429641
 33
0.0
210
0.0
220
0.0
230
-1.0
  0
SOLID
  5
974
  8
PCB_OUTLINE
  6
CONTINUOUS
 10
0.6624531185928292
 20
0.4775263462838419
 30
0.0
 11
0.6425137530369388
 21
0.4775263462838419
 31
0.0
 12
0.6534653638627113
 22
0.4665747354580703
 32
0.0
 13
0.6534653638627113
 23
0.4665747354580703
 33
0.0
210
0.0
220
0.0
230
-1.0
  0
SOLID
  5
975
  8
PCB_OUTLINE
  6
CONTINUOUS
 10
0.6164617164584758
 20
0.5035783828623006
 30
0.0
 11
0.6023624558613399
 21
0.4775263462838419
 31
0.0
 12
0.6425137530369383
 22
0.4775263462838419
 32
0.0
 13
0.6425137530369383
 23
0.4775263462838419
 33
0.0
210
0.0
220
0.0
230
-1.0
  0
SOLID
  5
976
  8
PCB_OUTLINE
  6
CONTINUOUS
 10
0.6164617164584758
 20
0.5035783828623006
 30
0.0
 11
0.6023624558613374
 21
0.5035783828623006
 31
0.0
 12
0.6023624558613399
 22
0.4775263462838419
 32
0.0
 13
0.6023624558613399
 23
0.4775263462838419
 33
0.0
210
0.0
220
0.0
230
-1.0
  0
SOLID
  5
977
  8
PCB_OUTLINE
  6
CONTINUOUS
 10
0.6691316228534082
 20
0.4900209489429641
 30
0.0
 11
0.6425137530369388
 21
0.4775263462838419
 31
0.0
 12
0.6624531185928292
 22
0.4775263462838419
 32
0.0
 13
0.6624531185928292
 23
0.4775263462838419
 33
0.0
210
0.0
220
0.0
230
-1.0
  0
SOLID
  5
978
  8
PCB_OUTLINE
  6
CONTINUOUS
 10
0.6691316228534082
 20
0.4900209489429641
 30
0.0
 11
0.6300191503778158
 21
0.4900209489429641
 31
0.0
 12
0.6425137530369388
 22
0.4775263462838419
 32
0.0
 13
0.6425137530369388
 23
0.4775263462838419
 33
0.0
210
0.0
220
0.0
230
-1.0
  0
SOLID
  5
979
  8
PCB_OUTLINE
  6
CONTINUOUS
 10
0.6425137530369383
 20
0.4775263462838419
 30
0.0
 11
0.6023624558613409
 21
0.4665747354580703
 31
0.0
 12
0.6534653638627113
 22
0.4665747354580703
 32
0.0
 13
0.6534653638627113
 23
0.4665747354580703
 33
0.0
210
0.0
220
0.0
230
-1.0
  0
SOLID
  5
97A
  8
PCB_OUTLINE
  6
CONTINUOUS
 10
0.6425137530369383
 20
0.4775263462838419
 30
0.0
 11
0.6023624558613399
 21
0.4775263462838419
 31
0.0
 12
0.6023624558613409
 22
0.4665747354580703
 32
0.0
 13
0.6023624558613409
 23
0.4665747354580703
 33
0.0
210
0.0
220
0.0
230
-1.0
  0
SOLID
  5
97B
  8
PCB_OUTLINE
  6
CONTINUOUS
 10
0.6534653638627113
 20
0.4665747354580703
 30
0.0
 11
0.6023624558613415
 21
0.459209640980787
 31
0.0
 12
0.6448419461896064
 22
0.459209640980787
 32
0.0
 13
0.6448419461896064
 23
0.459209640980787
 33
0.0
210
0.0
220
0.0
230
-1.0
  0
SOLID
  5
97C
  8
PCB_OUTLINE
  6
CONTINUOUS
 10
0.6534653638627113
 20
0.4665747354580703
 30
0.0
 11
0.6023624558613409
 21
0.4665747354580703
 31
0.0
 12
0.6023624558613415
 22
0.459209640980787
 32
0.0
 13
0.6023624558613415
 23
0.459209640980787
 33
0.0
210
0.0
220
0.0
230
-1.0
  0
SOLID
  5
97D
  8
PCB_OUTLINE
  6
CONTINUOUS
 10
0.6448419461896064
 20
0.459209640980787
 30
0.0
 11
0.6023624558613421
 21
0.4532842227687029
 31
0.0
 12
0.6351725424832742
 22
0.4532842227687029
 32
0.0
 13
0.6351725424832742
 23
0.4532842227687029
 33
0.0
210
0.0
220
0.0
230
-1.0
  0
SOLID
  5
97E
  8
PCB_OUTLINE
  6
CONTINUOUS
 10
0.6448419461896064
 20
0.459209640980787
 30
0.0
 11
0.6023624558613415
 21
0.459209640980787
 31
0.0
 12
0.6023624558613421
 22
0.4532842227687029
 32
0.0
 13
0.6023624558613421
 23
0.4532842227687029
 33
0.0
210
0.0
220
0.0
230
-1.0
  0
SOLID
  5
97F
  8
PCB_OUTLINE
  6
CONTINUOUS
 10
0.6351725424832742
 20
0.4532842227687029
 30
0.0
 11
0.6023624558613429
 21
0.4489443842835362
 31
0.0
 12
0.6246952455538751
 22
0.4489443842835362
 32
0.0
 13
0.6246952455538751
 23
0.4489443842835362
 33
0.0
210
0.0
220
0.0
230
-1.0
  0
SOLID
  5
980
  8
PCB_OUTLINE
  6
CONTINUOUS
 10
0.6351725424832742
 20
0.4532842227687029
 30
0.0
 11
0.6023624558613421
 21
0.4532842227687029
 31
0.0
 12
0.6023624558613429
 22
0.4489443842835362
 32
0.0
 13
0.6023624558613429
 23
0.4489443842835362
 33
0.0
210
0.0
220
0.0
230
-1.0
  0
SOLID
  5
981
  8
PCB_OUTLINE
  6
CONTINUOUS
 10
0.6136680412239662
 20
0.4462969867518893
 30
0.0
 11
0.6023624558613429
 21
0.4462969867518893
 31
0.0
 12
0.6023624558613429
 22
0.4454072178872003
 32
0.0
 13
0.6023624558613429
 23
0.4454072178872003
 33
0.0
210
0.0
220
0.0
230
-1.0
  0
SOLID
  5
982
  8
PCB_OUTLINE
  6
CONTINUOUS
 10
0.6246952455538751
 20
0.4489443842835362
 30
0.0
 11
0.6023624558613429
 21
0.4462969867518893
 31
0.0
 12
0.6136680412239662
 22
0.4462969867518893
 32
0.0
 13
0.6136680412239662
 23
0.4462969867518893
 33
0.0
210
0.0
220
0.0
230
-1.0
  0
SOLID
  5
983
  8
PCB_OUTLINE
  6
CONTINUOUS
 10
0.6246952455538751
 20
0.4489443842835362
 30
0.0
 11
0.6023624558613429
 21
0.4489443842835362
 31
0.0
 12
0.6023624558613429
 22
0.4462969867518893
 32
0.0
 13
0.6023624558613429
 23
0.4462969867518893
 33
0.0
210
0.0
220
0.0
230
-1.0
  0
LINE
  5
984
  8
PCB_OUTLINE
  6
CONTINUOUS
 10
-0.6023624558613465
 20
0.5176776434594279
 30
0.0
 11
-0.6023624558613374
 21
0.5035783828623006
 31
0.0
  0
LINE
  5
985
  8
PCB_OUTLINE
  6
CONTINUOUS
 10
-0.6164617164584758
 20
0.5035783828623006
 30
0.0
 11
-0.6023624558613465
 21
0.5176776434594279
 31
0.0
  0
LINE
  5
986
  8
PCB_OUTLINE
  6
CONTINUOUS
 10
-0.6732442254710628
 20
0.5035783828623006
 30
0.0
 11
-0.6746328814335705
 21
0.5176776434594279
 31
0.0
  0
LINE
  5
987
  8
PCB_OUTLINE
  6
CONTINUOUS
 10
-0.60236245586135
 20
0.5176776434594279
 30
0.0
 11
-0.6164617164584783
 21
0.5035783828623006
 31
0.0
  0
LINE
  5
988
  8
PCB_OUTLINE
  6
CONTINUOUS
 10
-0.6691316228534082
 20
0.4900209489429641
 30
0.0
 11
-0.6732442254710628
 21
0.5035783828623006
 31
0.0
  0
LINE
  5
989
  8
PCB_OUTLINE
  6
CONTINUOUS
 10
-0.6164617164584783
 20
0.5035783828623006
 30
0.0
 11
-0.6300191503778158
 21
0.4900209489429641
 31
0.0
  0
LINE
  5
98A
  8
PCB_OUTLINE
  6
CONTINUOUS
 10
-0.6534653638627113
 20
0.4665747354580703
 30
0.0
 11
-0.6624531185928292
 21
0.4775263462838419
 31
0.0
  0
LINE
  5
98B
  8
PCB_OUTLINE
  6
CONTINUOUS
 10
-0.6425137530369383
 20
0.4775263462838419
 30
0.0
 11
-0.6164617164584758
 21
0.5035783828623006
 31
0.0
  0
LINE
  5
98C
  8
PCB_OUTLINE
  6
CONTINUOUS
 10
-0.6023624558613374
 20
0.5035783828623006
 30
0.0
 11
-0.6023624558613399
 21
0.4775263462838419
 31
0.0
  0
LINE
  5
98D
  8
PCB_OUTLINE
  6
CONTINUOUS
 10
-0.6624531185928292
 20
0.4775263462838419
 30
0.0
 11
-0.6691316228534082
 21
0.4900209489429641
 31
0.0
  0
LINE
  5
98E
  8
PCB_OUTLINE
  6
CONTINUOUS
 10
-0.6300191503778158
 20
0.4900209489429641
 30
0.0
 11
-0.6425137530369388
 21
0.4775263462838419
 31
0.0
  0
LINE
  5
98F
  8
PCB_OUTLINE
  6
CONTINUOUS
 10
-0.6023624558613399
 20
0.4775263462838419
 30
0.0
 11
-0.6023624558613409
 21
0.4665747354580703
 31
0.0
  0
LINE
  5
990
  8
PCB_OUTLINE
  6
CONTINUOUS
 10
-0.6448419461896064
 20
0.459209640980787
 30
0.0
 11
-0.6534653638627113
 21
0.4665747354580703
 31
0.0
  0
LINE
  5
991
  8
PCB_OUTLINE
  6
CONTINUOUS
 10
-0.6023624558613409
 20
0.4665747354580703
 30
0.0
 11
-0.6023624558613415
 21
0.459209640980787
 31
0.0
  0
LINE
  5
992
  8
PCB_OUTLINE
  6
CONTINUOUS
 10
-0.6351725424832742
 20
0.4532842227687029
 30
0.0
 11
-0.6448419461896064
 21
0.459209640980787
 31
0.0
  0
LINE
  5
993
  8
PCB_OUTLINE
  6
CONTINUOUS
 10
-0.6023624558613415
 20
0.459209640980787
 30
0.0
 11
-0.6023624558613421
 21
0.4532842227687029
 31
0.0
  0
LINE
  5
994
  8
PCB_OUTLINE
  6
CONTINUOUS
 10
-0.6246952455538751
 20
0.4489443842835362
 30
0.0
 11
-0.6351725424832742
 21
0.4532842227687029
 31
0.0
  0
LINE
  5
995
  8
PCB_OUTLINE
  6
CONTINUOUS
 10
-0.6023624558613421
 20
0.4532842227687029
 30
0.0
 11
-0.6023624558613429
 21
0.4489443842835362
 31
0.0
  0
LINE
  5
996
  8
PCB_OUTLINE
  6
CONTINUOUS
 10
-0.6023624558613429
 20
0.4462969867518893
 30
0.0
 11
-0.6023624558613429
 21
0.4454072178872003
 31
0.0
  0
LINE
  5
997
  8
PCB_OUTLINE
  6
CONTINUOUS
 10
-0.6023624558613429
 20
0.4454072178872003
 30
0.0
 11
-0.6136680412239662
 21
0.4462969867518893
 31
0.0
  0
LINE
  5
998
  8
PCB_OUTLINE
  6
CONTINUOUS
 10
-0.6136680412239662
 20
0.4462969867518893
 30
0.0
 11
-0.6246952455538751
 21
0.4489443842835362
 31
0.0
  0
LINE
  5
999
  8
PCB_OUTLINE
  6
CONTINUOUS
 10
-0.6023624558613429
 20
0.4489443842835362
 30
0.0
 11
-0.6023624558613429
 21
0.4462969867518893
 31
0.0
  0
ENDBLK
  5
99B
  8
0
  0
BLOCK
  8
0
  2
*U9
 70
     1
 10
0.0
 20
0.0
 30
0.0
  3
*U9
  1

  0
SOLID
  5
99D
  8
PCB_TOP
  6
CONTINUOUS
 10
0.6023624558613429
 20
0.5899480690316558
 30
0.0
 11
0.6023624558613429
 21
0.5890583001669667
 31
0.0
 12
0.6136680412239643
 22
0.5890583001669667
 32
0.0
 13
0.6136680412239643
 23
0.5890583001669667
 33
0.0
210
0.0
220
0.0
230
-1.0
  0
SOLID
  5
99E
  8
PCB_TOP
  6
CONTINUOUS
 10
0.6023624558613429
 20
0.5899480690316558
 30
0.0
 11
0.5933284809725739
 21
0.5890583001669667
 31
0.0
 12
0.6023624558613429
 22
0.5890583001669667
 32
0.0
 13
0.6023624558613429
 23
0.5890583001669667
 33
0.0
210
0.0
220
0.0
230
-1.0
  0
SOLID
  5
99F
  8
PCB_TOP
  6
CONTINUOUS
 10
0.6023624558613429
 20
0.5890583001669667
 30
0.0
 11
0.5882631952642156
 21
0.5885594130691451
 31
0.0
 12
0.6023624558613429
 22
0.5885594130691451
 32
0.0
 13
0.6023624558613429
 23
0.5885594130691451
 33
0.0
210
0.0
220
0.0
230
-1.0
  0
SOLID
  5
9A0
  8
PCB_TOP
  6
CONTINUOUS
 10
0.6023624558613429
 20
0.5890583001669667
 30
0.0
 11
0.5933284809725739
 21
0.5890583001669667
 31
0.0
 12
0.5882631952642156
 22
0.5885594130691451
 32
0.0
 13
0.5882631952642156
 23
0.5885594130691451
 33
0.0
210
0.0
220
0.0
230
-1.0
  0
SOLID
  5
9A1
  8
PCB_TOP
  6
CONTINUOUS
 10
0.6136680412239643
 20
0.5890583001669667
 30
0.0
 11
0.6023624558613429
 21
0.5864109026353203
 31
0.0
 12
0.6246952455538716
 22
0.5864109026353203
 32
0.0
 13
0.6246952455538716
 23
0.5864109026353203
 33
0.0
210
0.0
220
0.0
230
-1.0
  0
SOLID
  5
9A2
  8
PCB_TOP
  6
CONTINUOUS
 10
0.6136680412239643
 20
0.5890583001669667
 30
0.0
 11
0.6023624558613429
 21
0.5890583001669667
 31
0.0
 12
0.6023624558613429
 22
0.5864109026353203
 32
0.0
 13
0.6023624558613429
 23
0.5864109026353203
 33
0.0
210
0.0
220
0.0
230
-1.0
  0
SOLID
  5
9A3
  8
PCB_TOP
  6
CONTINUOUS
 10
0.6023624558613429
 20
0.5885594130691451
 30
0.0
 11
0.5747057613448801
 21
0.5844468104514881
 31
0.0
 12
0.6023624558613429
 22
0.5844468104514881
 32
0.0
 13
0.6023624558613429
 23
0.5844468104514881
 33
0.0
210
0.0
220
0.0
230
-1.0
  0
SOLID
  5
9A4
  8
PCB_TOP
  6
CONTINUOUS
 10
0.6023624558613429
 20
0.5885594130691451
 30
0.0
 11
0.5882631952642156
 21
0.5885594130691451
 31
0.0
 12
0.5747057613448801
 22
0.5844468104514881
 32
0.0
 13
0.5747057613448801
 23
0.5844468104514881
 33
0.0
210
0.0
220
0.0
230
-1.0
  0
SOLID
  5
9A5
  8
PCB_TOP
  6
CONTINUOUS
 10
0.6246952455538716
 20
0.5864109026353203
 30
0.0
 11
0.6023624558613429
 21
0.5820710641501548
 31
0.0
 12
0.6351725424832692
 22
0.5820710641501548
 32
0.0
 13
0.6351725424832692
 23
0.5820710641501548
 33
0.0
210
0.0
220
0.0
230
-1.0
  0
SOLID
  5
9A6
  8
PCB_TOP
  6
CONTINUOUS
 10
0.6246952455538716
 20
0.5864109026353203
 30
0.0
 11
0.6023624558613429
 21
0.5864109026353203
 31
0.0
 12
0.6023624558613429
 22
0.5820710641501548
 32
0.0
 13
0.6023624558613429
 23
0.5820710641501548
 33
0.0
210
0.0
220
0.0
230
-1.0
  0
SOLID
  5
9A7
  8
PCB_TOP
  6
CONTINUOUS
 10
0.6023624558613429
 20
0.5844468104514881
 30
0.0
 11
0.5622111586857587
 21
0.5777683061909059
 31
0.0
 12
0.6023624558613429
 22
0.5777683061909059
 32
0.0
 13
0.6023624558613429
 23
0.5777683061909059
 33
0.0
210
0.0
220
0.0
230
-1.0
  0
SOLID
  5
9A8
  8
PCB_TOP
  6
CONTINUOUS
 10
0.6023624558613429
 20
0.5844468104514881
 30
0.0
 11
0.5747057613448801
 21
0.5844468104514881
 31
0.0
 12
0.5622111586857587
 22
0.5777683061909059
 32
0.0
 13
0.5622111586857587
 23
0.5777683061909059
 33
0.0
210
0.0
220
0.0
230
-1.0
  0
SOLID
  5
9A9
  8
PCB_TOP
  6
CONTINUOUS
 10
0.6351725424832692
 20
0.5820710641501548
 30
0.0
 11
0.6023624558613429
 21
0.5761456459380716
 31
0.0
 12
0.6448419461896005
 22
0.5761456459380716
 32
0.0
 13
0.6448419461896005
 23
0.5761456459380716
 33
0.0
210
0.0
220
0.0
230
-1.0
  0
SOLID
  5
9AA
  8
PCB_TOP
  6
CONTINUOUS
 10
0.6351725424832692
 20
0.5820710641501548
 30
0.0
 11
0.6023624558613429
 21
0.5820710641501548
 31
0.0
 12
0.6023624558613429
 22
0.5761456459380716
 32
0.0
 13
0.6023624558613429
 23
0.5761456459380716
 33
0.0
210
0.0
220
0.0
230
-1.0
  0
SOLID
  5
9AB
  8
PCB_TOP
  6
CONTINUOUS
 10
0.6534653638627073
 20
0.5687805514607858
 30
0.0
 11
0.6448419461896002
 21
0.5601571337876857
 31
0.0
 12
0.6608304583399863
 22
0.5601571337876857
 32
0.0
 13
0.6608304583399863
 23
0.5601571337876857
 33
0.0
210
0.0
220
0.0
230
-1.0
  0
SOLID
  5
9AC
  8
PCB_TOP
  6
CONTINUOUS
 10
0.6023624558613429
 20
0.5777683061909059
 30
0.0
 11
0.5512595478599887
 21
0.5687805514607858
 31
0.0
 12
0.6023624558613429
 22
0.5687805514607858
 32
0.0
 13
0.6023624558613429
 23
0.5687805514607858
 33
0.0
210
0.0
220
0.0
230
-1.0
  0
SOLID
  5
9AD
  8
PCB_TOP
  6
CONTINUOUS
 10
0.6023624558613429
 20
0.5777683061909059
 30
0.0
 11
0.5622111586857587
 21
0.5777683061909059
 31
0.0
 12
0.5512595478599887
 22
0.5687805514607858
 32
0.0
 13
0.5512595478599887
 23
0.5687805514607858
 33
0.0
210
0.0
220
0.0
230
-1.0
  0
SOLID
  5
9AE
  8
PCB_TOP
  6
CONTINUOUS
 10
0.6448419461896005
 20
0.5761456459380716
 30
0.0
 11
0.6023624558613429
 21
0.5687805514607858
 31
0.0
 12
0.6534653638627085
 22
0.5687805514607858
 32
0.0
 13
0.6534653638627085
 23
0.5687805514607858
 33
0.0
210
0.0
220
0.0
230
-1.0
  0
SOLID
  5
9AF
  8
PCB_TOP
  6
CONTINUOUS
 10
0.6448419461896005
 20
0.5761456459380716
 30
0.0
 11
0.6023624558613429
 21
0.5761456459380716
 31
0.0
 12
0.6023624558613429
 22
0.5687805514607858
 32
0.0
 13
0.6023624558613429
 23
0.5687805514607858
 33
0.0
210
0.0
220
0.0
230
-1.0
  0
SOLID
  5
9B0
  8
PCB_TOP
  6
CONTINUOUS
 10
0.6608304583399863
 20
0.5601571337876857
 30
0.0
 11
0.6351725424832692
 21
0.5504877300813547
 31
0.0
 12
0.666755876552069
 22
0.5504877300813547
 32
0.0
 13
0.666755876552069
 23
0.5504877300813547
 33
0.0
210
0.0
220
0.0
230
-1.0
  0
SOLID
  5
9B1
  8
PCB_TOP
  6
CONTINUOUS
 10
0.6608304583399863
 20
0.5601571337876857
 30
0.0
 11
0.6448419461896002
 21
0.5601571337876857
 31
0.0
 12
0.6351725424832692
 22
0.5504877300813547
 32
0.0
 13
0.6351725424832692
 23
0.5504877300813547
 33
0.0
210
0.0
220
0.0
230
-1.0
  0
SOLID
  5
9B2
  8
PCB_TOP
  6
CONTINUOUS
 10
0.666755876552069
 20
0.5504877300813547
 30
0.0
 11
0.6246952455538716
 21
0.5400104331519569
 31
0.0
 12
0.671095715037235
 22
0.5400104331519569
 32
0.0
 13
0.671095715037235
 23
0.5400104331519569
 33
0.0
210
0.0
220
0.0
230
-1.0
  0
SOLID
  5
9B3
  8
PCB_TOP
  6
CONTINUOUS
 10
0.666755876552069
 20
0.5504877300813547
 30
0.0
 11
0.6351725424832692
 21
0.5504877300813547
 31
0.0
 12
0.6246952455538716
 22
0.5400104331519569
 32
0.0
 13
0.6246952455538716
 23
0.5400104331519569
 33
0.0
210
0.0
220
0.0
230
-1.0
  0
SOLID
  5
9B4
  8
PCB_TOP
  6
CONTINUOUS
 10
0.6136680412239645
 20
0.5289832288220496
 30
0.0
 11
0.6023624558613429
 21
0.5289832288220496
 31
0.0
 12
0.6023624558613429
 22
0.5176776434594279
 32
0.0
 13
0.6023624558613429
 23
0.5176776434594279
 33
0.0
210
0.0
220
0.0
230
-1.0
  0
SOLID
  5
9B5
  8
PCB_TOP
  6
CONTINUOUS
 10
0.6023624558613429
 20
0.5289832288220496
 30
0.0
 11
0.5910568704987276
 21
0.5289832288220496
 31
0.0
 12
0.6023624558613429
 22
0.5176776434594279
 32
0.0
 13
0.6023624558613429
 23
0.5176776434594279
 33
0.0
210
0.0
220
0.0
230
-1.0
  0
SOLID
  5
9B6
  8
PCB_TOP
  6
CONTINUOUS
 10
0.6023624558613429
 20
0.5687805514607858
 30
0.0
 11
0.5910568704987276
 21
0.5289832288220496
 31
0.0
 12
0.6023624558613429
 22
0.5289832288220496
 32
0.0
 13
0.6023624558613429
 23
0.5289832288220496
 33
0.0
210
0.0
220
0.0
230
-1.0
  0
SOLID
  5
9B7
  8
PCB_TOP
  6
CONTINUOUS
 10
0.6023624558613429
 20
0.5687805514607858
 30
0.0
 11
0.5512595478599887
 21
0.5687805514607858
 31
0.0
 12
0.5910568704987276
 22
0.5289832288220496
 32
0.0
 13
0.5910568704987276
 23
0.5289832288220496
 33
0.0
210
0.0
220
0.0
230
-1.0
  0
SOLID
  5
9B8
  8
PCB_TOP
  6
CONTINUOUS
 10
0.6534653638627005
 20
0.5687805514607858
 30
0.0
 11
0.6023624558613429
 21
0.5289832288220496
 31
0.0
 12
0.6136680412239645
 22
0.5289832288220496
 32
0.0
 13
0.6136680412239645
 23
0.5289832288220496
 33
0.0
210
0.0
220
0.0
230
-1.0
  0
SOLID
  5
9B9
  8
PCB_TOP
  6
CONTINUOUS
 10
0.6534653638627005
 20
0.5687805514607858
 30
0.0
 11
0.6023624558613429
 21
0.5687805514607858
 31
0.0
 12
0.6023624558613429
 22
0.5289832288220496
 32
0.0
 13
0.6023624558613429
 23
0.5289832288220496
 33
0.0
210
0.0
220
0.0
230
-1.0
  0
SOLID
  5
9BA
  8
PCB_TOP
  6
CONTINUOUS
 10
0.671095715037235
 20
0.5400104331519569
 30
0.0
 11
0.6136680412239645
 21
0.5289832288220496
 31
0.0
 12
0.6737431125688814
 22
0.5289832288220496
 32
0.0
 13
0.6737431125688814
 23
0.5289832288220496
 33
0.0
210
0.0
220
0.0
230
-1.0
  0
SOLID
  5
9BB
  8
PCB_TOP
  6
CONTINUOUS
 10
0.671095715037235
 20
0.5400104331519569
 30
0.0
 11
0.6246952455538716
 21
0.5400104331519569
 31
0.0
 12
0.6136680412239645
 22
0.5289832288220496
 32
0.0
 13
0.6136680412239645
 23
0.5289832288220496
 33
0.0
210
0.0
220
0.0
230
-1.0
  0
SOLID
  5
9BC
  8
PCB_TOP
  6
CONTINUOUS
 10
0.6737431125688814
 20
0.5289832288220496
 30
0.0
 11
0.60236245586135
 21
0.5176776434594279
 31
0.0
 12
0.6746328814335705
 22
0.5176776434594279
 32
0.0
 13
0.6746328814335705
 23
0.5176776434594279
 33
0.0
210
0.0
220
0.0
230
-1.0
  0
SOLID
  5
9BD
  8
PCB_TOP
  6
CONTINUOUS
 10
0.6737431125688814
 20
0.5289832288220496
 30
0.0
 11
0.6136680412239645
 21
0.5289832288220496
 31
0.0
 12
0.60236245586135
 22
0.5176776434594279
 32
0.0
 13
0.60236245586135
 23
0.5176776434594279
 33
0.0
210
0.0
220
0.0
230
-1.0
  0
LINE
  5
9BE
  8
PCB_TOP
  6
CONTINUOUS
 10
-0.6023624558613429
 20
0.5899480690316558
 30
0.0
 11
-0.6023624558613429
 21
0.5890583001669667
 31
0.0
  0
LINE
  5
9BF
  8
PCB_TOP
  6
CONTINUOUS
 10
-0.6023624558613429
 20
0.5890583001669667
 30
0.0
 11
-0.6023624558613429
 21
0.5899480690316558
 31
0.0
  0
LINE
  5
9C0
  8
PCB_TOP
  6
CONTINUOUS
 10
-0.6023624558613429
 20
0.5885594130691451
 30
0.0
 11
-0.6023624558613429
 21
0.5890583001669667
 31
0.0
  0
LINE
  5
9C1
  8
PCB_TOP
  6
CONTINUOUS
 10
-0.5933284809725739
 20
0.5890583001669667
 30
0.0
 11
-0.5882631952642156
 21
0.5885594130691451
 31
0.0
  0
LINE
  5
9C2
  8
PCB_TOP
  6
CONTINUOUS
 10
-0.6246952455538716
 20
0.5864109026353203
 30
0.0
 11
-0.6136680412239643
 21
0.5890583001669667
 31
0.0
  0
LINE
  5
9C3
  8
PCB_TOP
  6
CONTINUOUS
 10
-0.6023624558613429
 20
0.5890583001669667
 30
0.0
 11
-0.6023624558613429
 21
0.5864109026353203
 31
0.0
  0
LINE
  5
9C4
  8
PCB_TOP
  6
CONTINUOUS
 10
-0.6023624558613429
 20
0.5844468104514881
 30
0.0
 11
-0.6023624558613429
 21
0.5885594130691451
 31
0.0
  0
LINE
  5
9C5
  8
PCB_TOP
  6
CONTINUOUS
 10
-0.5882631952642156
 20
0.5885594130691451
 30
0.0
 11
-0.5747057613448801
 21
0.5844468104514881
 31
0.0
  0
LINE
  5
9C6
  8
PCB_TOP
  6
CONTINUOUS
 10
-0.6351725424832692
 20
0.5820710641501548
 30
0.0
 11
-0.6246952455538716
 21
0.5864109026353203
 31
0.0
  0
LINE
  5
9C7
  8
PCB_TOP
  6
CONTINUOUS
 10
-0.6023624558613429
 20
0.5864109026353203
 30
0.0
 11
-0.6023624558613429
 21
0.5820710641501548
 31
0.0
  0
LINE
  5
9C8
  8
PCB_TOP
  6
CONTINUOUS
 10
-0.6023624558613429
 20
0.5777683061909059
 30
0.0
 11
-0.6023624558613429
 21
0.5844468104514881
 31
0.0
  0
LINE
  5
9C9
  8
PCB_TOP
  6
CONTINUOUS
 10
-0.5747057613448801
 20
0.5844468104514881
 30
0.0
 11
-0.5622111586857587
 21
0.5777683061909059
 31
0.0
  0
LINE
  5
9CA
  8
PCB_TOP
  6
CONTINUOUS
 10
-0.6448419461896005
 20
0.5761456459380716
 30
0.0
 11
-0.6351725424832692
 21
0.5820710641501548
 31
0.0
  0
LINE
  5
9CB
  8
PCB_TOP
  6
CONTINUOUS
 10
-0.6023624558613429
 20
0.5820710641501548
 30
0.0
 11
-0.6023624558613429
 21
0.5761456459380716
 31
0.0
  0
LINE
  5
9CC
  8
PCB_TOP
  6
CONTINUOUS
 10
-0.6534653638627073
 20
0.5687805514607858
 30
0.0
 11
-0.6448419461896002
 21
0.5601571337876857
 31
0.0
  0
LINE
  5
9CD
  8
PCB_TOP
  6
CONTINUOUS
 10
-0.6608304583399863
 20
0.5601571337876857
 30
0.0
 11
-0.6534653638627073
 21
0.5687805514607858
 31
0.0
  0
LINE
  5
9CE
  8
PCB_TOP
  6
CONTINUOUS
 10
-0.6023624558613429
 20
0.5687805514607858
 30
0.0
 11
-0.6023624558613429
 21
0.5777683061909059
 31
0.0
  0
LINE
  5
9CF
  8
PCB_TOP
  6
CONTINUOUS
 10
-0.5622111586857587
 20
0.5777683061909059
 30
0.0
 11
-0.5512595478599887
 21
0.5687805514607858
 31
0.0
  0
LINE
  5
9D0
  8
PCB_TOP
  6
CONTINUOUS
 10
-0.6534653638627085
 20
0.5687805514607858
 30
0.0
 11
-0.6448419461896005
 21
0.5761456459380716
 31
0.0
  0
LINE
  5
9D1
  8
PCB_TOP
  6
CONTINUOUS
 10
-0.6023624558613429
 20
0.5761456459380716
 30
0.0
 11
-0.6023624558613429
 21
0.5687805514607858
 31
0.0
  0
LINE
  5
9D2
  8
PCB_TOP
  6
CONTINUOUS
 10
-0.666755876552069
 20
0.5504877300813547
 30
0.0
 11
-0.6608304583399863
 21
0.5601571337876857
 31
0.0
  0
LINE
  5
9D3
  8
PCB_TOP
  6
CONTINUOUS
 10
-0.6448419461896002
 20
0.5601571337876857
 30
0.0
 11
-0.6351725424832692
 21
0.5504877300813547
 31
0.0
  0
LINE
  5
9D4
  8
PCB_TOP
  6
CONTINUOUS
 10
-0.671095715037235
 20
0.5400104331519569
 30
0.0
 11
-0.666755876552069
 21
0.5504877300813547
 31
0.0
  0
LINE
  5
9D5
  8
PCB_TOP
  6
CONTINUOUS
 10
-0.6351725424832692
 20
0.5504877300813547
 30
0.0
 11
-0.6246952455538716
 21
0.5400104331519569
 31
0.0
  0
LINE
  5
9D6
  8
PCB_TOP
  6
CONTINUOUS
 10
-0.6023624558613429
 20
0.5289832288220496
 30
0.0
 11
-0.6023624558613429
 21
0.5176776434594279
 31
0.0
  0
LINE
  5
9D7
  8
PCB_TOP
  6
CONTINUOUS
 10
-0.6023624558613429
 20
0.5176776434594279
 30
0.0
 11
-0.6023624558613429
 21
0.5289832288220496
 31
0.0
  0
LINE
  5
9D8
  8
PCB_TOP
  6
CONTINUOUS
 10
-0.6023624558613429
 20
0.5289832288220496
 30
0.0
 11
-0.6023624558613429
 21
0.5687805514607858
 31
0.0
  0
LINE
  5
9D9
  8
PCB_TOP
  6
CONTINUOUS
 10
-0.5512595478599887
 20
0.5687805514607858
 30
0.0
 11
-0.5910568704987276
 21
0.5289832288220496
 31
0.0
  0
LINE
  5
9DA
  8
PCB_TOP
  6
CONTINUOUS
 10
-0.6136680412239645
 20
0.5289832288220496
 30
0.0
 11
-0.6534653638627005
 21
0.5687805514607858
 31
0.0
  0
LINE
  5
9DB
  8
PCB_TOP
  6
CONTINUOUS
 10
-0.6023624558613429
 20
0.5687805514607858
 30
0.0
 11
-0.6023624558613429
 21
0.5289832288220496
 31
0.0
  0
LINE
  5
9DC
  8
PCB_TOP
  6
CONTINUOUS
 10
-0.6737431125688814
 20
0.5289832288220496
 30
0.0
 11
-0.671095715037235
 21
0.5400104331519569
 31
0.0
  0
LINE
  5
9DD
  8
PCB_TOP
  6
CONTINUOUS
 10
-0.6246952455538716
 20
0.5400104331519569
 30
0.0
 11
-0.6136680412239645
 21
0.5289832288220496
 31
0.0
  0
LINE
  5
9DE
  8
PCB_TOP
  6
CONTINUOUS
 10
-0.6746328814335705
 20
0.5176776434594279
 30
0.0
 11
-0.6737431125688814
 21
0.5289832288220496
 31
0.0
  0
ENDBLK
  5
9E0
  8
0
  0
BLOCK
  8
0
  2
*U10
 70
     1
 10
0.0
 20
0.0
 30
0.0
  3
*U10
  1

  0
SOLID
  5
9E2
  8
PCB_BOT
  6
CONTINUOUS
 10
-1.688820702922019
 20
0.5687805514607858
 30
0.0
 11
-1.6978084576521391
 21
0.5578289406350151
 31
0.0
 12
-1.677869092096248
 22
0.5578289406350151
 32
0.0
 13
-1.677869092096248
 23
0.5578289406350151
 33
0.0
210
0.0
220
0.0
230
-1.0
  0
SOLID
  5
9E3
  8
PCB_BOT
  6
CONTINUOUS
 10
-1.677869092096248
 20
0.5578289406350151
 30
0.0
 11
-1.7044869619127221
 21
0.5453343379758932
 31
0.0
 12
-1.6653744894371261
 22
0.5453343379758932
 32
0.0
 13
-1.6653744894371261
 23
0.5453343379758932
 33
0.0
210
0.0
220
0.0
230
-1.0
  0
SOLID
  5
9E4
  8
PCB_BOT
  6
CONTINUOUS
 10
-1.677869092096248
 20
0.5578289406350151
 30
0.0
 11
-1.6978084576521391
 21
0.5578289406350151
 31
0.0
 12
-1.7044869619127221
 22
0.5453343379758932
 32
0.0
 13
-1.7044869619127221
 23
0.5453343379758932
 33
0.0
210
0.0
220
0.0
230
-1.0
  0
SOLID
  5
9E5
  8
PCB_BOT
  6
CONTINUOUS
 10
-1.6653744894371261
 20
0.5453343379758932
 30
0.0
 11
-1.7085995645303791
 21
0.5317769040565568
 31
0.0
 12
-1.651817055517788
 22
0.5317769040565568
 32
0.0
 13
-1.651817055517788
 23
0.5317769040565568
 33
0.0
210
0.0
220
0.0
230
-1.0
  0
SOLID
  5
9E6
  8
PCB_BOT
  6
CONTINUOUS
 10
-1.6653744894371261
 20
0.5453343379758932
 30
0.0
 11
-1.7044869619127221
 21
0.5453343379758932
 31
0.0
 12
-1.7085995645303791
 22
0.5317769040565568
 32
0.0
 13
-1.7085995645303791
 23
0.5317769040565568
 33
0.0
210
0.0
220
0.0
230
-1.0
  0
SOLID
  5
9E7
  8
PCB_BOT
  6
CONTINUOUS
 10
-1.637717794920664
 20
0.5176776434594244
 30
0.0
 11
-1.651817055517788
 21
0.5035783828622999
 31
0.0
 12
-1.637717794920664
 22
0.5035783828622999
 32
0.0
 13
-1.637717794920664
 23
0.5035783828622999
 33
0.0
210
0.0
220
0.0
230
-1.0
  0
SOLID
  5
9E8
  8
PCB_BOT
  6
CONTINUOUS
 10
-1.651817055517788
 20
0.5317769040565568
 30
0.0
 11
-1.709988220492892
 21
0.5176776434594244
 31
0.0
 12
-1.6377177949206601
 22
0.5176776434594244
 32
0.0
 13
-1.6377177949206601
 23
0.5176776434594244
 33
0.0
210
0.0
220
0.0
230
-1.0
  0
SOLID
  5
9E9
  8
PCB_BOT
  6
CONTINUOUS
 10
-1.651817055517788
 20
0.5317769040565568
 30
0.0
 11
-1.7085995645303791
 21
0.5317769040565568
 31
0.0
 12
-1.709988220492892
 22
0.5176776434594244
 32
0.0
 13
-1.709988220492892
 23
0.5176776434594244
 33
0.0
210
0.0
220
0.0
230
-1.0
  0
SOLID
  5
9EA
  8
PCB_BOT
  6
CONTINUOUS
 10
-1.637717794920664
 20
0.5176776434594244
 30
0.0
 11
-1.7085995645303791
 21
0.5035783828622999
 31
0.0
 12
-1.651817055517792
 22
0.5035783828622999
 32
0.0
 13
-1.651817055517792
 23
0.5035783828622999
 33
0.0
210
0.0
220
0.0
230
-1.0
  0
SOLID
  5
9EB
  8
PCB_BOT
  6
CONTINUOUS
 10
-1.637717794920664
 20
0.5176776434594244
 30
0.0
 11
-1.709988220492888
 21
0.5176776434594244
 31
0.0
 12
-1.7085995645303791
 22
0.5035783828622999
 32
0.0
 13
-1.7085995645303791
 23
0.5035783828622999
 33
0.0
210
0.0
220
0.0
230
-1.0
  0
SOLID
  5
9EC
  8
PCB_BOT
  6
CONTINUOUS
 10
-1.651817055517792
 20
0.5035783828622999
 30
0.0
 11
-1.7044869619127221
 21
0.4900209489429628
 31
0.0
 12
-1.665374489437129
 22
0.4900209489429628
 32
0.0
 13
-1.665374489437129
 23
0.4900209489429628
 33
0.0
210
0.0
220
0.0
230
-1.0
  0
SOLID
  5
9ED
  8
PCB_BOT
  6
CONTINUOUS
 10
-1.651817055517792
 20
0.5035783828622999
 30
0.0
 11
-1.7085995645303791
 21
0.5035783828622999
 31
0.0
 12
-1.7044869619127221
 22
0.4900209489429628
 32
0.0
 13
-1.7044869619127221
 23
0.4900209489429628
 33
0.0
210
0.0
220
0.0
230
-1.0
  0
SOLID
  5
9EE
  8
PCB_BOT
  6
CONTINUOUS
 10
-1.67786909209625
 20
0.477526346283841
 30
0.0
 11
-1.6978084576521391
 21
0.477526346283841
 31
0.0
 12
-1.688820702922019
 22
0.4665747354580703
 32
0.0
 13
-1.688820702922019
 23
0.4665747354580703
 33
0.0
210
0.0
220
0.0
230
-1.0
  0
SOLID
  5
9EF
  8
PCB_BOT
  6
CONTINUOUS
 10
-1.665374489437129
 20
0.4900209489429628
 30
0.0
 11
-1.6978084576521391
 21
0.477526346283841
 31
0.0
 12
-1.67786909209625
 22
0.477526346283841
 32
0.0
 13
-1.67786909209625
 23
0.477526346283841
 33
0.0
210
0.0
220
0.0
230
-1.0
  0
SOLID
  5
9F0
  8
PCB_BOT
  6
CONTINUOUS
 10
-1.665374489437129
 20
0.4900209489429628
 30
0.0
 11
-1.7044869619127221
 21
0.4900209489429628
 31
0.0
 12
-1.6978084576521391
 22
0.477526346283841
 32
0.0
 13
-1.6978084576521391
 23
0.477526346283841
 33
0.0
210
0.0
220
0.0
230
-1.0
  0
SOLID
  5
9F1
  8
PCB_BOT
  6
CONTINUOUS
 10
-1.637717794920664
 20
0.5035783828622999
 30
0.0
 11
-1.688820702922019
 21
0.4665747354580703
 31
0.0
 12
-1.637717794920664
 22
0.4665747354580703
 32
0.0
 13
-1.637717794920664
 23
0.4665747354580703
 33
0.0
210
0.0
220
0.0
230
-1.0
  0
SOLID
  5
9F2
  8
PCB_BOT
  6
CONTINUOUS
 10
-1.637717794920664
 20
0.5035783828622999
 30
0.0
 11
-1.651817055517788
 21
0.5035783828622999
 31
0.0
 12
-1.688820702922019
 22
0.4665747354580703
 32
0.0
 13
-1.688820702922019
 23
0.4665747354580703
 33
0.0
210
0.0
220
0.0
230
-1.0
  0
SOLID
  5
9F3
  8
PCB_BOT
  6
CONTINUOUS
 10
-1.637717794920664
 20
0.4665747354580703
 30
0.0
 11
-1.677869092096248
 21
0.4575869807279524
 31
0.0
 12
-1.637717794920664
 22
0.4575869807279524
 32
0.0
 13
-1.637717794920664
 23
0.4575869807279524
 33
0.0
210
0.0
220
0.0
230
-1.0
  0
SOLID
  5
9F4
  8
PCB_BOT
  6
CONTINUOUS
 10
-1.637717794920664
 20
0.4665747354580703
 30
0.0
 11
-1.688820702922011
 21
0.4665747354580703
 31
0.0
 12
-1.677869092096248
 22
0.4575869807279524
 32
0.0
 13
-1.677869092096248
 23
0.4575869807279524
 33
0.0
210
0.0
220
0.0
230
-1.0
  0
SOLID
  5
9F5
  8
PCB_BOT
  6
CONTINUOUS
 10
-1.637717794920664
 20
0.4575869807279524
 30
0.0
 11
-1.6653744894371261
 21
0.45090847646737
 31
0.0
 12
-1.637717794920664
 22
0.45090847646737
 32
0.0
 13
-1.637717794920664
 23
0.45090847646737
 33
0.0
210
0.0
220
0.0
230
-1.0
  0
SOLID
  5
9F6
  8
PCB_BOT
  6
CONTINUOUS
 10
-1.637717794920664
 20
0.4575869807279524
 30
0.0
 11
-1.677869092096248
 21
0.4575869807279524
 31
0.0
 12
-1.6653744894371261
 22
0.45090847646737
 32
0.0
 13
-1.6653744894371261
 23
0.45090847646737
 33
0.0
210
0.0
220
0.0
230
-1.0
  0
SOLID
  5
9F7
  8
PCB_BOT
  6
CONTINUOUS
 10
-1.637717794920664
 20
0.4467958738497117
 30
0.0
 11
-1.651817055517788
 21
0.4467958738497117
 31
0.0
 12
-1.637717794920664
 22
0.4454072178872003
 32
0.0
 13
-1.637717794920664
 23
0.4454072178872003
 33
0.0
210
0.0
220
0.0
230
-1.0
  0
SOLID
  5
9F8
  8
PCB_BOT
  6
CONTINUOUS
 10
-1.637717794920664
 20
0.45090847646737
 30
0.0
 11
-1.651817055517788
 21
0.4467958738497117
 31
0.0
 12
-1.637717794920664
 22
0.4467958738497117
 32
0.0
 13
-1.637717794920664
 23
0.4467958738497117
 33
0.0
210
0.0
220
0.0
230
-1.0
  0
SOLID
  5
9F9
  8
PCB_BOT
  6
CONTINUOUS
 10
-1.637717794920664
 20
0.45090847646737
 30
0.0
 11
-1.6653744894371261
 21
0.45090847646737
 31
0.0
 12
-1.651817055517788
 22
0.4467958738497117
 32
0.0
 13
-1.651817055517788
 23
0.4467958738497117
 33
0.0
210
0.0
220
0.0
230
-1.0
  0
LINE
  5
9FA
  8
PCB_BOT
  6
CONTINUOUS
 10
1.688820702922019
 20
0.5687805514607858
 30
0.0
 11
1.6978084576521391
 21
0.5578289406350151
 31
0.0
  0
LINE
  5
9FB
  8
PCB_BOT
  6
CONTINUOUS
 10
1.677869092096248
 20
0.5578289406350151
 30
0.0
 11
1.688820702922019
 21
0.5687805514607858
 31
0.0
  0
LINE
  5
9FC
  8
PCB_BOT
  6
CONTINUOUS
 10
1.6653744894371261
 20
0.5453343379758932
 30
0.0
 11
1.677869092096248
 21
0.5578289406350151
 31
0.0
  0
LINE
  5
9FD
  8
PCB_BOT
  6
CONTINUOUS
 10
1.6978084576521391
 20
0.5578289406350151
 30
0.0
 11
1.7044869619127221
 21
0.5453343379758932
 31
0.0
  0
LINE
  5
9FE
  8
PCB_BOT
  6
CONTINUOUS
 10
1.651817055517788
 20
0.5317769040565568
 30
0.0
 11
1.6653744894371261
 21
0.5453343379758932
 31
0.0
  0
LINE
  5
9FF
  8
PCB_BOT
  6
CONTINUOUS
 10
1.7044869619127221
 20
0.5453343379758932
 30
0.0
 11
1.7085995645303791
 21
0.5317769040565568
 31
0.0
  0
LINE
  5
A00
  8
PCB_BOT
  6
CONTINUOUS
 10
1.637717794920664
 20
0.5176776434594244
 30
0.0
 11
1.651817055517788
 21
0.5035783828622999
 31
0.0
  0
LINE
  5
A01
  8
PCB_BOT
  6
CONTINUOUS
 10
1.637717794920664
 20
0.5035783828622999
 30
0.0
 11
1.637717794920664
 21
0.5176776434594244
 31
0.0
  0
LINE
  5
A02
  8
PCB_BOT
  6
CONTINUOUS
 10
1.6377177949206601
 20
0.5176776434594244
 30
0.0
 11
1.651817055517788
 21
0.5317769040565568
 31
0.0
  0
LINE
  5
A03
  8
PCB_BOT
  6
CONTINUOUS
 10
1.7085995645303791
 20
0.5317769040565568
 30
0.0
 11
1.709988220492892
 21
0.5176776434594244
 31
0.0
  0
LINE
  5
A04
  8
PCB_BOT
  6
CONTINUOUS
 10
1.651817055517792
 20
0.5035783828622999
 30
0.0
 11
1.637717794920664
 21
0.5176776434594244
 31
0.0
  0
LINE
  5
A05
  8
PCB_BOT
  6
CONTINUOUS
 10
1.709988220492888
 20
0.5176776434594244
 30
0.0
 11
1.7085995645303791
 21
0.5035783828622999
 31
0.0
  0
LINE
  5
A06
  8
PCB_BOT
  6
CONTINUOUS
 10
1.665374489437129
 20
0.4900209489429628
 30
0.0
 11
1.651817055517792
 21
0.5035783828622999
 31
0.0
  0
LINE
  5
A07
  8
PCB_BOT
  6
CONTINUOUS
 10
1.7085995645303791
 20
0.5035783828622999
 30
0.0
 11
1.7044869619127221
 21
0.4900209489429628
 31
0.0
  0
LINE
  5
A08
  8
PCB_BOT
  6
CONTINUOUS
 10
1.6978084576521391
 20
0.477526346283841
 30
0.0
 11
1.688820702922019
 21
0.4665747354580703
 31
0.0
  0
LINE
  5
A09
  8
PCB_BOT
  6
CONTINUOUS
 10
1.688820702922019
 20
0.4665747354580703
 30
0.0
 11
1.67786909209625
 21
0.477526346283841
 31
0.0
  0
LINE
  5
A0A
  8
PCB_BOT
  6
CONTINUOUS
 10
1.67786909209625
 20
0.477526346283841
 30
0.0
 11
1.665374489437129
 21
0.4900209489429628
 31
0.0
  0
LINE
  5
A0B
  8
PCB_BOT
  6
CONTINUOUS
 10
1.7044869619127221
 20
0.4900209489429628
 30
0.0
 11
1.6978084576521391
 21
0.477526346283841
 31
0.0
  0
LINE
  5
A0C
  8
PCB_BOT
  6
CONTINUOUS
 10
1.637717794920664
 20
0.4665747354580703
 30
0.0
 11
1.637717794920664
 21
0.5035783828622999
 31
0.0
  0
LINE
  5
A0D
  8
PCB_BOT
  6
CONTINUOUS
 10
1.651817055517788
 20
0.5035783828622999
 30
0.0
 11
1.688820702922019
 21
0.4665747354580703
 31
0.0
  0
LINE
  5
A0E
  8
PCB_BOT
  6
CONTINUOUS
 10
1.637717794920664
 20
0.4575869807279524
 30
0.0
 11
1.637717794920664
 21
0.4665747354580703
 31
0.0
  0
LINE
  5
A0F
  8
PCB_BOT
  6
CONTINUOUS
 10
1.688820702922011
 20
0.4665747354580703
 30
0.0
 11
1.677869092096248
 21
0.4575869807279524
 31
0.0
  0
LINE
  5
A10
  8
PCB_BOT
  6
CONTINUOUS
 10
1.637717794920664
 20
0.45090847646737
 30
0.0
 11
1.637717794920664
 21
0.4575869807279524
 31
0.0
  0
LINE
  5
A11
  8
PCB_BOT
  6
CONTINUOUS
 10
1.677869092096248
 20
0.4575869807279524
 30
0.0
 11
1.6653744894371261
 21
0.45090847646737
 31
0.0
  0
LINE
  5
A12
  8
PCB_BOT
  6
CONTINUOUS
 10
1.651817055517788
 20
0.4467958738497117
 30
0.0
 11
1.637717794920664
 21
0.4454072178872003
 31
0.0
  0
LINE
  5
A13
  8
PCB_BOT
  6
CONTINUOUS
 10
1.637717794920664
 20
0.4454072178872003
 30
0.0
 11
1.637717794920664
 21
0.4467958738497117
 31
0.0
  0
LINE
  5
A14
  8
PCB_BOT
  6
CONTINUOUS
 10
1.637717794920664
 20
0.4467958738497117
 30
0.0
 11
1.637717794920664
 21
0.45090847646737
 31
0.0
  0
LINE
  5
A15
  8
PCB_BOT
  6
CONTINUOUS
 10
1.6653744894371261
 20
0.45090847646737
 30
0.0
 11
1.651817055517788
 21
0.4467958738497117
 31
0.0
  0
ENDBLK
  5
A17
  8
0
  0
BLOCK
  8
0
  2
*U11
 70
     1
 10
0.0
 20
0.0
 30
0.0
  3
*U11
  1

  0
SOLID
  5
A19
  8
PCB_OUTLINE
  6
CONTINUOUS
 10
-1.6377177949206581
 20
0.5176776434594279
 30
0.0
 11
-1.637717794920668
 21
0.5035783828623007
 31
0.0
 12
-1.6236185343235281
 22
0.5035783828623007
 32
0.0
 13
-1.6236185343235281
 23
0.5035783828623007
 33
0.0
210
0.0
220
0.0
230
-1.0
  0
SOLID
  5
A1A
  8
PCB_OUTLINE
  6
CONTINUOUS
 10
-1.5654473693484361
 20
0.5176776434594279
 30
0.0
 11
-1.623618534323527
 21
0.5035783828623007
 31
0.0
 12
-1.566836025310943
 22
0.5035783828623007
 32
0.0
 13
-1.566836025310943
 23
0.5035783828623007
 33
0.0
210
0.0
220
0.0
230
-1.0
  0
SOLID
  5
A1B
  8
PCB_OUTLINE
  6
CONTINUOUS
 10
-1.5654473693484361
 20
0.5176776434594279
 30
0.0
 11
-1.6377177949206561
 21
0.5176776434594279
 31
0.0
 12
-1.623618534323527
 22
0.5035783828623007
 32
0.0
 13
-1.623618534323527
 23
0.5035783828623007
 33
0.0
210
0.0
220
0.0
230
-1.0
  0
SOLID
  5
A1C
  8
PCB_OUTLINE
  6
CONTINUOUS
 10
-1.566836025310943
 20
0.5035783828623007
 30
0.0
 11
-1.610061100404188
 21
0.4900209489429643
 31
0.0
 12
-1.570948627928594
 22
0.4900209489429643
 32
0.0
 13
-1.570948627928594
 23
0.4900209489429643
 33
0.0
210
0.0
220
0.0
230
-1.0
  0
SOLID
  5
A1D
  8
PCB_OUTLINE
  6
CONTINUOUS
 10
-1.566836025310943
 20
0.5035783828623007
 30
0.0
 11
-1.623618534323527
 21
0.5035783828623007
 31
0.0
 12
-1.610061100404188
 22
0.4900209489429643
 32
0.0
 13
-1.610061100404188
 23
0.4900209489429643
 33
0.0
210
0.0
220
0.0
230
-1.0
  0
SOLID
  5
A1E
  8
PCB_OUTLINE
  6
CONTINUOUS
 10
-1.5776271321891751
 20
0.4775263462838421
 30
0.0
 11
-1.5975664977450661
 21
0.4775263462838421
 31
0.0
 12
-1.5866148869192931
 22
0.4665747354580703
 32
0.0
 13
-1.5866148869192931
 23
0.4665747354580703
 33
0.0
210
0.0
220
0.0
230
-1.0
  0
SOLID
  5
A1F
  8
PCB_OUTLINE
  6
CONTINUOUS
 10
-1.6236185343235281
 20
0.5035783828623007
 30
0.0
 11
-1.637717794920664
 21
0.4775263462838421
 31
0.0
 12
-1.5975664977450661
 22
0.4775263462838421
 32
0.0
 13
-1.5975664977450661
 23
0.4775263462838421
 33
0.0
210
0.0
220
0.0
230
-1.0
  0
SOLID
  5
A20
  8
PCB_OUTLINE
  6
CONTINUOUS
 10
-1.6236185343235281
 20
0.5035783828623007
 30
0.0
 11
-1.637717794920668
 21
0.5035783828623007
 31
0.0
 12
-1.637717794920664
 22
0.4775263462838421
 32
0.0
 13
-1.637717794920664
 23
0.4775263462838421
 33
0.0
210
0.0
220
0.0
230
-1.0
  0
SOLID
  5
A21
  8
PCB_OUTLINE
  6
CONTINUOUS
 10
-1.570948627928594
 20
0.4900209489429643
 30
0.0
 11
-1.5975664977450661
 21
0.4775263462838421
 31
0.0
 12
-1.5776271321891751
 22
0.4775263462838421
 32
0.0
 13
-1.5776271321891751
 23
0.4775263462838421
 33
0.0
210
0.0
220
0.0
230
-1.0
  0
SOLID
  5
A22
  8
PCB_OUTLINE
  6
CONTINUOUS
 10
-1.570948627928594
 20
0.4900209489429643
 30
0.0
 11
-1.610061100404188
 21
0.4900209489429643
 31
0.0
 12
-1.5975664977450661
 22
0.4775263462838421
 32
0.0
 13
-1.5975664977450661
 23
0.4775263462838421
 33
0.0
210
0.0
220
0.0
230
-1.0
  0
SOLID
  5
A23
  8
PCB_OUTLINE
  6
CONTINUOUS
 10
-1.5975664977450661
 20
0.4775263462838421
 30
0.0
 11
-1.637717794920664
 21
0.4665747354580703
 31
0.0
 12
-1.5866148869192931
 22
0.4665747354580703
 32
0.0
 13
-1.5866148869192931
 23
0.4665747354580703
 33
0.0
210
0.0
220
0.0
230
-1.0
  0
SOLID
  5
A24
  8
PCB_OUTLINE
  6
CONTINUOUS
 10
-1.5975664977450661
 20
0.4775263462838421
 30
0.0
 11
-1.637717794920664
 21
0.4775263462838421
 31
0.0
 12
-1.637717794920664
 22
0.4665747354580703
 32
0.0
 13
-1.637717794920664
 23
0.4665747354580703
 33
0.0
210
0.0
220
0.0
230
-1.0
  0
SOLID
  5
A25
  8
PCB_OUTLINE
  6
CONTINUOUS
 10
-1.5866148869192931
 20
0.4665747354580703
 30
0.0
 11
-1.637717794920664
 21
0.4592096409807866
 31
0.0
 12
-1.595238304592399
 22
0.4592096409807866
 32
0.0
 13
-1.595238304592399
 23
0.4592096409807866
 33
0.0
210
0.0
220
0.0
230
-1.0
  0
SOLID
  5
A26
  8
PCB_OUTLINE
  6
CONTINUOUS
 10
-1.5866148869192931
 20
0.4665747354580703
 30
0.0
 11
-1.637717794920664
 21
0.4665747354580703
 31
0.0
 12
-1.637717794920664
 22
0.4592096409807866
 32
0.0
 13
-1.637717794920664
 23
0.4592096409807866
 33
0.0
210
0.0
220
0.0
230
-1.0
  0
SOLID
  5
A27
  8
PCB_OUTLINE
  6
CONTINUOUS
 10
-1.595238304592399
 20
0.4592096409807866
 30
0.0
 11
-1.637717794920664
 21
0.4532842227687027
 31
0.0
 12
-1.6049077082987311
 22
0.4532842227687027
 32
0.0
 13
-1.6049077082987311
 23
0.4532842227687027
 33
0.0
210
0.0
220
0.0
230
-1.0
  0
SOLID
  5
A28
  8
PCB_OUTLINE
  6
CONTINUOUS
 10
-1.595238304592399
 20
0.4592096409807866
 30
0.0
 11
-1.637717794920664
 21
0.4592096409807866
 31
0.0
 12
-1.637717794920664
 22
0.4532842227687027
 32
0.0
 13
-1.637717794920664
 23
0.4532842227687027
 33
0.0
210
0.0
220
0.0
230
-1.0
  0
SOLID
  5
A29
  8
PCB_OUTLINE
  6
CONTINUOUS
 10
-1.6049077082987311
 20
0.4532842227687027
 30
0.0
 11
-1.637717794920664
 21
0.4489443842835359
 31
0.0
 12
-1.6153850052281311
 22
0.4489443842835359
 32
0.0
 13
-1.6153850052281311
 23
0.4489443842835359
 33
0.0
210
0.0
220
0.0
230
-1.0
  0
SOLID
  5
A2A
  8
PCB_OUTLINE
  6
CONTINUOUS
 10
-1.6049077082987311
 20
0.4532842227687027
 30
0.0
 11
-1.637717794920664
 21
0.4532842227687027
 31
0.0
 12
-1.637717794920664
 22
0.4489443842835359
 32
0.0
 13
-1.637717794920664
 23
0.4489443842835359
 33
0.0
210
0.0
220
0.0
230
-1.0
  0
SOLID
  5
A2B
  8
PCB_OUTLINE
  6
CONTINUOUS
 10
-1.62641220955804
 20
0.4462969867518893
 30
0.0
 11
-1.637717794920664
 21
0.4462969867518893
 31
0.0
 12
-1.637717794920664
 22
0.4454072178872003
 32
0.0
 13
-1.637717794920664
 23
0.4454072178872003
 33
0.0
210
0.0
220
0.0
230
-1.0
  0
SOLID
  5
A2C
  8
PCB_OUTLINE
  6
CONTINUOUS
 10
-1.6153850052281311
 20
0.4489443842835359
 30
0.0
 11
-1.637717794920664
 21
0.4462969867518893
 31
0.0
 12
-1.62641220955804
 22
0.4462969867518893
 32
0.0
 13
-1.62641220955804
 23
0.4462969867518893
 33
0.0
210
0.0
220
0.0
230
-1.0
  0
SOLID
  5
A2D
  8
PCB_OUTLINE
  6
CONTINUOUS
 10
-1.6153850052281311
 20
0.4489443842835359
 30
0.0
 11
-1.637717794920664
 21
0.4489443842835359
 31
0.0
 12
-1.637717794920664
 22
0.4462969867518893
 32
0.0
 13
-1.637717794920664
 23
0.4462969867518893
 33
0.0
210
0.0
220
0.0
230
-1.0
  0
LINE
  5
A2E
  8
PCB_OUTLINE
  6
CONTINUOUS
 10
1.6377177949206581
 20
0.5176776434594279
 30
0.0
 11
1.637717794920668
 21
0.5035783828623007
 31
0.0
  0
LINE
  5
A2F
  8
PCB_OUTLINE
  6
CONTINUOUS
 10
1.6236185343235281
 20
0.5035783828623007
 30
0.0
 11
1.6377177949206581
 21
0.5176776434594279
 31
0.0
  0
LINE
  5
A30
  8
PCB_OUTLINE
  6
CONTINUOUS
 10
1.566836025310943
 20
0.5035783828623007
 30
0.0
 11
1.5654473693484361
 21
0.5176776434594279
 31
0.0
  0
LINE
  5
A31
  8
PCB_OUTLINE
  6
CONTINUOUS
 10
1.6377177949206561
 20
0.5176776434594279
 30
0.0
 11
1.623618534323527
 21
0.5035783828623007
 31
0.0
  0
LINE
  5
A32
  8
PCB_OUTLINE
  6
CONTINUOUS
 10
1.570948627928594
 20
0.4900209489429643
 30
0.0
 11
1.566836025310943
 21
0.5035783828623007
 31
0.0
  0
LINE
  5
A33
  8
PCB_OUTLINE
  6
CONTINUOUS
 10
1.623618534323527
 20
0.5035783828623007
 30
0.0
 11
1.610061100404188
 21
0.4900209489429643
 31
0.0
  0
LINE
  5
A34
  8
PCB_OUTLINE
  6
CONTINUOUS
 10
1.5866148869192931
 20
0.4665747354580703
 30
0.0
 11
1.5776271321891751
 21
0.4775263462838421
 31
0.0
  0
LINE
  5
A35
  8
PCB_OUTLINE
  6
CONTINUOUS
 10
1.5975664977450661
 20
0.4775263462838421
 30
0.0
 11
1.6236185343235281
 21
0.5035783828623007
 31
0.0
  0
LINE
  5
A36
  8
PCB_OUTLINE
  6
CONTINUOUS
 10
1.637717794920668
 20
0.5035783828623007
 30
0.0
 11
1.637717794920664
 21
0.4775263462838421
 31
0.0
  0
LINE
  5
A37
  8
PCB_OUTLINE
  6
CONTINUOUS
 10
1.5776271321891751
 20
0.4775263462838421
 30
0.0
 11
1.570948627928594
 21
0.4900209489429643
 31
0.0
  0
LINE
  5
A38
  8
PCB_OUTLINE
  6
CONTINUOUS
 10
1.610061100404188
 20
0.4900209489429643
 30
0.0
 11
1.5975664977450661
 21
0.4775263462838421
 31
0.0
  0
LINE
  5
A39
  8
PCB_OUTLINE
  6
CONTINUOUS
 10
1.637717794920664
 20
0.4775263462838421
 30
0.0
 11
1.637717794920664
 21
0.4665747354580703
 31
0.0
  0
LINE
  5
A3A
  8
PCB_OUTLINE
  6
CONTINUOUS
 10
1.595238304592399
 20
0.4592096409807866
 30
0.0
 11
1.5866148869192931
 21
0.4665747354580703
 31
0.0
  0
LINE
  5
A3B
  8
PCB_OUTLINE
  6
CONTINUOUS
 10
1.637717794920664
 20
0.4665747354580703
 30
0.0
 11
1.637717794920664
 21
0.4592096409807866
 31
0.0
  0
LINE
  5
A3C
  8
PCB_OUTLINE
  6
CONTINUOUS
 10
1.6049077082987311
 20
0.4532842227687027
 30
0.0
 11
1.595238304592399
 21
0.4592096409807866
 31
0.0
  0
LINE
  5
A3D
  8
PCB_OUTLINE
  6
CONTINUOUS
 10
1.637717794920664
 20
0.4592096409807866
 30
0.0
 11
1.637717794920664
 21
0.4532842227687027
 31
0.0
  0
LINE
  5
A3E
  8
PCB_OUTLINE
  6
CONTINUOUS
 10
1.6153850052281311
 20
0.4489443842835359
 30
0.0
 11
1.6049077082987311
 21
0.4532842227687027
 31
0.0
  0
LINE
  5
A3F
  8
PCB_OUTLINE
  6
CONTINUOUS
 10
1.637717794920664
 20
0.4532842227687027
 30
0.0
 11
1.637717794920664
 21
0.4489443842835359
 31
0.0
  0
LINE
  5
A40
  8
PCB_OUTLINE
  6
CONTINUOUS
 10
1.637717794920664
 20
0.4462969867518893
 30
0.0
 11
1.637717794920664
 21
0.4454072178872003
 31
0.0
  0
LINE
  5
A41
  8
PCB_OUTLINE
  6
CONTINUOUS
 10
1.637717794920664
 20
0.4454072178872003
 30
0.0
 11
1.62641220955804
 21
0.4462969867518893
 31
0.0
  0
LINE
  5
A42
  8
PCB_OUTLINE
  6
CONTINUOUS
 10
1.62641220955804
 20
0.4462969867518893
 30
0.0
 11
1.6153850052281311
 21
0.4489443842835359
 31
0.0
  0
LINE
  5
A43
  8
PCB_OUTLINE
  6
CONTINUOUS
 10
1.637717794920664
 20
0.4489443842835359
 30
0.0
 11
1.637717794920664
 21
0.4462969867518893
 31
0.0
  0
ENDBLK
  5
A45
  8
0
  0
BLOCK
  8
0
  2
*U12
 70
     1
 10
0.0
 20
0.0
 30
0.0
  3
*U12
  1

  0
SOLID
  5
A47
  8
PCB_TOP
  6
CONTINUOUS
 10
-1.637717794920664
 20
0.5899480690316558
 30
0.0
 11
-1.637717794920664
 21
0.5890583001669667
 31
0.0
 12
-1.626412209558042
 22
0.5890583001669667
 32
0.0
 13
-1.626412209558042
 23
0.5890583001669667
 33
0.0
210
0.0
220
0.0
230
-1.0
  0
SOLID
  5
A48
  8
PCB_TOP
  6
CONTINUOUS
 10
-1.637717794920664
 20
0.5899480690316558
 30
0.0
 11
-1.6467517698094341
 21
0.5890583001669667
 31
0.0
 12
-1.637717794920664
 22
0.5890583001669667
 32
0.0
 13
-1.637717794920664
 23
0.5890583001669667
 33
0.0
210
0.0
220
0.0
230
-1.0
  0
SOLID
  5
A49
  8
PCB_TOP
  6
CONTINUOUS
 10
-1.637717794920664
 20
0.5890583001669667
 30
0.0
 11
-1.651817055517788
 21
0.5885594130691453
 31
0.0
 12
-1.637717794920664
 22
0.5885594130691453
 32
0.0
 13
-1.637717794920664
 23
0.5885594130691453
 33
0.0
210
0.0
220
0.0
230
-1.0
  0
SOLID
  5
A4A
  8
PCB_TOP
  6
CONTINUOUS
 10
-1.637717794920664
 20
0.5890583001669667
 30
0.0
 11
-1.6467517698094341
 21
0.5890583001669667
 31
0.0
 12
-1.651817055517788
 22
0.5885594130691453
 32
0.0
 13
-1.651817055517788
 23
0.5885594130691453
 33
0.0
210
0.0
220
0.0
230
-1.0
  0
SOLID
  5
A4B
  8
PCB_TOP
  6
CONTINUOUS
 10
-1.626412209558042
 20
0.5890583001669667
 30
0.0
 11
-1.637717794920664
 21
0.5864109026353203
 31
0.0
 12
-1.6153850052281351
 22
0.5864109026353203
 32
0.0
 13
-1.6153850052281351
 23
0.5864109026353203
 33
0.0
210
0.0
220
0.0
230
-1.0
  0
SOLID
  5
A4C
  8
PCB_TOP
  6
CONTINUOUS
 10
-1.626412209558042
 20
0.5890583001669667
 30
0.0
 11
-1.637717794920664
 21
0.5890583001669667
 31
0.0
 12
-1.637717794920664
 22
0.5864109026353203
 32
0.0
 13
-1.637717794920664
 23
0.5864109026353203
 33
0.0
210
0.0
220
0.0
230
-1.0
  0
SOLID
  5
A4D
  8
PCB_TOP
  6
CONTINUOUS
 10
-1.637717794920664
 20
0.5885594130691453
 30
0.0
 11
-1.6653744894371261
 21
0.5844468104514881
 31
0.0
 12
-1.637717794920664
 22
0.5844468104514881
 32
0.0
 13
-1.637717794920664
 23
0.5844468104514881
 33
0.0
210
0.0
220
0.0
230
-1.0
  0
SOLID
  5
A4E
  8
PCB_TOP
  6
CONTINUOUS
 10
-1.637717794920664
 20
0.5885594130691453
 30
0.0
 11
-1.651817055517788
 21
0.5885594130691453
 31
0.0
 12
-1.6653744894371261
 22
0.5844468104514881
 32
0.0
 13
-1.6653744894371261
 23
0.5844468104514881
 33
0.0
210
0.0
220
0.0
230
-1.0
  0
SOLID
  5
A4F
  8
PCB_TOP
  6
CONTINUOUS
 10
-1.6153850052281351
 20
0.5864109026353203
 30
0.0
 11
-1.637717794920664
 21
0.5820710641501542
 31
0.0
 12
-1.6049077082987371
 22
0.5820710641501542
 32
0.0
 13
-1.6049077082987371
 23
0.5820710641501542
 33
0.0
210
0.0
220
0.0
230
-1.0
  0
SOLID
  5
A50
  8
PCB_TOP
  6
CONTINUOUS
 10
-1.6153850052281351
 20
0.5864109026353203
 30
0.0
 11
-1.637717794920664
 21
0.5864109026353203
 31
0.0
 12
-1.637717794920664
 22
0.5820710641501542
 32
0.0
 13
-1.637717794920664
 23
0.5820710641501542
 33
0.0
210
0.0
220
0.0
230
-1.0
  0
SOLID
  5
A51
  8
PCB_TOP
  6
CONTINUOUS
 10
-1.637717794920664
 20
0.5844468104514881
 30
0.0
 11
-1.677869092096248
 21
0.5777683061909062
 31
0.0
 12
-1.637717794920664
 22
0.5777683061909062
 32
0.0
 13
-1.637717794920664
 23
0.5777683061909062
 33
0.0
210
0.0
220
0.0
230
-1.0
  0
SOLID
  5
A52
  8
PCB_TOP
  6
CONTINUOUS
 10
-1.637717794920664
 20
0.5844468104514881
 30
0.0
 11
-1.6653744894371261
 21
0.5844468104514881
 31
0.0
 12
-1.677869092096248
 22
0.5777683061909062
 32
0.0
 13
-1.677869092096248
 23
0.5777683061909062
 33
0.0
210
0.0
220
0.0
230
-1.0
  0
SOLID
  5
A53
  8
PCB_TOP
  6
CONTINUOUS
 10
-1.6049077082987371
 20
0.5820710641501542
 30
0.0
 11
-1.637717794920664
 21
0.5761456459380716
 31
0.0
 12
-1.595238304592407
 22
0.5761456459380716
 32
0.0
 13
-1.595238304592407
 23
0.5761456459380716
 33
0.0
210
0.0
220
0.0
230
-1.0
  0
SOLID
  5
A54
  8
PCB_TOP
  6
CONTINUOUS
 10
-1.6049077082987371
 20
0.5820710641501542
 30
0.0
 11
-1.637717794920664
 21
0.5820710641501542
 31
0.0
 12
-1.637717794920664
 22
0.5761456459380716
 32
0.0
 13
-1.637717794920664
 23
0.5761456459380716
 33
0.0
210
0.0
220
0.0
230
-1.0
  0
SOLID
  5
A55
  8
PCB_TOP
  6
CONTINUOUS
 10
-1.5866148869192991
 20
0.5687805514607858
 30
0.0
 11
-1.595238304592407
 21
0.5601571337876857
 31
0.0
 12
-1.579249792442021
 22
0.5601571337876857
 32
0.0
 13
-1.579249792442021
 23
0.5601571337876857
 33
0.0
210
0.0
220
0.0
230
-1.0
  0
SOLID
  5
A56
  8
PCB_TOP
  6
CONTINUOUS
 10
-1.637717794920664
 20
0.5777683061909062
 30
0.0
 11
-1.688820702922019
 21
0.5687805514607858
 31
0.0
 12
-1.637717794920664
 22
0.5687805514607858
 32
0.0
 13
-1.637717794920664
 23
0.5687805514607858
 33
0.0
210
0.0
220
0.0
230
-1.0
  0
SOLID
  5
A57
  8
PCB_TOP
  6
CONTINUOUS
 10
-1.637717794920664
 20
0.5777683061909062
 30
0.0
 11
-1.677869092096248
 21
0.5777683061909062
 31
0.0
 12
-1.688820702922019
 22
0.5687805514607858
 32
0.0
 13
-1.688820702922019
 23
0.5687805514607858
 33
0.0
210
0.0
220
0.0
230
-1.0
  0
SOLID
  5
A58
  8
PCB_TOP
  6
CONTINUOUS
 10
-1.595238304592407
 20
0.5761456459380716
 30
0.0
 11
-1.637717794920664
 21
0.5687805514607858
 31
0.0
 12
-1.5866148869192991
 22
0.5687805514607858
 32
0.0
 13
-1.5866148869192991
 23
0.5687805514607858
 33
0.0
210
0.0
220
0.0
230
-1.0
  0
SOLID
  5
A59
  8
PCB_TOP
  6
CONTINUOUS
 10
-1.595238304592407
 20
0.5761456459380716
 30
0.0
 11
-1.637717794920664
 21
0.5761456459380716
 31
0.0
 12
-1.637717794920664
 22
0.5687805514607858
 32
0.0
 13
-1.637717794920664
 23
0.5687805514607858
 33
0.0
210
0.0
220
0.0
230
-1.0
  0
SOLID
  5
A5A
  8
PCB_TOP
  6
CONTINUOUS
 10
-1.579249792442021
 20
0.5601571337876857
 30
0.0
 11
-1.6049077082987371
 21
0.5504877300813547
 31
0.0
 12
-1.5733243742299381
 22
0.5504877300813547
 32
0.0
 13
-1.5733243742299381
 23
0.5504877300813547
 33
0.0
210
0.0
220
0.0
230
-1.0
  0
SOLID
  5
A5B
  8
PCB_TOP
  6
CONTINUOUS
 10
-1.579249792442021
 20
0.5601571337876857
 30
0.0
 11
-1.595238304592407
 21
0.5601571337876857
 31
0.0
 12
-1.6049077082987371
 22
0.5504877300813547
 32
0.0
 13
-1.6049077082987371
 23
0.5504877300813547
 33
0.0
210
0.0
220
0.0
230
-1.0
  0
SOLID
  5
A5C
  8
PCB_TOP
  6
CONTINUOUS
 10
-1.5733243742299381
 20
0.5504877300813547
 30
0.0
 11
-1.6153850052281351
 21
0.5400104331519569
 31
0.0
 12
-1.568984535744772
 22
0.5400104331519569
 32
0.0
 13
-1.568984535744772
 23
0.5400104331519569
 33
0.0
210
0.0
220
0.0
230
-1.0
  0
SOLID
  5
A5D
  8
PCB_TOP
  6
CONTINUOUS
 10
-1.5733243742299381
 20
0.5504877300813547
 30
0.0
 11
-1.6049077082987371
 21
0.5504877300813547
 31
0.0
 12
-1.6153850052281351
 22
0.5400104331519569
 32
0.0
 13
-1.6153850052281351
 23
0.5400104331519569
 33
0.0
210
0.0
220
0.0
230
-1.0
  0
SOLID
  5
A5E
  8
PCB_TOP
  6
CONTINUOUS
 10
-1.626412209558042
 20
0.5289832288220496
 30
0.0
 11
-1.637717794920664
 21
0.5289832288220496
 31
0.0
 12
-1.637717794920664
 22
0.5176776434594279
 32
0.0
 13
-1.637717794920664
 23
0.5176776434594279
 33
0.0
210
0.0
220
0.0
230
-1.0
  0
SOLID
  5
A5F
  8
PCB_TOP
  6
CONTINUOUS
 10
-1.637717794920664
 20
0.5289832288220496
 30
0.0
 11
-1.649023380283279
 21
0.5289832288220496
 31
0.0
 12
-1.637717794920664
 22
0.5176776434594279
 32
0.0
 13
-1.637717794920664
 23
0.5176776434594279
 33
0.0
210
0.0
220
0.0
230
-1.0
  0
SOLID
  5
A60
  8
PCB_TOP
  6
CONTINUOUS
 10
-1.637717794920664
 20
0.5687805514607858
 30
0.0
 11
-1.649023380283279
 21
0.5289832288220496
 31
0.0
 12
-1.637717794920664
 22
0.5289832288220496
 32
0.0
 13
-1.637717794920664
 23
0.5289832288220496
 33
0.0
210
0.0
220
0.0
230
-1.0
  0
SOLID
  5
A61
  8
PCB_TOP
  6
CONTINUOUS
 10
-1.637717794920664
 20
0.5687805514607858
 30
0.0
 11
-1.688820702922019
 21
0.5687805514607858
 31
0.0
 12
-1.649023380283279
 22
0.5289832288220496
 32
0.0
 13
-1.649023380283279
 23
0.5289832288220496
 33
0.0
210
0.0
220
0.0
230
-1.0
  0
SOLID
  5
A62
  8
PCB_TOP
  6
CONTINUOUS
 10
-1.5866148869193051
 20
0.5687805514607858
 30
0.0
 11
-1.637717794920664
 21
0.5289832288220496
 31
0.0
 12
-1.626412209558042
 22
0.5289832288220496
 32
0.0
 13
-1.626412209558042
 23
0.5289832288220496
 33
0.0
210
0.0
220
0.0
230
-1.0
  0
SOLID
  5
A63
  8
PCB_TOP
  6
CONTINUOUS
 10
-1.5866148869193051
 20
0.5687805514607858
 30
0.0
 11
-1.637717794920664
 21
0.5687805514607858
 31
0.0
 12
-1.637717794920664
 22
0.5289832288220496
 32
0.0
 13
-1.637717794920664
 23
0.5289832288220496
 33
0.0
210
0.0
220
0.0
230
-1.0
  0
SOLID
  5
A64
  8
PCB_TOP
  6
CONTINUOUS
 10
-1.568984535744772
 20
0.5400104331519569
 30
0.0
 11
-1.626412209558042
 21
0.5289832288220496
 31
0.0
 12
-1.566337138213123
 22
0.5289832288220496
 32
0.0
 13
-1.566337138213123
 23
0.5289832288220496
 33
0.0
210
0.0
220
0.0
230
-1.0
  0
SOLID
  5
A65
  8
PCB_TOP
  6
CONTINUOUS
 10
-1.568984535744772
 20
0.5400104331519569
 30
0.0
 11
-1.6153850052281351
 21
0.5400104331519569
 31
0.0
 12
-1.626412209558042
 22
0.5289832288220496
 32
0.0
 13
-1.626412209558042
 23
0.5289832288220496
 33
0.0
210
0.0
220
0.0
230
-1.0
  0
SOLID
  5
A66
  8
PCB_TOP
  6
CONTINUOUS
 10
-1.566337138213123
 20
0.5289832288220496
 30
0.0
 11
-1.6377177949206561
 21
0.5176776434594279
 31
0.0
 12
-1.5654473693484361
 22
0.5176776434594279
 32
0.0
 13
-1.5654473693484361
 23
0.5176776434594279
 33
0.0
210
0.0
220
0.0
230
-1.0
  0
SOLID
  5
A67
  8
PCB_TOP
  6
CONTINUOUS
 10
-1.566337138213123
 20
0.5289832288220496
 30
0.0
 11
-1.626412209558042
 21
0.5289832288220496
 31
0.0
 12
-1.6377177949206561
 22
0.5176776434594279
 32
0.0
 13
-1.6377177949206561
 23
0.5176776434594279
 33
0.0
210
0.0
220
0.0
230
-1.0
  0
LINE
  5
A68
  8
PCB_TOP
  6
CONTINUOUS
 10
1.637717794920664
 20
0.5899480690316558
 30
0.0
 11
1.637717794920664
 21
0.5890583001669667
 31
0.0
  0
LINE
  5
A69
  8
PCB_TOP
  6
CONTINUOUS
 10
1.637717794920664
 20
0.5890583001669667
 30
0.0
 11
1.637717794920664
 21
0.5899480690316558
 31
0.0
  0
LINE
  5
A6A
  8
PCB_TOP
  6
CONTINUOUS
 10
1.637717794920664
 20
0.5885594130691453
 30
0.0
 11
1.637717794920664
 21
0.5890583001669667
 31
0.0
  0
LINE
  5
A6B
  8
PCB_TOP
  6
CONTINUOUS
 10
1.6467517698094341
 20
0.5890583001669667
 30
0.0
 11
1.651817055517788
 21
0.5885594130691453
 31
0.0
  0
LINE
  5
A6C
  8
PCB_TOP
  6
CONTINUOUS
 10
1.6153850052281351
 20
0.5864109026353203
 30
0.0
 11
1.626412209558042
 21
0.5890583001669667
 31
0.0
  0
LINE
  5
A6D
  8
PCB_TOP
  6
CONTINUOUS
 10
1.637717794920664
 20
0.5890583001669667
 30
0.0
 11
1.637717794920664
 21
0.5864109026353203
 31
0.0
  0
LINE
  5
A6E
  8
PCB_TOP
  6
CONTINUOUS
 10
1.637717794920664
 20
0.5844468104514881
 30
0.0
 11
1.637717794920664
 21
0.5885594130691453
 31
0.0
  0
LINE
  5
A6F
  8
PCB_TOP
  6
CONTINUOUS
 10
1.651817055517788
 20
0.5885594130691453
 30
0.0
 11
1.6653744894371261
 21
0.5844468104514881
 31
0.0
  0
LINE
  5
A70
  8
PCB_TOP
  6
CONTINUOUS
 10
1.6049077082987371
 20
0.5820710641501542
 30
0.0
 11
1.6153850052281351
 21
0.5864109026353203
 31
0.0
  0
LINE
  5
A71
  8
PCB_TOP
  6
CONTINUOUS
 10
1.637717794920664
 20
0.5864109026353203
 30
0.0
 11
1.637717794920664
 21
0.5820710641501542
 31
0.0
  0
LINE
  5
A72
  8
PCB_TOP
  6
CONTINUOUS
 10
1.637717794920664
 20
0.5777683061909062
 30
0.0
 11
1.637717794920664
 21
0.5844468104514881
 31
0.0
  0
LINE
  5
A73
  8
PCB_TOP
  6
CONTINUOUS
 10
1.6653744894371261
 20
0.5844468104514881
 30
0.0
 11
1.677869092096248
 21
0.5777683061909062
 31
0.0
  0
LINE
  5
A74
  8
PCB_TOP
  6
CONTINUOUS
 10
1.595238304592407
 20
0.5761456459380716
 30
0.0
 11
1.6049077082987371
 21
0.5820710641501542
 31
0.0
  0
LINE
  5
A75
  8
PCB_TOP
  6
CONTINUOUS
 10
1.637717794920664
 20
0.5820710641501542
 30
0.0
 11
1.637717794920664
 21
0.5761456459380716
 31
0.0
  0
LINE
  5
A76
  8
PCB_TOP
  6
CONTINUOUS
 10
1.5866148869192991
 20
0.5687805514607858
 30
0.0
 11
1.595238304592407
 21
0.5601571337876857
 31
0.0
  0
LINE
  5
A77
  8
PCB_TOP
  6
CONTINUOUS
 10
1.579249792442021
 20
0.5601571337876857
 30
0.0
 11
1.5866148869192991
 21
0.5687805514607858
 31
0.0
  0
LINE
  5
A78
  8
PCB_TOP
  6
CONTINUOUS
 10
1.637717794920664
 20
0.5687805514607858
 30
0.0
 11
1.637717794920664
 21
0.5777683061909062
 31
0.0
  0
LINE
  5
A79
  8
PCB_TOP
  6
CONTINUOUS
 10
1.677869092096248
 20
0.5777683061909062
 30
0.0
 11
1.688820702922019
 21
0.5687805514607858
 31
0.0
  0
LINE
  5
A7A
  8
PCB_TOP
  6
CONTINUOUS
 10
1.5866148869192991
 20
0.5687805514607858
 30
0.0
 11
1.595238304592407
 21
0.5761456459380716
 31
0.0
  0
LINE
  5
A7B
  8
PCB_TOP
  6
CONTINUOUS
 10
1.637717794920664
 20
0.5761456459380716
 30
0.0
 11
1.637717794920664
 21
0.5687805514607858
 31
0.0
  0
LINE
  5
A7C
  8
PCB_TOP
  6
CONTINUOUS
 10
1.5733243742299381
 20
0.5504877300813547
 30
0.0
 11
1.579249792442021
 21
0.5601571337876857
 31
0.0
  0
LINE
  5
A7D
  8
PCB_TOP
  6
CONTINUOUS
 10
1.595238304592407
 20
0.5601571337876857
 30
0.0
 11
1.6049077082987371
 21
0.5504877300813547
 31
0.0
  0
LINE
  5
A7E
  8
PCB_TOP
  6
CONTINUOUS
 10
1.568984535744772
 20
0.5400104331519569
 30
0.0
 11
1.5733243742299381
 21
0.5504877300813547
 31
0.0
  0
LINE
  5
A7F
  8
PCB_TOP
  6
CONTINUOUS
 10
1.6049077082987371
 20
0.5504877300813547
 30
0.0
 11
1.6153850052281351
 21
0.5400104331519569
 31
0.0
  0
LINE
  5
A80
  8
PCB_TOP
  6
CONTINUOUS
 10
1.637717794920664
 20
0.5289832288220496
 30
0.0
 11
1.637717794920664
 21
0.5176776434594279
 31
0.0
  0
LINE
  5
A81
  8
PCB_TOP
  6
CONTINUOUS
 10
1.637717794920664
 20
0.5176776434594279
 30
0.0
 11
1.637717794920664
 21
0.5289832288220496
 31
0.0
  0
LINE
  5
A82
  8
PCB_TOP
  6
CONTINUOUS
 10
1.637717794920664
 20
0.5289832288220496
 30
0.0
 11
1.637717794920664
 21
0.5687805514607858
 31
0.0
  0
LINE
  5
A83
  8
PCB_TOP
  6
CONTINUOUS
 10
1.688820702922019
 20
0.5687805514607858
 30
0.0
 11
1.649023380283279
 21
0.5289832288220496
 31
0.0
  0
LINE
  5
A84
  8
PCB_TOP
  6
CONTINUOUS
 10
1.626412209558042
 20
0.5289832288220496
 30
0.0
 11
1.5866148869193051
 21
0.5687805514607858
 31
0.0
  0
LINE
  5
A85
  8
PCB_TOP
  6
CONTINUOUS
 10
1.637717794920664
 20
0.5687805514607858
 30
0.0
 11
1.637717794920664
 21
0.5289832288220496
 31
0.0
  0
LINE
  5
A86
  8
PCB_TOP
  6
CONTINUOUS
 10
1.566337138213123
 20
0.5289832288220496
 30
0.0
 11
1.568984535744772
 21
0.5400104331519569
 31
0.0
  0
LINE
  5
A87
  8
PCB_TOP
  6
CONTINUOUS
 10
1.6153850052281351
 20
0.5400104331519569
 30
0.0
 11
1.626412209558042
 21
0.5289832288220496
 31
0.0
  0
LINE
  5
A88
  8
PCB_TOP
  6
CONTINUOUS
 10
1.5654473693484361
 20
0.5176776434594279
 30
0.0
 11
1.566337138213123
 21
0.5289832288220496
 31
0.0
  0
ENDBLK
  5
A8A
  8
0
  0
BLOCK
  8
0
  2
*U13
 70
     1
 10
0.0
 20
0.0
 30
0.0
  3
*U13
  1

  0
TEXT
  5
A8C
  8
TEXT
 10
-0.322736571721591
 20
-0.2051044938774109
 30
0.0
 40
0.1
  1
Er=2.20, 2oz. Cu, Both Sides
  7
ARIAL
  0
TEXT
  5
A8D
  8
TEXT
 10
0.1953739330533067
 20
-0.3734764811443504
 30
0.0
 40
0.1
  1
(.015" THK.)
  7
ARIAL
  0
ENDBLK
  5
A8F
  8
0
  0
BLOCK
  8
0
  2
*U14
 70
     1
 10
0.0
 20
0.0
 30
0.0
  3
*U14
  1

  0
SOLID
  5
C35
  8
TEXT
 10
0.7712081528015303
 20
0.4623223304716014
 30
0.0
 11
0.6512081528015316
 21
0.4823223304716073
 31
0.0
 12
0.7712081528015327
 22
0.5023223304716014
 32
0.0
 13
0.7712081528015327
 23
0.5023223304716014
 33
0.0
  0
POLYLINE
  5
C36
  8
TEXT
 66
     1
 10
0.0
 20
0.0
 30
0.0
  0
VERTEX
  5
12A3
  8
TEXT
 10
0.7712081528015313
 20
0.4823223304716014
 30
0.0
  0
VERTEX
  5
12A4
  8
TEXT
 10
1.1250000000000051
 20
0.4823223304715842
 30
0.0
  0
VERTEX
  5
12A5
  8
TEXT
 10
1.1250000000000051
 20
-0.2499999999993639
 30
0.0
  0
VERTEX
  5
12A6
  8
TEXT
 10
1.249999999999968
 20
-0.24999999999937
 30
0.0
  0
SEQEND
  5
12A7
  8
TEXT
  0
ENDBLK
  5
C3D
  8
0
  0
BLOCK
  8
0
  2
*U15
 70
     1
 10
0.0
 20
0.0
 30
0.0
  3
*U15
  1

  0
TEXT
  5
C3F
  8
TEXT
 10
1.3099999999999681
 20
-0.27999999999937
 30
0.0
 40
0.06
  1
NO COPPER
  0
ENDBLK
  5
C41
  8
0
  0
BLOCK
  8
0
  2
*U16
 70
     1
 10
0.0
 20
0.0
 30
0.0
  3
*U16
  1

  0
SOLID
  5
C43
  8
TEXT
 10
0.496844336196278
 20
0.2237918471997441
 30
0.0
 11
0.5176776695296113
 21
0.3487918471997441
 31
0.0
 12
0.538511002862945
 22
0.2237918471997441
 32
0.0
 13
0.538511002862945
 23
0.2237918471997441
 33
0.0
  0
POLYLINE
  5
C44
  8
TEXT
 66
     1
 10
0.0
 20
0.0
 30
0.0
  0
VERTEX
  5
12A8
  8
TEXT
 10
0.5176776695296113
 20
0.2237918471997441
 30
0.0
  0
VERTEX
  5
12A9
  8
TEXT
 10
0.5176776695296114
 20
-0.249999999999364
 30
0.0
  0
VERTEX
  5
12AA
  8
TEXT
 10
1.1250000000000051
 20
-0.2499999999993639
 30
0.0
  0
SEQEND
  5
12AB
  8
TEXT
  0
ENDBLK
  5
C4A
  8
0
  0
BLOCK
  8
0
  2
*U17
 70
     1
 10
0.0
 20
0.0
 30
0.0
  3
*U17
  1

  0
SOLID
  5
C4C
  8
TEXT
 10
0.5031556638037295
 20
0.7762081528027454
 30
-0.0000000000000002
 11
0.482322330470396
 21
0.6512081528027454
 31
-0.0000000000000002
 12
0.4614889971370629
 22
0.7762081528027454
 32
-0.0000000000000002
 13
0.4614889971370629
 23
0.7762081528027454
 33
-0.0000000000000002
  0
POLYLINE
  5
C4D
  8
TEXT
 66
     1
 10
0.0
 20
0.0
 30
0.0
  0
VERTEX
  5
12AC
  8
TEXT
 10
0.482322330470396
 20
0.7762081528027454
 30
0.0
  0
VERTEX
  5
12AD
  8
TEXT
 10
0.482322330470396
 20
1.1250000000012681
 30
0.0
  0
VERTEX
  5
12AE
  8
TEXT
 10
1.2500000000000371
 20
1.125000000001229
 30
0.0
  0
SEQEND
  5
12AF
  8
TEXT
  0
ENDBLK
  5
C53
  8
0
  0
BLOCK
  8
0
  2
*U18
 70
     1
 10
0.0
 20
0.0
 30
0.0
  3
*U18
  1

  0
TEXT
  5
C55
  8
TEXT
 10
1.328571428571464
 20
1.0950000000012301
 30
-0.0000000000000002
 40
0.06
  1
NO COPPER
  0
ENDBLK
  5
C57
  8
0
  0
BLOCK
  8
0
  2
*U19
 70
     1
 10
0.0
 20
0.0
 30
0.0
  3
*U19
  1

  0
SOLID
  5
C59
  8
TEXT
 10
0.2237918471985322
 20
0.5385110028641652
 30
0.0
 11
0.3487918471985326
 21
0.5176776695308341
 31
0.0
 12
0.223791847198533
 22
0.4968443361974985
 32
0.0
 13
0.223791847198533
 23
0.4968443361974985
 33
0.0
  0
POLYLINE
  5
C5A
  8
TEXT
 66
     1
 10
0.0
 20
0.0
 30
0.0
  0
VERTEX
  5
12B0
  8
TEXT
 10
0.2237918471985326
 20
0.5176776695308318
 30
0.0
  0
VERTEX
  5
12B1
  8
TEXT
 10
-0.1250000000000092
 20
0.5176776695308256
 30
0.0
  0
VERTEX
  5
12B2
  8
TEXT
 10
-0.12500000000002
 20
1.1250000000012681
 30
0.0
  0
VERTEX
  5
12B3
  8
TEXT
 10
0.482322330470396
 20
1.1250000000012681
 30
0.0
  0
SEQEND
  5
12B4
  8
TEXT
  0
ENDBLK
  5
C61
  8
0
  0
BLOCK
  8
0
  2
*X22
 70
     1
 10
0.0
 20
0.0
 30
0.0
  3
*X22
  1

  0
ENDBLK
  5
130D
  8
0
  0
ENDSEC
  0
SECTION
  2
ENTITIES
  0
TEXT
  5
2A3
  8
TEXT
 10
1.0943204292845321
 20
1.67889195421119
 30
-0.062
 40
0.06
  1
%%UTOP & BOTTOM ARTWORK SCALE 1:1
 72
     1
 11
1.941034714998819
 21
1.67889195421119
 31
-0.062
  0
TEXT
  5
2A4
  8
TEXT
 10
0.9138918578559618
 20
1.4989401500607391
 30
-0.062
 40
0.06
  1
VIEW: LOOKING THRU FROM TOP TO BOTTOM
 72
     1
 11
1.941034714998819
 21
1.4989401500607391
 31
-0.062
  0
INSERT
  5
2A5
  8
PCB_BOT
  6
CONTINUOUS
  2
*U7
 10
0.0
 20
0.0
 30
0.0
1001
ACAD
1002
{
1000
R14_HATCH_DATA
1000
2A5
1011
1.0
1021
0.0
1031
0.0
1021
0.0
1031
0.0
1011
0.0
1021
0.0
1031
0.0
1021
1.0
1031
0.0
1011
0.0
1021
0.0
1031
0.0
1021
0.0
1031
1.0
1040
0.0
1010
0.0
1020
0.0
1030
1.0
1000
SOLID
1070
     1
1070
     0
1071
        3
1071
        7
1070
     1
1070
     1
1071
        3
1040
-0.6023624558613429
1040
0.5176776434594279
1040
0.0
1040
-0.6023624558613429
1040
0.4454072178872003
1040
0.1989123673796551
1040
-0.5512595478599887
1040
0.4665747354580736
1040
0.0
1071
        0
1071
        7
1070
     1
1070
     1
1071
        3
1040
-0.530092030289115
1040
0.5176776434594279
1040
0.0
1040
-0.6023624558613429
1040
0.5176776434594244
1040
0.0
1040
-0.5512595478599887
1040
0.4665747354580703
1040
0.1989123673796482
1071
        0
1071
        7
1070
     1
1070
     1
1071
        3
1040
-0.5512595478599887
1040
0.5687805514607858
1040
0.0
1040
-0.6023624558613429
1040
0.5176776434594279
1040
0.0
1040
-0.530092030289115
1040
0.5176776434594279
1040
0.1989123673796509
1071
        0
1070
     0
1070
     1
1040
0.0001896584045076
1071
        3
1040
-0.5789129668912132
1040
0.4768838599947385
1040
0.0
1040
-0.5534784241141219
1040
0.4928151942169122
1040
0.0
1040
-0.5553764953620866
1040
0.5212639761471634
1040
0.0
1002
}
  0
LINE
  5
2A6
  8
PCB_BOT
 10
-0.6747436676202803
 20
0.4452964317004975
 30
0.0
 11
-0.5299812441024053
 21
0.5900588552183657
 31
0.0
  0
LINE
  5
2A7
  8
PCB_BOT
 10
-0.6747436676202803
 20
0.5900588552183657
 30
0.0
 11
-0.5299812441024053
 21
0.4452964317004904
 31
0.0
  0
INSERT
  5
2A8
  8
PCB_OUTLINE
  6
CONTINUOUS
  2
*U8
 10
0.0
 20
0.0
 30
0.0
1001
ACAD
1002
{
1000
R14_HATCH_DATA
1000
2A8
1011
1.0
1021
0.0
1031
0.0
1021
0.0
1031
0.0
1011
0.0
1021
0.0
1031
0.0
1021
1.0
1031
0.0
1011
0.0
1021
0.0
1031
0.0
1021
0.0
1031
1.0
1040
0.0
1010
0.0
1020
0.0
1030
1.0
1000
SOLID
1070
     1
1070
     0
1071
        2
1071
        7
1070
     1
1070
     1
1071
        3
1040
-0.6023624558613359
1040
0.5176776434594386
1040
0.0
1040
-0.6534653638627113
1040
0.4665747354580703
1040
0.1989123673796946
1040
-0.6023624558613429
1040
0.4454072178872003
1040
0.0
1071
        0
1071
        7
1070
     1
1070
     1
1071
        3
1040
-0.60236245586135
1040
0.5176776434594279
1040
0.0
1040
-0.6746328814335705
1040
0.5176776434594279
1040
0.1989123673796509
1040
-0.6534653638627113
1040
0.4665747354580703
1040
0.0
1071
        0
1070
     0
1070
     1
1040
0.0001896584045076
1071
        2
1040
-0.614976805670498
1040
0.4655043744580171
1040
0.0
1040
-0.6502815129642025
1040
0.4920565527693368
1040
0.0
1002
}
  0
LINE
  5
2A9
  8
PCB_OUTLINE
 10
-0.6747436676202803
 20
0.4452964317005046
 30
0.0
 11
-0.529981244102391
 21
0.5900588552183727
 31
0.0
  0
LINE
  5
2AA
  8
PCB_OUTLINE
 10
-0.6747436676202661
 20
0.5900588552183727
 30
0.0
 11
-0.529981244102391
 21
0.4452964317004975
 31
0.0
  0
LINE
  5
2AB
  8
PCB_TOP
 10
-0.6747436676202661
 20
0.5900588552183727
 30
0.0
 11
-0.529981244102391
 21
0.4452964317004975
 31
0.0
  0
LINE
  5
2AC
  8
PCB_TOP
 10
-0.6747436676202803
 20
0.4452964317005046
 30
0.0
 11
-0.529981244102391
 21
0.5900588552183727
 31
0.0
  0
CIRCLE
  5
2AD
  8
PCB_BOT
 10
-0.6023624558613288
 20
0.5176776434594208
 30
0.0
 40
0.0722704255722269
  0
CIRCLE
  5
2AE
  8
PCB_OUTLINE
 10
-0.6023624558613288
 20
0.5176776434594208
 30
0.0
 40
0.0722704255722269
  0
CIRCLE
  5
2AF
  8
PCB_TOP
 10
-0.6023624558613288
 20
0.5176776434594208
 30
0.0
 40
0.0722704255722269
  0
LINE
  5
2B0
  8
PCB_BOT
 10
-0.6023624558613429
 20
0.6200401347899165
 30
0.0
 11
-0.6023624558613429
 21
0.4153151521289395
 31
0.0
  0
LINE
  5
2B1
  8
PCB_OUTLINE
 10
-0.6023624558613288
 20
0.6200401347899236
 30
0.0
 11
-0.6023624558613288
 21
0.4153151521289466
 31
0.0
  0
LINE
  5
2B2
  8
PCB_TOP
 10
-0.6023624558613288
 20
0.6200401347899236
 30
0.0
 11
-0.6023624558613288
 21
0.4153151521289466
 31
0.0
  0
LINE
  5
2B3
  8
PCB_BOT
 10
-0.4999999645308473
 20
0.5176776434594279
 30
0.0
 11
-0.7047249471918243
 21
0.5176776434594279
 31
0.0
  0
INSERT
  5
2B4
  8
PCB_TOP
  6
CONTINUOUS
  2
*U9
 10
0.0
 20
0.0
 30
0.0
1001
ACAD
1002
{
1000
R14_HATCH_DATA
1000
2B4
1011
1.0
1021
0.0
1031
0.0
1021
0.0
1031
0.0
1011
0.0
1021
0.0
1031
0.0
1021
1.0
1031
0.0
1011
0.0
1021
0.0
1031
0.0
1021
0.0
1031
1.0
1040
0.0
1010
0.0
1020
0.0
1030
1.0
1000
SOLID
1070
     1
1070
     0
1071
        3
1071
        7
1070
     1
1070
     1
1071
        3
1040
-0.6023624558613429
1040
0.5899480690316558
1040
0.1989123673796765
1040
-0.6534653638627042
1040
0.5687805514607894
1040
0.0
1040
-0.6023624558613429
1040
0.5176776434594279
1040
0.0
1071
        0
1071
        7
1070
     1
1070
     1
1071
        3
1040
-0.6534653638627042
1040
0.5687805514607894
1040
0.1989123673796716
1040
-0.6746328814335705
1040
0.5176776434594279
1040
0.0
1040
-0.6023624558613429
1040
0.5176776434594279
1040
0.0
1071
        0
1071
        7
1070
     1
1070
     1
1071
        3
1040
-0.5512595478599887
1040
0.5687805514607858
1040
0.1989123673796498
1040
-0.6023624558613429
1040
0.5899480690316558
1040
0.0
1040
-0.6023624558613429
1040
0.517677643459435
1040
0.0
1071
        0
1070
     0
1070
     1
1040
0.0001896584045076
1071
        3
1040
-0.6183933824236371
1040
0.5664026656587238
1040
0.0
1040
-0.6415502882099741
1040
0.5470575130109081
1040
0.0
1040
-0.5861256861402673
1040
0.5519886143317008
1040
0.0
1002
}
  0
LINE
  5
2B5
  8
PCB_OUTLINE
 10
-0.4999999645308473
 20
0.517677643459435
 30
0.0
 11
-0.70472494719181
 21
0.517677643459435
 31
0.0
  0
LINE
  5
2B6
  8
PCB_TOP
 10
-0.4999999645308473
 20
0.517677643459435
 30
0.0
 11
-0.70472494719181
 21
0.517677643459435
 31
0.0
  0
TEXT
  5
2B7
  8
PCB_OUTLINE
 10
1.536922930132735
 20
0.2455209562675469
 30
0.0
 40
0.0299327383810564
  1
PCB_OUTLINE
  0
INSERT
  5
2B8
  8
PCB_BOT
  6
CONTINUOUS
  2
*U10
 10
0.0
 20
0.0
 30
0.0
1001
ACAD
1002
{
1000
R14_HATCH_DATA
1000
2B8
1011
1.0
1021
0.0
1031
0.0
1021
0.0
1031
0.0
1011
0.0
1021
0.0
1031
0.0
1021
1.0
1031
0.0
1011
0.0
1021
0.0
1031
0.0
1021
0.0
1031
1.0
1040
0.0
1010
0.0
1020
0.0
1030
1.0
1000
SOLID
1070
     1
1070
     0
1071
        3
1071
        7
1070
     1
1070
     1
1071
        3
1040
1.637717794920664
1040
0.5176776434594279
1040
0.0
1040
1.637717794920664
1040
0.4454072178872003
1040
0.1989123673796551
1040
1.688820702922019
1040
0.4665747354580736
1040
0.0
1071
        0
1071
        7
1070
     1
1070
     1
1071
        3
1040
1.709988220492892
1040
0.5176776434594279
1040
0.0
1040
1.637717794920664
1040
0.5176776434594244
1040
0.0
1040
1.688820702922019
1040
0.4665747354580703
1040
0.1989123673796482
1071
        0
1071
        7
1070
     1
1070
     1
1071
        3
1040
1.688820702922019
1040
0.5687805514607858
1040
0.0
1040
1.637717794920664
1040
0.5176776434594279
1040
0.0
1040
1.709988220492892
1040
0.5176776434594279
1040
0.1989123673796509
1071
        0
1070
     0
1070
     1
1040
0.0001896584045076
1071
        3
1040
1.661167283890792
1040
0.4768838599947385
1040
0.0
1040
1.6866018266678831
1040
0.4928151942169122
1040
0.0
1040
1.684703755419918
1040
0.5212639761471634
1040
0.0
1002
}
  0
LINE
  5
2B9
  8
PCB_BOT
 10
1.565336583161727
 20
0.4452964317004975
 30
0.0
 11
1.7100990066796
 21
0.5900588552183657
 31
0.0
  0
LINE
  5
2BA
  8
PCB_BOT
 10
1.565336583161727
 20
0.5900588552183657
 30
0.0
 11
1.7100990066796
 21
0.4452964317004904
 31
0.0
  0
INSERT
  5
2BB
  8
PCB_OUTLINE
  6
CONTINUOUS
  2
*U11
 10
0.0
 20
0.0
 30
0.0
1001
ACAD
1002
{
1000
R14_HATCH_DATA
1000
2BB
1011
1.0
1021
0.0
1031
0.0
1021
0.0
1031
0.0
1011
0.0
1021
0.0
1031
0.0
1021
1.0
1031
0.0
1011
0.0
1021
0.0
1031
0.0
1021
0.0
1031
1.0
1040
0.0
1010
0.0
1020
0.0
1030
1.0
1000
SOLID
1070
     1
1070
     0
1071
        2
1071
        7
1070
     1
1070
     1
1071
        3
1040
1.637717794920668
1040
0.5176776434594386
1040
0.0
1040
1.5866148869192931
1040
0.4665747354580703
1040
0.1989123673796946
1040
1.637717794920664
1040
0.4454072178872003
1040
0.0
1071
        0
1071
        7
1070
     1
1070
     1
1071
        3
1040
1.6377177949206561
1040
0.5176776434594279
1040
0.0
1040
1.5654473693484361
1040
0.5176776434594279
1040
0.1989123673796509
1040
1.5866148869192931
1040
0.4665747354580703
1040
0.0
1071
        0
1070
     0
1070
     1
1040
0.0001896584045076
1071
        2
1040
1.6251034451115081
1040
0.4655043744580171
1040
0.0
1040
1.589798737817804
1040
0.4920565527693368
1040
0.0
1002
}
  0
LINE
  5
2BC
  8
PCB_OUTLINE
 10
1.565336583161727
 20
0.4452964317005046
 30
0.0
 11
1.710099006679616
 21
0.5900588552183727
 31
0.0
  0
LINE
  5
2BD
  8
PCB_OUTLINE
 10
1.5653365831617401
 20
0.5900588552183727
 30
0.0
 11
1.710099006679616
 21
0.4452964317004975
 31
0.0
  0
LINE
  5
2BE
  8
PCB_TOP
 10
1.5653365831617401
 20
0.5900588552183727
 30
0.0
 11
1.710099006679616
 21
0.4452964317004975
 31
0.0
  0
LINE
  5
2BF
  8
PCB_TOP
 10
1.565336583161727
 20
0.4452964317005046
 30
0.0
 11
1.710099006679616
 21
0.5900588552183727
 31
0.0
  0
CIRCLE
  5
2C0
  8
PCB_BOT
 10
1.637717794920678
 20
0.5176776434594208
 30
0.0
 40
0.0722704255722269
  0
CIRCLE
  5
2C1
  8
PCB_OUTLINE
 10
1.637717794920678
 20
0.5176776434594208
 30
0.0
 40
0.0722704255722269
  0
CIRCLE
  5
2C2
  8
PCB_TOP
 10
1.637717794920678
 20
0.5176776434594208
 30
0.0
 40
0.0722704255722269
  0
LINE
  5
2C3
  8
PCB_BOT
 10
1.637717794920664
 20
0.6200401347899165
 30
0.0
 11
1.637717794920664
 21
0.4153151521289395
 31
0.0
  0
LINE
  5
2C4
  8
PCB_OUTLINE
 10
1.637717794920678
 20
0.6200401347899236
 30
0.0
 11
1.637717794920678
 21
0.4153151521289466
 31
0.0
  0
LINE
  5
2C5
  8
PCB_TOP
 10
1.637717794920678
 20
0.6200401347899236
 30
0.0
 11
1.637717794920678
 21
0.4153151521289466
 31
0.0
  0
TEXT
  5
2C6
  8
PCB_TOP
 10
1.536922930132735
 20
0.3023343984833469
 30
0.0
 40
0.0299327383810564
  1
PCB_TOP
  0
TEXT
  5
2C7
  8
PCB_BOT
 10
1.536922930132735
 20
0.1862389343992552
 30
0.0
 40
0.0299327383810564
  1
PCB_BOT
  0
LINE
  5
2C8
  8
PCB_BOT
 10
1.7400802862511591
 20
0.5176776434594279
 30
0.0
 11
1.535355303590183
 21
0.5176776434594279
 31
0.0
  0
INSERT
  5
2C9
  8
PCB_TOP
  6
CONTINUOUS
  2
*U12
 10
0.0
 20
0.0
 30
0.0
1001
ACAD
1002
{
1000
R14_HATCH_DATA
1000
2C9
1011
1.0
1021
0.0
1031
0.0
1021
0.0
1031
0.0
1011
0.0
1021
0.0
1031
0.0
1021
1.0
1031
0.0
1011
0.0
1021
0.0
1031
0.0
1021
0.0
1031
1.0
1040
0.0
1010
0.0
1020
0.0
1030
1.0
1000
SOLID
1070
     1
1070
     0
1071
        3
1071
        7
1070
     1
1070
     1
1071
        3
1040
1.637717794920664
1040
0.5899480690316558
1040
0.1989123673796765
1040
1.5866148869193031
1040
0.5687805514607894
1040
0.0
1040
1.637717794920664
1040
0.5176776434594279
1040
0.0
1071
        0
1071
        7
1070
     1
1070
     1
1071
        3
1040
1.5866148869193031
1040
0.5687805514607894
1040
0.1989123673796716
1040
1.5654473693484361
1040
0.5176776434594279
1040
0.0
1040
1.637717794920664
1040
0.5176776434594279
1040
0.0
1071
        0
1071
        7
1070
     1
1070
     1
1071
        3
1040
1.688820702922019
1040
0.5687805514607858
1040
0.1989123673796498
1040
1.637717794920664
1040
0.5899480690316558
1040
0.0
1040
1.637717794920664
1040
0.517677643459435
1040
0.0
1071
        0
1070
     0
1070
     1
1040
0.0001896584045076
1071
        3
1040
1.6216868683583701
1040
0.5664026656587238
1040
0.0
1040
1.5985299625720331
1040
0.5470575130109081
1040
0.0
1040
1.6539545646417391
1040
0.5519886143317008
1040
0.0
1002
}
  0
LINE
  5
2CA
  8
PCB_OUTLINE
 10
1.7400802862511591
 20
0.517677643459435
 30
0.0
 11
1.535355303590195
 21
0.517677643459435
 31
0.0
  0
LINE
  5
2CB
  8
PCB_TOP
 10
1.7400802862511591
 20
0.517677643459435
 30
0.0
 11
1.535355303590195
 21
0.517677643459435
 31
0.0
  0
INSERT
  5
3FC
  8
PCB_BOT
  2
A$C16A027C3
 10
0.5000000000000178
 20
0.5000000000006171
 30
0.0
 50
315.0
  0
INSERT
  5
4B2
  8
0
  2
*U13
 10
1.025084016990182
 20
-0.6838747635960676
 30
0.0
  0
CIRCLE
  5
741
  8
PCB_OUTLINE
 10
0.3120223304713718
 20
0.8575000000012661
 30
0.0
 40
0.0425000000000004
  0
CIRCLE
  5
742
  8
PCB_OUTLINE
 10
0.6520223304694142
 20
0.8575000000080519
 30
0.0
 40
0.0425000000000004
  0
CIRCLE
  5
743
  8
PCB_OUTLINE
 10
0.8575000000061551
 20
0.312022330472228
 30
0.0
 40
0.0425000000000004
  0
CIRCLE
  5
744
  8
PCB_OUTLINE
 10
0.6873776695297416
 20
0.1425000000014673
 30
0.0
 40
0.0425000000000004
  0
POLYLINE
  5
745
  8
PCB_OUTLINE
 66
     1
 10
0.0
 20
0.0
 30
0.0
 70
     1
  0
VERTEX
  5
1265
  8
PCB_OUTLINE
 10
0.0
 20
0.0000000000012718
 30
0.0
  0
VERTEX
  5
1266
  8
PCB_OUTLINE
 10
0.9999999999999822
 20
0.0000000000012678
 30
0.0
  0
VERTEX
  5
1267
  8
PCB_OUTLINE
 10
0.9999999999999822
 20
1.0000000000012681
 30
0.0
  0
VERTEX
  5
1268
  8
PCB_OUTLINE
 10
-0.0000000000000178
 20
1.0000000000012681
 30
0.0
  0
SEQEND
  5
1269
  8
PCB_OUTLINE
  0
POLYLINE
  5
74B
  8
PCB_TOP
 66
     1
 10
0.0
 20
0.0
 30
0.0
 70
     1
  0
VERTEX
  5
126A
  8
PCB_TOP
 10
0.4823223304703144
 20
0.5883883476494211
 30
0.0
  0
VERTEX
  5
126B
  8
PCB_TOP
 10
0.5141421356237113
 20
0.6202081528028149
 30
0.0
  0
VERTEX
  5
126C
  8
PCB_TOP
 10
0.5043223304703126
 20
0.6300279579562098
 30
0.0
  0
VERTEX
  5
126D
  8
PCB_TOP
 10
0.5043223304703126
 20
1.0000000000012661
 30
0.0
  0
VERTEX
  5
126E
  8
PCB_TOP
 10
0.4603223304703228
 20
1.0000000000012681
 30
0.0
  0
VERTEX
  5
126F
  8
PCB_TOP
 10
0.4603223304703228
 20
0.6300279579562098
 30
0.0
  0
VERTEX
  5
1270
  8
PCB_TOP
 10
0.4505025253169245
 20
0.6202081528028149
 30
0.0
  0
SEQEND
  5
1271
  8
PCB_TOP
  0
POLYLINE
  5
754
  8
PCB_TOP
 66
     1
 10
0.0
 20
0.0
 30
0.0
 70
     1
  0
VERTEX
  5
1272
  8
PCB_TOP
 10
0.5883883476481345
 20
0.4823223304715953
 30
0.0
  0
VERTEX
  5
1273
  8
PCB_TOP
 10
0.6202081528015455
 20
0.5141421356249885
 30
0.0
  0
VERTEX
  5
1274
  8
PCB_TOP
 10
0.6300279579549298
 20
0.5043223304715923
 30
0.0
  0
VERTEX
  5
1275
  8
PCB_TOP
 10
0.9999999999999822
 20
0.5043223304715971
 30
0.0
  0
VERTEX
  5
1276
  8
PCB_TOP
 10
0.9999999999999822
 20
0.4603223304715919
 30
0.0
  0
VERTEX
  5
1277
  8
PCB_TOP
 10
0.6300279579549227
 20
0.4603223304715959
 30
0.0
  0
VERTEX
  5
1278
  8
PCB_TOP
 10
0.6202081528015455
 20
0.4505025253182022
 30
0.0
  0
SEQEND
  5
1279
  8
PCB_TOP
  0
POLYLINE
  5
75D
  8
PCB_TOP
 66
     1
 10
0.0
 20
0.0
 30
0.0
 70
     1
  0
VERTEX
  5
127A
  8
PCB_TOP
 10
0.4116116523518408
 20
0.5176776695309381
 30
0.0
  0
VERTEX
  5
127B
  8
PCB_TOP
 10
0.3797918471984545
 20
0.4858578643775439
 30
0.0
  0
VERTEX
  5
127C
  8
PCB_TOP
 10
0.3699720420450561
 20
0.4956776695309419
 30
0.0
  0
VERTEX
  5
127D
  8
PCB_TOP
 10
0.0
 20
0.4956776695309419
 30
0.0
  0
VERTEX
  5
127E
  8
PCB_TOP
 10
-0.0000000000000178
 20
0.539677669530944
 30
0.0
  0
VERTEX
  5
127F
  8
PCB_TOP
 10
0.3699720420450561
 20
0.5396776695309402
 30
0.0
  0
VERTEX
  5
1280
  8
PCB_TOP
 10
0.3797918471984545
 20
0.549497474684334
 30
0.0
  0
SEQEND
  5
1281
  8
PCB_TOP
  0
POLYLINE
  5
766
  8
PCB_TOP
 66
     1
 10
0.0
 20
0.0
 30
0.0
 70
     1
  0
VERTEX
  5
1282
  8
PCB_TOP
 10
0.5494974746830508
 20
0.3797918471997219
 30
0.0
  0
VERTEX
  5
1283
  8
PCB_TOP
 10
0.517677669529661
 20
0.411611652353113
 30
0.0
  0
VERTEX
  5
1284
  8
PCB_TOP
 10
0.4858578643762749
 20
0.3797918471997219
 30
0.0
  0
VERTEX
  5
1285
  8
PCB_TOP
 10
0.4956776695296732
 20
0.3699720420463279
 30
0.0
  0
VERTEX
  5
1286
  8
PCB_TOP
 10
0.4956776695296521
 20
0.0000000000012678
 30
0.0
  0
VERTEX
  5
1287
  8
PCB_TOP
 10
0.5396776695296702
 20
0.0000000000012678
 30
0.0
  0
VERTEX
  5
1288
  8
PCB_TOP
 10
0.5396776695296702
 20
0.3699720420463279
 30
0.0
  0
SEQEND
  5
1289
  8
PCB_TOP
  0
POLYLINE
  5
76F
  8
PCB_TOP
 66
     1
 10
0.0
 20
0.0
 30
0.0
 70
     1
  0
VERTEX
  5
128A
  8
PCB_TOP
 10
1.0000000000000311
 20
0.5543223304733921
 30
0.0
  0
VERTEX
  5
128B
  8
PCB_TOP
 10
1.0000000000000311
 20
1.0000000000012721
 30
0.0
  0
VERTEX
  5
128C
  8
PCB_TOP
 10
0.5543223304703134
 20
1.0000000000012661
 30
0.0
  0
VERTEX
  5
128D
  8
PCB_TOP
 10
0.5543223304703134
 20
0.625033008590078
 30
0.0
  0
VERTEX
  5
128E
  8
PCB_TOP
 10
0.4823223304703427
 20
0.5530330085900999
 30
0.0
  0
VERTEX
  5
128F
  8
PCB_TOP
 10
0.4103223304703186
 20
0.625033008590121
 30
0.0
  0
VERTEX
  5
1290
  8
PCB_TOP
 10
0.4103223304703186
 20
1.0000000000012681
 30
0.0
  0
VERTEX
  5
1291
  8
PCB_TOP
 10
-0.0000000000000178
 20
1.0000000000012681
 30
0.0
  0
VERTEX
  5
1292
  8
PCB_TOP
 10
-0.0000000000000178
 20
0.58967766953094
 30
0.0
  0
VERTEX
  5
1293
  8
PCB_TOP
 10
0.3749669914111422
 20
0.58967766953094
 30
0.0
  0
VERTEX
  5
1294
  8
PCB_TOP
 10
0.4469669914111556
 20
0.51767766953092
 30
0.0
  0
VERTEX
  5
1295
  8
PCB_TOP
 10
0.3749669914111813
 20
0.445677669530939
 30
0.0
  0
VERTEX
  5
1296
  8
PCB_TOP
 10
0.0
 20
0.445677669530939
 30
0.0
  0
VERTEX
  5
1297
  8
PCB_TOP
 10
0.0
 20
0.0000000000012718
 30
0.0
  0
VERTEX
  5
1298
  8
PCB_TOP
 10
0.4456776695278606
 20
-0.000000000000568
 30
0.0
  0
VERTEX
  5
1299
  8
PCB_TOP
 10
0.4456776695294133
 20
0.3749669914124198
 30
0.0
  0
VERTEX
  5
129A
  8
PCB_TOP
 10
0.5176776695296966
 20
0.4469669914121019
 30
0.0
  0
VERTEX
  5
129B
  8
PCB_TOP
 10
0.5896776695294153
 20
0.3749669914117825
 30
0.0
  0
VERTEX
  5
129C
  8
PCB_TOP
 10
0.5896776695278591
 20
0.0000000000006359
 30
0.0
  0
VERTEX
  5
129D
  8
PCB_TOP
 10
0.9999999999999822
 20
0.0000000000006359
 30
0.0
  0
VERTEX
  5
129E
  8
PCB_TOP
 10
1.0000000000006251
 20
0.4103223304733927
 30
0.0
  0
VERTEX
  5
129F
  8
PCB_TOP
 10
0.6250330085894725
 20
0.4103223304718468
 30
0.0
  0
VERTEX
  5
12A0
  8
PCB_TOP
 10
0.5530330085891535
 20
0.4823223304715738
 30
0.0
  0
VERTEX
  5
12A1
  8
PCB_TOP
 10
0.6250330085888332
 20
0.5543223304718488
 30
0.0
  0
SEQEND
  5
12A2
  8
PCB_TOP
  0
CIRCLE
  5
789
  8
PCB_OUTLINE
 10
0.0358223304703245
 20
0.6141776695309363
 30
0.0
 40
0.0125
  0
CIRCLE
  5
78A
  8
PCB_OUTLINE
 10
0.0358223304703245
 20
0.6641776695309412
 30
0.0
 40
0.0125
  0
CIRCLE
  5
78B
  8
PCB_OUTLINE
 10
0.0358223304703245
 20
0.7141776695309408
 30
0.0
 40
0.0125
  0
CIRCLE
  5
78C
  8
PCB_OUTLINE
 10
0.0358223304703245
 20
0.7641776695309394
 30
0.0
 40
0.0125
  0
CIRCLE
  5
78D
  8
PCB_OUTLINE
 10
0.0358223304703245
 20
0.81417766953094
 30
0.0
 40
0.0125
  0
CIRCLE
  5
78E
  8
PCB_OUTLINE
 10
0.0358223304703245
 20
0.8641776695309396
 30
0.0
 40
0.0125
  0
CIRCLE
  5
78F
  8
PCB_OUTLINE
 10
0.0358223304703245
 20
0.9141776695309367
 30
0.0
 40
0.0125
  0
CIRCLE
  5
790
  8
PCB_OUTLINE
 10
0.0358223304703245
 20
0.9641776695309406
 30
0.0
 40
0.0125
  0
CIRCLE
  5
791
  8
PCB_OUTLINE
 10
0.0858223304703181
 20
0.6141776695309398
 30
0.0
 40
0.0125
  0
CIRCLE
  5
792
  8
PCB_OUTLINE
 10
0.0858223304703181
 20
0.7641776695309428
 30
0.0
 40
0.0125
  0
CIRCLE
  5
793
  8
PCB_OUTLINE
 10
0.0858223304703181
 20
0.81417766953094
 30
0.0
 40
0.0125
  0
CIRCLE
  5
794
  8
PCB_OUTLINE
 10
0.0858223304703181
 20
0.8641776695309356
 30
0.0
 40
0.0125
  0
CIRCLE
  5
795
  8
PCB_OUTLINE
 10
0.0858223304703181
 20
0.914177669530941
 30
0.0
 40
0.0125
  0
CIRCLE
  5
796
  8
PCB_OUTLINE
 10
0.0858223304703181
 20
0.9641776695309388
 30
0.0
 40
0.0125
  0
CIRCLE
  5
797
  8
PCB_OUTLINE
 10
0.1358223304703188
 20
0.6141776695309398
 30
0.0
 40
0.0125
  0
CIRCLE
  5
798
  8
PCB_OUTLINE
 10
0.1358223304703188
 20
0.7641776695309394
 30
0.0
 40
0.0125
  0
CIRCLE
  5
799
  8
PCB_OUTLINE
 10
0.1358223304703188
 20
0.81417766953094
 30
0.0
 40
0.0125
  0
CIRCLE
  5
79A
  8
PCB_OUTLINE
 10
0.1358223304703188
 20
0.8641776695309396
 30
0.0
 40
0.0125
  0
CIRCLE
  5
79B
  8
PCB_OUTLINE
 10
0.1358223304703188
 20
0.9141776695309367
 30
0.0
 40
0.0125
  0
CIRCLE
  5
79C
  8
PCB_OUTLINE
 10
0.1358223304703188
 20
0.9641776695309406
 30
0.0
 40
0.0125
  0
CIRCLE
  5
79D
  8
PCB_OUTLINE
 10
0.1858223304703124
 20
0.6141776695309398
 30
0.0
 40
0.0125
  0
CIRCLE
  5
79E
  8
PCB_OUTLINE
 10
0.1858223304703124
 20
0.7641776695309348
 30
0.0
 40
0.0125
  0
CIRCLE
  5
79F
  8
PCB_OUTLINE
 10
0.1858223304703124
 20
0.81417766953094
 30
0.0
 40
0.0125
  0
CIRCLE
  5
7A0
  8
PCB_OUTLINE
 10
0.1858223304703124
 20
0.8641776695309396
 30
0.0
 40
0.0125
  0
CIRCLE
  5
7A1
  8
PCB_OUTLINE
 10
0.1858223304703124
 20
0.914177669530941
 30
0.0
 40
0.0125
  0
CIRCLE
  5
7A2
  8
PCB_OUTLINE
 10
0.1858223304703124
 20
0.9641776695309388
 30
0.0
 40
0.0125
  0
CIRCLE
  5
7A3
  8
PCB_OUTLINE
 10
0.2358223304703131
 20
0.6141776695309398
 30
0.0
 40
0.0125
  0
CIRCLE
  5
7A4
  8
PCB_OUTLINE
 10
0.2358223304703131
 20
0.6641776695309412
 30
0.0
 40
0.0125
  0
CIRCLE
  5
7A5
  8
PCB_OUTLINE
 10
0.2358223304703131
 20
0.7141776695309388
 30
0.0
 40
0.0125
  0
CIRCLE
  5
7A6
  8
PCB_OUTLINE
 10
0.2358223304703131
 20
0.7641776695309394
 30
0.0
 40
0.0125
  0
CIRCLE
  5
7A7
  8
PCB_OUTLINE
 10
0.2358223304703131
 20
0.8141776695309358
 30
0.0
 40
0.0125
  0
CIRCLE
  5
7A8
  8
PCB_OUTLINE
 10
0.2358223304703131
 20
0.8641776695309396
 30
0.0
 40
0.0125
  0
CIRCLE
  5
7A9
  8
PCB_OUTLINE
 10
0.2358223304703131
 20
0.914177669530941
 30
0.0
 40
0.0125
  0
CIRCLE
  5
7AA
  8
PCB_OUTLINE
 10
0.2358223304703131
 20
0.9641776695309388
 30
0.0
 40
0.0125
  0
CIRCLE
  5
7AB
  8
PCB_OUTLINE
 10
0.2858223304703244
 20
0.6141776695309363
 30
0.0
 40
0.0125
  0
CIRCLE
  5
7AC
  8
PCB_OUTLINE
 10
0.2858223304703138
 20
0.6641776695309412
 30
0.0
 40
0.0125
  0
CIRCLE
  5
7AD
  8
PCB_OUTLINE
 10
0.2858223304703138
 20
0.7141776695309408
 30
0.0
 40
0.0125
  0
CIRCLE
  5
7AE
  8
PCB_OUTLINE
 10
0.2858223304703138
 20
0.7641776695309394
 30
0.0
 40
0.0125
  0
CIRCLE
  5
7AF
  8
PCB_OUTLINE
 10
0.2858223304703244
 20
0.9641776695309388
 30
0.0
 40
0.0125
  0
CIRCLE
  5
7B0
  8
PCB_OUTLINE
 10
0.3358223304703145
 20
0.6141776695309363
 30
0.0
 40
0.0125
  0
CIRCLE
  5
7B1
  8
PCB_OUTLINE
 10
0.3358223304703145
 20
0.6641776695309412
 30
0.0
 40
0.0125
  0
CIRCLE
  5
7B2
  8
PCB_OUTLINE
 10
0.3358223304703145
 20
0.7141776695309388
 30
0.0
 40
0.0125
  0
CIRCLE
  5
7B3
  8
PCB_OUTLINE
 10
0.3358223304703145
 20
0.7641776695309428
 30
0.0
 40
0.0125
  0
CIRCLE
  5
7B4
  8
PCB_OUTLINE
 10
0.3358223304703145
 20
0.9641776695309388
 30
0.0
 40
0.0125
  0
CIRCLE
  5
7B5
  8
PCB_OUTLINE
 10
0.4116116523516812
 20
0.5883883476495561
 30
0.0
 40
0.0125
  0
CIRCLE
  5
7B6
  8
PCB_OUTLINE
 10
0.3858223304703188
 20
0.6641776695309372
 30
0.0
 40
0.0125
  0
CIRCLE
  5
7B7
  8
PCB_OUTLINE
 10
0.3858223304703188
 20
0.7141776695309388
 30
0.0
 40
0.0125
  0
CIRCLE
  5
7B8
  8
PCB_OUTLINE
 10
0.3858223304703188
 20
0.7641776695309394
 30
0.0
 40
0.0125
  0
CIRCLE
  5
7B9
  8
PCB_OUTLINE
 10
0.3858223304703188
 20
0.8141776695309427
 30
0.0
 40
0.0125
  0
CIRCLE
  5
7BA
  8
PCB_OUTLINE
 10
0.3858223304703188
 20
0.8641776695309396
 30
0.0
 40
0.0125
  0
CIRCLE
  5
7BB
  8
PCB_OUTLINE
 10
0.3858223304703188
 20
0.9141776695309367
 30
0.0
 40
0.0125
  0
CIRCLE
  5
7BC
  8
PCB_OUTLINE
 10
0.3858223304703188
 20
0.9641776695309388
 30
0.0
 40
0.0125
  0
CIRCLE
  5
7BD
  8
PCB_OUTLINE
 10
0.3858223304703188
 20
0.6141776695309398
 30
0.0
 40
0.0125
  0
CIRCLE
  5
7BE
  8
PCB_OUTLINE
 10
0.9224583694396384
 20
0.6228137085002568
 30
0.0
 40
0.0125
  0
CIRCLE
  5
7BF
  8
PCB_OUTLINE
 10
0.9224583694396384
 20
0.7228137085002621
 30
0.0
 40
0.0125
  0
CIRCLE
  5
7C0
  8
PCB_OUTLINE
 10
0.9224583694396384
 20
0.772813708500264
 30
0.0
 40
0.0125
  0
CIRCLE
  5
7C1
  8
PCB_OUTLINE
 10
0.9224583694396384
 20
0.8228137085002597
 30
0.0
 40
0.0125
  0
CIRCLE
  5
7C2
  8
PCB_OUTLINE
 10
0.9224583694396384
 20
0.8728137085002607
 30
0.0
 40
0.0125
  0
CIRCLE
  5
7C3
  8
PCB_OUTLINE
 10
0.9224583694396384
 20
0.9228137085002588
 30
0.0
 40
0.0125
  0
CIRCLE
  5
7C4
  8
PCB_OUTLINE
 10
0.9224583694396384
 20
0.9728137085002618
 30
0.0
 40
0.0125
  0
CIRCLE
  5
7C5
  8
PCB_OUTLINE
 10
0.8724583694396415
 20
0.772813708500264
 30
0.0
 40
0.0125
  0
CIRCLE
  5
7C6
  8
PCB_OUTLINE
 10
0.8724583694396415
 20
0.8228137085002597
 30
0.0
 40
0.0125
  0
CIRCLE
  5
7C7
  8
PCB_OUTLINE
 10
0.8724583694396415
 20
0.8728137085002568
 30
0.0
 40
0.0125
  0
CIRCLE
  5
7C8
  8
PCB_OUTLINE
 10
0.8724583694396415
 20
0.9228137085002627
 30
0.0
 40
0.0125
  0
CIRCLE
  5
7C9
  8
PCB_OUTLINE
 10
0.8724583694396415
 20
0.9728137085002588
 30
0.0
 40
0.0125
  0
CIRCLE
  5
7CA
  8
PCB_OUTLINE
 10
0.8224583694396335
 20
0.7228137085002621
 30
0.0
 40
0.0125
  0
CIRCLE
  5
7CB
  8
PCB_OUTLINE
 10
0.8224583694396335
 20
0.77281370850026
 30
0.0
 40
0.0125
  0
CIRCLE
  5
7CC
  8
PCB_OUTLINE
 10
0.8224583694396443
 20
0.8228137085002597
 30
0.0
 40
0.0125
  0
CIRCLE
  5
7CD
  8
PCB_OUTLINE
 10
0.8224583694396335
 20
0.8728137085002607
 30
0.0
 40
0.0125
  0
CIRCLE
  5
7CE
  8
PCB_OUTLINE
 10
0.8224583694396335
 20
0.9228137085002588
 30
0.0
 40
0.0125
  0
CIRCLE
  5
7CF
  8
PCB_OUTLINE
 10
0.8224583694396335
 20
0.9728137085002618
 30
0.0
 40
0.0125
  0
CIRCLE
  5
7D0
  8
PCB_OUTLINE
 10
0.7724583694396368
 20
0.7228137085002621
 30
0.0
 40
0.0125
  0
CIRCLE
  5
7D1
  8
PCB_OUTLINE
 10
0.7724583694396368
 20
0.77281370850026
 30
0.0
 40
0.0125
  0
CIRCLE
  5
7D2
  8
PCB_OUTLINE
 10
0.7724583694396368
 20
0.8228137085002597
 30
0.0
 40
0.0125
  0
CIRCLE
  5
7D3
  8
PCB_OUTLINE
 10
0.7724583694396368
 20
0.8728137085002607
 30
0.0
 40
0.0125
  0
CIRCLE
  5
7D4
  8
PCB_OUTLINE
 10
0.7724583694396368
 20
0.9228137085002588
 30
0.0
 40
0.0125
  0
CIRCLE
  5
7D5
  8
PCB_OUTLINE
 10
0.7724583694396368
 20
0.9728137085002588
 30
0.0
 40
0.0125
  0
CIRCLE
  5
7D6
  8
PCB_OUTLINE
 10
0.7224583694396465
 20
0.6228137085002609
 30
0.0
 40
0.0125
  0
CIRCLE
  5
7D7
  8
PCB_OUTLINE
 10
0.7224583694396465
 20
0.672813708500263
 30
0.0
 40
0.0125
  0
CIRCLE
  5
7D8
  8
PCB_OUTLINE
 10
0.7224583694396465
 20
0.7228137085002589
 30
0.0
 40
0.0125
  0
CIRCLE
  5
7D9
  8
PCB_OUTLINE
 10
0.7224583694396465
 20
0.77281370850026
 30
0.0
 40
0.0125
  0
CIRCLE
  5
7DA
  8
PCB_OUTLINE
 10
0.7224583694396465
 20
0.8228137085002597
 30
0.0
 40
0.0125
  0
CIRCLE
  5
7DB
  8
PCB_OUTLINE
 10
0.7224583694396465
 20
0.9228137085002627
 30
0.0
 40
0.0125
  0
CIRCLE
  5
7DC
  8
PCB_OUTLINE
 10
0.7224583694396465
 20
0.9728137085002618
 30
0.0
 40
0.0125
  0
CIRCLE
  5
7DD
  8
PCB_OUTLINE
 10
0.6724583694396387
 20
0.6228137085002609
 30
0.0
 40
0.0125
  0
CIRCLE
  5
7DE
  8
PCB_OUTLINE
 10
0.6724583694396387
 20
0.6728137085002591
 30
0.0
 40
0.0125
  0
CIRCLE
  5
7DF
  8
PCB_OUTLINE
 10
0.6724583694396387
 20
0.7228137085002621
 30
0.0
 40
0.0125
  0
CIRCLE
  5
7E0
  8
PCB_OUTLINE
 10
0.6724583694396387
 20
0.77281370850026
 30
0.0
 40
0.0125
  0
CIRCLE
  5
7E1
  8
PCB_OUTLINE
 10
0.6724583694396387
 20
0.9728137085002618
 30
0.0
 40
0.0125
  0
CIRCLE
  5
7E2
  8
PCB_OUTLINE
 10
0.6224583694396415
 20
0.6228137085002609
 30
0.0
 40
0.0125
  0
CIRCLE
  5
7E3
  8
PCB_OUTLINE
 10
0.6224583694396415
 20
0.672813708500263
 30
0.0
 40
0.0125
  0
CIRCLE
  5
7E4
  8
PCB_OUTLINE
 10
0.6224583694396415
 20
0.7228137085002589
 30
0.0
 40
0.0125
  0
CIRCLE
  5
7E5
  8
PCB_OUTLINE
 10
0.6224583694396415
 20
0.77281370850026
 30
0.0
 40
0.0125
  0
CIRCLE
  5
7E6
  8
PCB_OUTLINE
 10
0.6224583694396415
 20
0.9228137085002627
 30
0.0
 40
0.0125
  0
CIRCLE
  5
7E7
  8
PCB_OUTLINE
 10
0.6224583694396415
 20
0.9728137085002588
 30
0.0
 40
0.0125
  0
CIRCLE
  5
7E8
  8
PCB_OUTLINE
 10
0.5724583694396337
 20
0.6728137085002591
 30
0.0
 40
0.0125
  0
CIRCLE
  5
7E9
  8
PCB_OUTLINE
 10
0.5724583694396445
 20
0.7228137085002589
 30
0.0
 40
0.0125
  0
CIRCLE
  5
7EA
  8
PCB_OUTLINE
 10
0.5724583694396337
 20
0.77281370850026
 30
0.0
 40
0.0125
  0
CIRCLE
  5
7EB
  8
PCB_OUTLINE
 10
0.5724583694396337
 20
0.822813708500265
 30
0.0
 40
0.0125
  0
CIRCLE
  5
7EC
  8
PCB_OUTLINE
 10
0.5724583694396337
 20
0.8728137085002607
 30
0.0
 40
0.0125
  0
CIRCLE
  5
7ED
  8
PCB_OUTLINE
 10
0.5724583694396337
 20
0.9228137085002588
 30
0.0
 40
0.0125
  0
CIRCLE
  5
7EE
  8
PCB_OUTLINE
 10
0.5724583694396445
 20
0.9728137085002588
 30
0.0
 40
0.0125
  0
CIRCLE
  5
7EF
  8
PCB_OUTLINE
 10
0.5724583694396337
 20
0.6228137085002609
 30
0.0
 40
0.0125
  0
CIRCLE
  5
7F0
  8
PCB_OUTLINE
 10
0.9724583694396358
 20
0.6228137085002609
 30
0.0
 40
0.0125
  0
CIRCLE
  5
7F1
  8
PCB_OUTLINE
 10
0.9724583694396358
 20
0.6728137085002655
 30
0.0
 40
0.0125
  0
CIRCLE
  5
7F2
  8
PCB_OUTLINE
 10
0.9724583694396358
 20
0.7228137085002589
 30
0.0
 40
0.0125
  0
CIRCLE
  5
7F3
  8
PCB_OUTLINE
 10
0.9724583694396358
 20
0.77281370850026
 30
0.0
 40
0.0125
  0
CIRCLE
  5
7F4
  8
PCB_OUTLINE
 10
0.9724583694396358
 20
0.822813708500265
 30
0.0
 40
0.0125
  0
CIRCLE
  5
7F5
  8
PCB_OUTLINE
 10
0.9724583694396358
 20
0.8728137085002607
 30
0.0
 40
0.0125
  0
CIRCLE
  5
7F6
  8
PCB_OUTLINE
 10
0.9724583694396358
 20
0.9228137085002627
 30
0.0
 40
0.0125
  0
CIRCLE
  5
7F7
  8
PCB_OUTLINE
 10
0.9724583694396358
 20
0.9728137085002588
 30
0.0
 40
0.0125
  0
CIRCLE
  5
7F8
  8
PCB_OUTLINE
 10
0.9224583694396384
 20
0.5728137085002603
 30
0.0
 40
0.0125
  0
CIRCLE
  5
7F9
  8
PCB_OUTLINE
 10
0.8724583694396415
 20
0.5728137085002583
 30
0.0
 40
0.0125
  0
CIRCLE
  5
7FA
  8
PCB_OUTLINE
 10
0.8224583694396335
 20
0.5728137085002603
 30
0.0
 40
0.0125
  0
CIRCLE
  5
7FB
  8
PCB_OUTLINE
 10
0.7724583694396368
 20
0.5728137085002603
 30
0.0
 40
0.0125
  0
CIRCLE
  5
7FC
  8
PCB_OUTLINE
 10
0.7224583694396465
 20
0.5728137085002603
 30
0.0
 40
0.0125
  0
CIRCLE
  5
7FD
  8
PCB_OUTLINE
 10
0.6724583694396387
 20
0.5728137085002603
 30
0.0
 40
0.0125
  0
CIRCLE
  5
7FE
  8
PCB_OUTLINE
 10
0.6224583694396415
 20
0.5728137085002603
 30
0.0
 40
0.0125
  0
CIRCLE
  5
7FF
  8
PCB_OUTLINE
 10
0.9724583694396358
 20
0.5728137085002603
 30
0.0
 40
0.0125
  0
CIRCLE
  5
800
  8
PCB_OUTLINE
 10
0.446966991411003
 20
0.5530330085902281
 30
0.0
 40
0.0125
  0
CIRCLE
  5
801
  8
PCB_OUTLINE
 10
0.4823223304703427
 20
0.5176776695309036
 30
0.0
 40
0.0125
  0
CIRCLE
  5
802
  8
PCB_OUTLINE
 10
0.5530330085889972
 20
0.4469669914122449
 30
0.0
 40
0.0125
  0
CIRCLE
  5
803
  8
PCB_OUTLINE
 10
0.517677669529661
 20
0.4823223304715771
 30
0.0
 40
0.0125
  0
CIRCLE
  5
804
  8
PCB_OUTLINE
 10
0.5883883476483192
 20
0.4116116523529179
 30
0.0
 40
0.0125
  0
CIRCLE
  5
805
  8
PCB_OUTLINE
 10
0.517677669529661
 20
0.5530330085902321
 30
0.0
 40
0.0125
  0
CIRCLE
  5
806
  8
PCB_OUTLINE
 10
0.5530330085889972
 20
0.5883883476495561
 30
0.0
 40
0.0125
  0
CIRCLE
  5
807
  8
PCB_OUTLINE
 10
0.5530330085889084
 20
0.5176776695311398
 30
0.0
 40
0.0125
  0
CIRCLE
  5
808
  8
PCB_OUTLINE
 10
0.5883883476480813
 20
0.5530330085906248
 30
0.0
 40
0.0125
  0
CIRCLE
  5
809
  8
PCB_OUTLINE
 10
0.4469669914110244
 20
0.4823223304715771
 30
0.0
 40
0.0125
  0
CIRCLE
  5
80A
  8
PCB_OUTLINE
 10
0.4116116523516812
 20
0.4469669914122524
 30
0.0
 40
0.0125
  0
CIRCLE
  5
80B
  8
PCB_OUTLINE
 10
0.4823223304701047
 20
0.4469669914123262
 30
0.0
 40
0.0125
  0
CIRCLE
  5
80C
  8
PCB_OUTLINE
 10
0.4469669914106122
 20
0.4116116523531609
 30
0.0
 40
0.0125
  0
CIRCLE
  5
80D
  8
PCB_OUTLINE
 10
0.6141776695296706
 20
0.035822330471571
 30
0.0
 40
0.0125
  0
CIRCLE
  5
80E
  8
PCB_OUTLINE
 10
0.6641776695296607
 20
0.035822330471571
 30
0.0
 40
0.0125
  0
CIRCLE
  5
80F
  8
PCB_OUTLINE
 10
0.7141776695296616
 20
0.035822330471567
 30
0.0
 40
0.0125
  0
CIRCLE
  5
810
  8
PCB_OUTLINE
 10
0.7641776695296622
 20
0.035822330471563
 30
0.0
 40
0.0125
  0
CIRCLE
  5
811
  8
PCB_OUTLINE
 10
0.8141776695296734
 20
0.0358223304715599
 30
0.0
 40
0.0125
  0
CIRCLE
  5
812
  8
PCB_OUTLINE
 10
0.8641776695296528
 20
0.035822330471563
 30
0.0
 40
0.0125
  0
CIRCLE
  5
813
  8
PCB_OUTLINE
 10
0.9141776695296606
 20
0.035822330471563
 30
0.0
 40
0.0125
  0
CIRCLE
  5
814
  8
PCB_OUTLINE
 10
0.9641776695296611
 20
0.035822330471563
 30
0.0
 40
0.0125
  0
CIRCLE
  5
815
  8
PCB_OUTLINE
 10
0.6141776695296706
 20
0.0858223304715761
 30
0.0
 40
0.0125
  0
CIRCLE
  5
816
  8
PCB_OUTLINE
 10
0.7641776695296622
 20
0.0858223304715686
 30
0.0
 40
0.0125
  0
CIRCLE
  5
817
  8
PCB_OUTLINE
 10
0.8141776695296734
 20
0.0858223304715651
 30
0.0
 40
0.0125
  0
CIRCLE
  5
818
  8
PCB_OUTLINE
 10
0.8641776695296632
 20
0.0858223304715619
 30
0.0
 40
0.0125
  0
CIRCLE
  5
819
  8
PCB_OUTLINE
 10
0.9141776695296606
 20
0.0858223304715619
 30
0.0
 40
0.0125
  0
CIRCLE
  5
81A
  8
PCB_OUTLINE
 10
0.9641776695296611
 20
0.0858223304715619
 30
0.0
 40
0.0125
  0
CIRCLE
  5
81B
  8
PCB_OUTLINE
 10
0.6141776695296706
 20
0.1358223304715769
 30
0.0
 40
0.0125
  0
CIRCLE
  5
81C
  8
PCB_OUTLINE
 10
0.7641776695296727
 20
0.1358223304715649
 30
0.0
 40
0.0125
  0
CIRCLE
  5
81D
  8
PCB_OUTLINE
 10
0.8141776695296734
 20
0.135822330471568
 30
0.0
 40
0.0125
  0
CIRCLE
  5
81E
  8
PCB_OUTLINE
 10
0.8641776695296632
 20
0.1358223304715649
 30
0.0
 40
0.0125
  0
CIRCLE
  5
81F
  8
PCB_OUTLINE
 10
0.9141776695296606
 20
0.1358223304715609
 30
0.0
 40
0.0125
  0
CIRCLE
  5
820
  8
PCB_OUTLINE
 10
0.9641776695296611
 20
0.1358223304715609
 30
0.0
 40
0.0125
  0
CIRCLE
  5
821
  8
PCB_OUTLINE
 10
0.6141776695296706
 20
0.1858223304715739
 30
0.0
 40
0.0125
  0
CIRCLE
  5
822
  8
PCB_OUTLINE
 10
0.7641776695296727
 20
0.1858223304715673
 30
0.0
 40
0.0125
  0
CIRCLE
  5
823
  8
PCB_OUTLINE
 10
0.8141776695296734
 20
0.1858223304715633
 30
0.0
 40
0.0125
  0
CIRCLE
  5
824
  8
PCB_OUTLINE
 10
0.8641776695296632
 20
0.1858223304715633
 30
0.0
 40
0.0125
  0
CIRCLE
  5
825
  8
PCB_OUTLINE
 10
0.9141776695296606
 20
0.1858223304715633
 30
0.0
 40
0.0125
  0
CIRCLE
  5
826
  8
PCB_OUTLINE
 10
0.9641776695296611
 20
0.1858223304715633
 30
0.0
 40
0.0125
  0
CIRCLE
  5
827
  8
PCB_OUTLINE
 10
0.6141776695296956
 20
0.2358223304715694
 30
0.0
 40
0.0125
  0
CIRCLE
  5
828
  8
PCB_OUTLINE
 10
0.6641776695296607
 20
0.2358223304715729
 30
0.0
 40
0.0125
  0
CIRCLE
  5
829
  8
PCB_OUTLINE
 10
0.714177669529672
 20
0.2358223304715694
 30
0.0
 40
0.0125
  0
CIRCLE
  5
82A
  8
PCB_OUTLINE
 10
0.7641776695296727
 20
0.2358223304715694
 30
0.0
 40
0.0125
  0
CIRCLE
  5
82B
  8
PCB_OUTLINE
 10
0.8141776695296734
 20
0.2358223304715654
 30
0.0
 40
0.0125
  0
CIRCLE
  5
82C
  8
PCB_OUTLINE
 10
0.8641776695296632
 20
0.235822330471564
 30
0.0
 40
0.0125
  0
CIRCLE
  5
82D
  8
PCB_OUTLINE
 10
0.9141776695296606
 20
0.23582233047156
 30
0.0
 40
0.0125
  0
CIRCLE
  5
82E
  8
PCB_OUTLINE
 10
0.9641776695296757
 20
0.235822330471564
 30
0.0
 40
0.0125
  0
CIRCLE
  5
82F
  8
PCB_OUTLINE
 10
0.6141776695296706
 20
0.2858223304715711
 30
0.0
 40
0.0125
  0
CIRCLE
  5
830
  8
PCB_OUTLINE
 10
0.6641776695296713
 20
0.2858223304715711
 30
0.0
 40
0.0125
  0
CIRCLE
  5
831
  8
PCB_OUTLINE
 10
0.714177669529672
 20
0.2858223304715711
 30
0.0
 40
0.0125
  0
CIRCLE
  5
832
  8
PCB_OUTLINE
 10
0.7641776695296727
 20
0.2858223304715679
 30
0.0
 40
0.0125
  0
CIRCLE
  5
833
  8
PCB_OUTLINE
 10
0.9641776695296757
 20
0.2858223304715559
 30
0.0
 40
0.0125
  0
CIRCLE
  5
834
  8
PCB_OUTLINE
 10
0.6141776695296706
 20
0.3358223304715761
 30
0.0
 40
0.0125
  0
CIRCLE
  5
835
  8
PCB_OUTLINE
 10
0.6641776695296713
 20
0.3358223304715721
 30
0.0
 40
0.0125
  0
CIRCLE
  5
836
  8
PCB_OUTLINE
 10
0.714177669529672
 20
0.3358223304715686
 30
0.0
 40
0.0125
  0
CIRCLE
  5
837
  8
PCB_OUTLINE
 10
0.7641776695296727
 20
0.3358223304715686
 30
0.0
 40
0.0125
  0
CIRCLE
  5
838
  8
PCB_OUTLINE
 10
0.9641776695296757
 20
0.3358223304715619
 30
0.0
 40
0.0125
  0
CIRCLE
  5
839
  8
PCB_OUTLINE
 10
0.6641776695296713
 20
0.3858223304715768
 30
0.0
 40
0.0125
  0
CIRCLE
  5
83A
  8
PCB_OUTLINE
 10
0.714177669529672
 20
0.3858223304715679
 30
0.0
 40
0.0125
  0
CIRCLE
  5
83B
  8
PCB_OUTLINE
 10
0.7641776695296727
 20
0.3858223304715648
 30
0.0
 40
0.0125
  0
CIRCLE
  5
83C
  8
PCB_OUTLINE
 10
0.8141776695296805
 20
0.3858223304715608
 30
0.0
 40
0.0125
  0
CIRCLE
  5
83D
  8
PCB_OUTLINE
 10
0.8641776695296632
 20
0.3858223304715648
 30
0.0
 40
0.0125
  0
CIRCLE
  5
83E
  8
PCB_OUTLINE
 10
0.9141776695296711
 20
0.3858223304715648
 30
0.0
 40
0.0125
  0
CIRCLE
  5
83F
  8
PCB_OUTLINE
 10
0.9641776695296757
 20
0.3858223304715648
 30
0.0
 40
0.0125
  0
CIRCLE
  5
840
  8
PCB_OUTLINE
 10
0.6141776695296956
 20
0.3858223304715719
 30
0.0
 40
0.0125
  0
CIRCLE
  5
841
  8
PCB_OUTLINE
 10
0.3773277128566406
 20
0.077683051917627
 30
0.0
 40
0.0125
  0
CIRCLE
  5
842
  8
PCB_OUTLINE
 10
0.2773277128566534
 20
0.0776830519176918
 30
0.0
 40
0.0125
  0
CIRCLE
  5
843
  8
PCB_OUTLINE
 10
0.2273277128566633
 20
0.0776830519177198
 30
0.0
 40
0.0125
  0
CIRCLE
  5
844
  8
PCB_OUTLINE
 10
0.1773277128566555
 20
0.0776830519177518
 30
0.0
 40
0.0125
  0
CIRCLE
  5
845
  8
PCB_OUTLINE
 10
0.1273277128566548
 20
0.0776830519177842
 30
0.0
 40
0.0125
  0
CIRCLE
  5
846
  8
PCB_OUTLINE
 10
0.0773277128566399
 20
0.0776830519178162
 30
0.0
 40
0.0125
  0
CIRCLE
  5
847
  8
PCB_OUTLINE
 10
0.0273277128566534
 20
0.0776830519178482
 30
0.0
 40
0.0125
  0
CIRCLE
  5
848
  8
PCB_OUTLINE
 10
0.2273277128566846
 20
0.127683051917721
 30
0.0
 40
0.0125
  0
CIRCLE
  5
849
  8
PCB_OUTLINE
 10
0.1773277128566839
 20
0.1276830519177529
 30
0.0
 40
0.0125
  0
CIRCLE
  5
84A
  8
PCB_OUTLINE
 10
0.1273277128566832
 20
0.1276830519177836
 30
0.0
 40
0.0125
  0
CIRCLE
  5
84B
  8
PCB_OUTLINE
 10
0.077327712856679
 20
0.1276830519178169
 30
0.0
 40
0.0125
  0
CIRCLE
  5
84C
  8
PCB_OUTLINE
 10
0.0273277128566747
 20
0.127683051917848
 30
0.0
 40
0.0125
  0
CIRCLE
  5
84D
  8
PCB_OUTLINE
 10
0.2773277128567031
 20
0.1776830519176919
 30
0.0
 40
0.0125
  0
CIRCLE
  5
84E
  8
PCB_OUTLINE
 10
0.2273277128567024
 20
0.1776830519177208
 30
0.0
 40
0.0125
  0
CIRCLE
  5
84F
  8
PCB_OUTLINE
 10
0.1773277128567017
 20
0.1776830519177559
 30
0.0
 40
0.0125
  0
CIRCLE
  5
850
  8
PCB_OUTLINE
 10
0.1273277128567116
 20
0.1776830519177865
 30
0.0
 40
0.0125
  0
CIRCLE
  5
851
  8
PCB_OUTLINE
 10
0.0773277128567109
 20
0.1776830519178198
 30
0.0
 40
0.0125
  0
CIRCLE
  5
852
  8
PCB_OUTLINE
 10
0.0273277128567315
 20
0.1776830519178496
 30
0.0
 40
0.0125
  0
CIRCLE
  5
853
  8
PCB_OUTLINE
 10
0.3773277128567507
 20
0.2276830519176273
 30
0.0
 40
0.0125
  0
CIRCLE
  5
854
  8
PCB_OUTLINE
 10
0.32732771285675
 20
0.227683051917658
 30
0.0
 40
0.0125
  0
CIRCLE
  5
855
  8
PCB_OUTLINE
 10
0.2773277128567315
 20
0.22768305191769
 30
0.0
 40
0.0125
  0
CIRCLE
  5
856
  8
PCB_OUTLINE
 10
0.2273277128567308
 20
0.2276830519177219
 30
0.0
 40
0.0125
  0
CIRCLE
  5
857
  8
PCB_OUTLINE
 10
0.1773277128567443
 20
0.2276830519177579
 30
0.0
 40
0.0125
  0
CIRCLE
  5
858
  8
PCB_OUTLINE
 10
0.1273277128567507
 20
0.2276830519177819
 30
0.0
 40
0.0125
  0
CIRCLE
  5
859
  8
PCB_OUTLINE
 10
0.0773277128567465
 20
0.227683051917817
 30
0.0
 40
0.0125
  0
CIRCLE
  5
85A
  8
PCB_OUTLINE
 10
0.0273277128567457
 20
0.2276830519178489
 30
0.0
 40
0.0125
  0
CIRCLE
  5
85B
  8
PCB_OUTLINE
 10
0.3773277128567685
 20
0.2776830519176241
 30
0.0
 40
0.0125
  0
CIRCLE
  5
85C
  8
PCB_OUTLINE
 10
0.3273277128567713
 20
0.277683051917656
 30
0.0
 40
0.0125
  0
CIRCLE
  5
85D
  8
PCB_OUTLINE
 10
0.2773277128567706
 20
0.277683051917688
 30
0.0
 40
0.0125
  0
CIRCLE
  5
85E
  8
PCB_OUTLINE
 10
0.2273277128567699
 20
0.2776830519177195
 30
0.0
 40
0.0125
  0
CIRCLE
  5
85F
  8
PCB_OUTLINE
 10
0.1773277128567585
 20
0.2776830519177519
 30
0.0
 40
0.0125
  0
CIRCLE
  5
860
  8
PCB_OUTLINE
 10
0.0773277128567713
 20
0.2776830519178159
 30
0.0
 40
0.0125
  0
CIRCLE
  5
861
  8
PCB_OUTLINE
 10
0.0273277128567706
 20
0.277683051917847
 30
0.0
 40
0.0125
  0
CIRCLE
  5
862
  8
PCB_OUTLINE
 10
0.3773277128567933
 20
0.327683051917627
 30
0.0
 40
0.0125
  0
CIRCLE
  5
863
  8
PCB_OUTLINE
 10
0.3273277128568033
 20
0.327683051917659
 30
0.0
 40
0.0125
  0
CIRCLE
  5
864
  8
PCB_OUTLINE
 10
0.277327712856799
 20
0.3276830519176918
 30
0.0
 40
0.0125
  0
CIRCLE
  5
865
  8
PCB_OUTLINE
 10
0.2273277128567983
 20
0.3276830519177238
 30
0.0
 40
0.0125
  0
CIRCLE
  5
866
  8
PCB_OUTLINE
 10
0.027327712856799
 20
0.3276830519178446
 30
0.0
 40
0.0125
  0
CIRCLE
  5
867
  8
PCB_OUTLINE
 10
0.3773277128568395
 20
0.377683051917629
 30
0.0
 40
0.0125
  0
CIRCLE
  5
868
  8
PCB_OUTLINE
 10
0.3273277128568353
 20
0.377683051917657
 30
0.0
 40
0.0125
  0
CIRCLE
  5
869
  8
PCB_OUTLINE
 10
0.2773277128568381
 20
0.377683051917689
 30
0.0
 40
0.0125
  0
CIRCLE
  5
86A
  8
PCB_OUTLINE
 10
0.2273277128568409
 20
0.377683051917721
 30
0.0
 40
0.0125
  0
CIRCLE
  5
86B
  8
PCB_OUTLINE
 10
0.0773277128568353
 20
0.3776830519178169
 30
0.0
 40
0.0125
  0
CIRCLE
  5
86C
  8
PCB_OUTLINE
 10
0.0273277128568381
 20
0.377683051917848
 30
0.0
 40
0.0125
  0
CIRCLE
  5
86D
  8
PCB_OUTLINE
 10
0.3273277128568743
 20
0.4276830519176562
 30
0.0
 40
0.0125
  0
CIRCLE
  5
86E
  8
PCB_OUTLINE
 10
0.2773277128568736
 20
0.427683051917687
 30
0.0
 40
0.0125
  0
CIRCLE
  5
86F
  8
PCB_OUTLINE
 10
0.2273277128568552
 20
0.4276830519177194
 30
0.0
 40
0.0125
  0
CIRCLE
  5
870
  8
PCB_OUTLINE
 10
0.1773277128568615
 20
0.4276830519177512
 30
0.0
 40
0.0125
  0
CIRCLE
  5
871
  8
PCB_OUTLINE
 10
0.127327712856875
 20
0.4276830519177841
 30
0.0
 40
0.0125
  0
CIRCLE
  5
872
  8
PCB_OUTLINE
 10
0.0773277128568744
 20
0.4276830519178163
 30
0.0
 40
0.0125
  0
CIRCLE
  5
873
  8
PCB_OUTLINE
 10
0.0273277128568736
 20
0.4276830519178481
 30
0.0
 40
0.0125
  0
CIRCLE
  5
874
  8
PCB_OUTLINE
 10
0.377327712856875
 20
0.427683051917624
 30
0.0
 40
0.0125
  0
CIRCLE
  5
875
  8
PCB_OUTLINE
 10
0.4273277128566451
 20
0.0776830519175919
 30
0.0
 40
0.0125
  0
CIRCLE
  5
876
  8
PCB_OUTLINE
 10
0.427327712856684
 20
0.12768305191759
 30
0.0
 40
0.0125
  0
CIRCLE
  5
877
  8
PCB_OUTLINE
 10
0.4273277128567126
 20
0.1776830519175929
 30
0.0
 40
0.0125
  0
CIRCLE
  5
878
  8
PCB_OUTLINE
 10
0.4273277128567444
 20
0.2276830519175954
 30
0.0
 40
0.0125
  0
CIRCLE
  5
879
  8
PCB_OUTLINE
 10
0.4273277128567834
 20
0.2776830519175921
 30
0.0
 40
0.0125
  0
CIRCLE
  5
87A
  8
PCB_OUTLINE
 10
0.4273277128568119
 20
0.3276830519175946
 30
0.0
 40
0.0125
  0
CIRCLE
  5
87B
  8
PCB_OUTLINE
 10
0.4273277128568367
 20
0.3776830519175971
 30
0.0
 40
0.0125
  0
TEXT
  5
87C
  8
PCB_TOP
 10
-0.0160912622421985
 20
0.0099229816389919
 30
0.0
 40
0.04
  1
TF-1217-1  3
 72
     1
 11
0.2181944520435159
 21
0.0299229816389919
 31
0.0
 73
     2
  0
CIRCLE
  5
883
  8
PCB_OUTLINE
 10
0.8574999999999802
 20
0.6520223304722304
 30
0.0
 40
0.0425000000000004
  0
CIRCLE
  5
884
  8
PCB_OUTLINE
 10
0.7724583694396439
 20
0.6228137085002609
 30
0.0
 40
0.0125
  0
CIRCLE
  5
885
  8
PCB_OUTLINE
 10
0.7724583694396368
 20
0.6728137085002591
 30
0.0
 40
0.0125
  0
CIRCLE
  5
886
  8
PCB_OUTLINE
 10
0.347377669529763
 20
0.1424999999946799
 30
0.0
 40
0.0425000000000004
  0
CIRCLE
  5
887
  8
PCB_OUTLINE
 10
0.1424999999910028
 20
0.6873776695335148
 30
0.0
 40
0.0425000000000004
  0
CIRCLE
  5
888
  8
PCB_OUTLINE
 10
0.1424999999940617
 20
0.347377669531574
 30
0.0
 40
0.0425000000000004
  0
CIRCLE
  5
88D
  8
PCB_OUTLINE
 10
0.87245836943962
 20
0.7228137085002621
 30
0.0
 40
0.0125
  0
CIRCLE
  5
88E
  8
PCB_OUTLINE
 10
0.7224583694396465
 20
0.8728137085002607
 30
0.0
 40
0.0125
  0
CIRCLE
  5
88F
  8
PCB_OUTLINE
 10
0.1273277128567685
 20
0.2776830519177759
 30
0.0
 40
0.0125
  0
CIRCLE
  5
890
  8
PCB_OUTLINE
 10
0.2773277128566747
 20
0.127683051917693
 30
0.0
 40
0.0125
  0
INSERT
  5
BCA
  8
TEXT
  2
*U15
 10
0.75
 20
0.0
 30
0.0
  0
INSERT
  5
BD4
  8
TEXT
  2
*U18
 10
0.75
 20
0.0
 30
0.0
  0
INSERT
  5
D97
  8
TEXT
  2
*U14
 10
3.9801605725023181
 20
0.0
 30
0.0
 41
-1.0
1001
ACAD
1000
DSTYLE
1002
{
1070
   279
1070
     0
1070
   284
1070
     0
1070
   285
1070
     0
1070
   286
1070
     0
1002
}
  0
INSERT
  5
D99
  8
TEXT
  2
*U16
 10
3.9801605725023181
 20
0.0
 30
0.0
 41
-1.0
  0
INSERT
  5
D9A
  8
TEXT
  2
*U17
 10
3.9801605725023181
 20
0.0
 30
0.0
 41
-1.0
  0
INSERT
  5
D9C
  8
TEXT
  2
*U19
 10
3.9801605725023181
 20
0.0
 30
0.0
 41
-1.0
  0
INSERT
  5
D9D
  8
PCB_BOT
  6
CONTINUOUS
  2
*U7
 10
3.9801605725023181
 20
0.0
 30
0.0
 41
-1.0
1001
ACAD
1002
{
1000
R14_HATCH_DATA
1000
2A5
1011
2.9801605725023181
1021
0.0
1031
0.0
1021
0.0
1031
0.0
1011
3.9801605725023181
1021
0.0
1031
0.0
1021
1.0
1031
0.0
1011
3.9801605725023181
1021
0.0
1031
0.0
1021
0.0
1031
1.0
1040
0.0
1010
0.0
1020
0.0
1030
1.0
1000
SOLID
1070
     1
1070
     0
1071
        3
1071
        7
1070
     1
1070
     1
1071
        3
1040
-0.6023624558613429
1040
0.5176776434594279
1040
0.0
1040
-0.6023624558613429
1040
0.4454072178872003
1040
0.1989123673796551
1040
-0.5512595478599887
1040
0.4665747354580736
1040
0.0
1071
        0
1071
        7
1070
     1
1070
     1
1071
        3
1040
-0.530092030289115
1040
0.5176776434594279
1040
0.0
1040
-0.6023624558613429
1040
0.5176776434594244
1040
0.0
1040
-0.5512595478599887
1040
0.4665747354580703
1040
0.1989123673796482
1071
        0
1071
        7
1070
     1
1070
     1
1071
        3
1040
-0.5512595478599887
1040
0.5687805514607858
1040
0.0
1040
-0.6023624558613429
1040
0.5176776434594279
1040
0.0
1040
-0.530092030289115
1040
0.5176776434594279
1040
0.1989123673796509
1071
        0
1070
     0
1070
     1
1040
0.0001896584045076
1071
        3
1040
-0.5789129668912132
1040
0.4768838599947385
1040
0.0
1040
-0.5534784241141219
1040
0.4928151942169122
1040
0.0
1040
-0.5553764953620866
1040
0.5212639761471634
1040
0.0
1002
}
  0
LINE
  5
D9E
  8
PCB_BOT
 10
4.6549042401225993
 20
0.4452964317004975
 30
0.0
 11
4.5101418166047242
 21
0.5900588552183657
 31
0.0
  0
LINE
  5
D9F
  8
PCB_BOT
 10
4.6549042401225993
 20
0.5900588552183657
 30
0.0
 11
4.5101418166047242
 21
0.4452964317004904
 31
0.0
  0
INSERT
  5
DA0
  8
PCB_OUTLINE
  6
CONTINUOUS
  2
*U8
 10
3.9801605725023181
 20
0.0
 30
0.0
 41
-1.0
1001
ACAD
1002
{
1000
R14_HATCH_DATA
1000
2A8
1011
2.9801605725023181
1021
0.0
1031
0.0
1021
0.0
1031
0.0
1011
3.9801605725023181
1021
0.0
1031
0.0
1021
1.0
1031
0.0
1011
3.9801605725023181
1021
0.0
1031
0.0
1021
0.0
1031
1.0
1040
0.0
1010
0.0
1020
0.0
1030
1.0
1000
SOLID
1070
     1
1070
     0
1071
        2
1071
        7
1070
     1
1070
     1
1071
        3
1040
-0.6023624558613359
1040
0.5176776434594386
1040
0.0
1040
-0.6534653638627113
1040
0.4665747354580703
1040
0.1989123673796946
1040
-0.6023624558613429
1040
0.4454072178872003
1040
0.0
1071
        0
1071
        7
1070
     1
1070
     1
1071
        3
1040
-0.60236245586135
1040
0.5176776434594279
1040
0.0
1040
-0.6746328814335705
1040
0.5176776434594279
1040
0.1989123673796509
1040
-0.6534653638627113
1040
0.4665747354580703
1040
0.0
1071
        0
1070
     0
1070
     1
1040
0.0001896584045076
1071
        2
1040
-0.614976805670498
1040
0.4655043744580171
1040
0.0
1040
-0.6502815129642025
1040
0.4920565527693368
1040
0.0
1002
}
  0
LINE
  5
DA1
  8
PCB_OUTLINE
 10
4.6549042401225993
 20
0.4452964317005046
 30
0.0
 11
4.51014181660471
 21
0.5900588552183727
 31
0.0
  0
LINE
  5
DA2
  8
PCB_OUTLINE
 10
4.6549042401225851
 20
0.5900588552183727
 30
0.0
 11
4.51014181660471
 21
0.4452964317004975
 31
0.0
  0
LINE
  5
DA3
  8
PCB_TOP
 10
4.6549042401225851
 20
0.5900588552183727
 30
0.0
 11
4.51014181660471
 21
0.4452964317004975
 31
0.0
  0
LINE
  5
DA4
  8
PCB_TOP
 10
4.6549042401225993
 20
0.4452964317005046
 30
0.0
 11
4.51014181660471
 21
0.5900588552183727
 31
0.0
  0
CIRCLE
  5
DA5
  8
PCB_BOT
 10
4.5825230283636467
 20
0.5176776434594208
 30
0.0
 40
0.0722704255722269
  0
CIRCLE
  5
DA6
  8
PCB_OUTLINE
 10
4.5825230283636467
 20
0.5176776434594208
 30
0.0
 40
0.0722704255722269
  0
CIRCLE
  5
DA7
  8
PCB_TOP
 10
4.5825230283636467
 20
0.5176776434594208
 30
0.0
 40
0.0722704255722269
  0
LINE
  5
DA8
  8
PCB_BOT
 10
4.5825230283636591
 20
0.6200401347899165
 30
0.0
 11
4.5825230283636591
 21
0.4153151521289395
 31
0.0
  0
LINE
  5
DA9
  8
PCB_OUTLINE
 10
4.5825230283636467
 20
0.6200401347899236
 30
0.0
 11
4.5825230283636467
 21
0.4153151521289466
 31
0.0
  0
LINE
  5
DAA
  8
PCB_TOP
 10
4.5825230283636467
 20
0.6200401347899236
 30
0.0
 11
4.5825230283636467
 21
0.4153151521289466
 31
0.0
  0
LINE
  5
DAB
  8
PCB_BOT
 10
4.4801605370331661
 20
0.5176776434594279
 30
0.0
 11
4.6848855196941432
 21
0.5176776434594279
 31
0.0
  0
INSERT
  5
DAC
  8
PCB_TOP
  6
CONTINUOUS
  2
*U9
 10
3.9801605725023181
 20
0.0
 30
0.0
 41
-1.0
1001
ACAD
1002
{
1000
R14_HATCH_DATA
1000
2B4
1011
2.9801605725023181
1021
0.0
1031
0.0
1021
0.0
1031
0.0
1011
3.9801605725023181
1021
0.0
1031
0.0
1021
1.0
1031
0.0
1011
3.9801605725023181
1021
0.0
1031
0.0
1021
0.0
1031
1.0
1040
0.0
1010
0.0
1020
0.0
1030
1.0
1000
SOLID
1070
     1
1070
     0
1071
        3
1071
        7
1070
     1
1070
     1
1071
        3
1040
-0.6023624558613429
1040
0.5899480690316558
1040
0.1989123673796765
1040
-0.6534653638627042
1040
0.5687805514607894
1040
0.0
1040
-0.6023624558613429
1040
0.5176776434594279
1040
0.0
1071
        0
1071
        7
1070
     1
1070
     1
1071
        3
1040
-0.6534653638627042
1040
0.5687805514607894
1040
0.1989123673796716
1040
-0.6746328814335705
1040
0.5176776434594279
1040
0.0
1040
-0.6023624558613429
1040
0.5176776434594279
1040
0.0
1071
        0
1071
        7
1070
     1
1070
     1
1071
        3
1040
-0.5512595478599887
1040
0.5687805514607858
1040
0.1989123673796498
1040
-0.6023624558613429
1040
0.5899480690316558
1040
0.0
1040
-0.6023624558613429
1040
0.517677643459435
1040
0.0
1071
        0
1070
     0
1070
     1
1040
0.0001896584045076
1071
        3
1040
-0.6183933824236371
1040
0.5664026656587238
1040
0.0
1040
-0.6415502882099741
1040
0.5470575130109081
1040
0.0
1040
-0.5861256861402673
1040
0.5519886143317008
1040
0.0
1002
}
  0
LINE
  5
DAD
  8
PCB_OUTLINE
 10
4.4801605370331661
 20
0.517677643459435
 30
0.0
 11
4.684885519694129
 21
0.517677643459435
 31
0.0
  0
LINE
  5
DAE
  8
PCB_TOP
 10
4.4801605370331661
 20
0.517677643459435
 30
0.0
 11
4.684885519694129
 21
0.517677643459435
 31
0.0
  0
INSERT
  5
DAF
  8
PCB_BOT
  6
CONTINUOUS
  2
*U10
 10
3.9801605725023181
 20
0.0
 30
0.0
 41
-1.0
1001
ACAD
1002
{
1000
R14_HATCH_DATA
1000
2B8
1011
2.9801605725023181
1021
0.0
1031
0.0
1021
0.0
1031
0.0
1011
3.9801605725023181
1021
0.0
1031
0.0
1021
1.0
1031
0.0
1011
3.9801605725023181
1021
0.0
1031
0.0
1021
0.0
1031
1.0
1040
0.0
1010
0.0
1020
0.0
1030
1.0
1000
SOLID
1070
     1
1070
     0
1071
        3
1071
        7
1070
     1
1070
     1
1071
        3
1040
1.637717794920664
1040
0.5176776434594279
1040
0.0
1040
1.637717794920664
1040
0.4454072178872003
1040
0.1989123673796551
1040
1.688820702922019
1040
0.4665747354580736
1040
0.0
1071
        0
1071
        7
1070
     1
1070
     1
1071
        3
1040
1.709988220492892
1040
0.5176776434594279
1040
0.0
1040
1.637717794920664
1040
0.5176776434594244
1040
0.0
1040
1.688820702922019
1040
0.4665747354580703
1040
0.1989123673796482
1071
        0
1071
        7
1070
     1
1070
     1
1071
        3
1040
1.688820702922019
1040
0.5687805514607858
1040
0.0
1040
1.637717794920664
1040
0.5176776434594279
1040
0.0
1040
1.709988220492892
1040
0.5176776434594279
1040
0.1989123673796509
1071
        0
1070
     0
1070
     1
1040
0.0001896584045076
1071
        3
1040
1.661167283890792
1040
0.4768838599947385
1040
0.0
1040
1.6866018266678831
1040
0.4928151942169122
1040
0.0
1040
1.684703755419918
1040
0.5212639761471634
1040
0.0
1002
}
  0
LINE
  5
DB0
  8
PCB_BOT
 10
2.4148239893405901
 20
0.4452964317004975
 30
0.0
 11
2.2700615658227181
 21
0.5900588552183657
 31
0.0
  0
LINE
  5
DB1
  8
PCB_BOT
 10
2.4148239893405901
 20
0.5900588552183657
 30
0.0
 11
2.2700615658227181
 21
0.4452964317004904
 31
0.0
  0
INSERT
  5
DB2
  8
PCB_OUTLINE
  6
CONTINUOUS
  2
*U11
 10
3.9801605725023181
 20
0.0
 30
0.0
 41
-1.0
1001
ACAD
1002
{
1000
R14_HATCH_DATA
1000
2BB
1011
2.9801605725023181
1021
0.0
1031
0.0
1021
0.0
1031
0.0
1011
3.9801605725023181
1021
0.0
1031
0.0
1021
1.0
1031
0.0
1011
3.9801605725023181
1021
0.0
1031
0.0
1021
0.0
1031
1.0
1040
0.0
1010
0.0
1020
0.0
1030
1.0
1000
SOLID
1070
     1
1070
     0
1071
        2
1071
        7
1070
     1
1070
     1
1071
        3
1040
1.637717794920668
1040
0.5176776434594386
1040
0.0
1040
1.5866148869192931
1040
0.4665747354580703
1040
0.1989123673796946
1040
1.637717794920664
1040
0.4454072178872003
1040
0.0
1071
        0
1071
        7
1070
     1
1070
     1
1071
        3
1040
1.6377177949206561
1040
0.5176776434594279
1040
0.0
1040
1.5654473693484361
1040
0.5176776434594279
1040
0.1989123673796509
1040
1.5866148869192931
1040
0.4665747354580703
1040
0.0
1071
        0
1070
     0
1070
     1
1040
0.0001896584045076
1071
        2
1040
1.6251034451115081
1040
0.4655043744580171
1040
0.0
1040
1.589798737817804
1040
0.4920565527693368
1040
0.0
1002
}
  0
LINE
  5
DB3
  8
PCB_OUTLINE
 10
2.4148239893405901
 20
0.4452964317005046
 30
0.0
 11
2.270061565822703
 21
0.5900588552183727
 31
0.0
  0
LINE
  5
DB4
  8
PCB_OUTLINE
 10
2.4148239893405781
 20
0.5900588552183727
 30
0.0
 11
2.270061565822703
 21
0.4452964317004975
 31
0.0
  0
LINE
  5
DB5
  8
PCB_TOP
 10
2.4148239893405781
 20
0.5900588552183727
 30
0.0
 11
2.270061565822703
 21
0.4452964317004975
 31
0.0
  0
LINE
  5
DB6
  8
PCB_TOP
 10
2.4148239893405901
 20
0.4452964317005046
 30
0.0
 11
2.270061565822703
 21
0.5900588552183727
 31
0.0
  0
CIRCLE
  5
DB7
  8
PCB_BOT
 10
2.3424427775816401
 20
0.5176776434594208
 30
0.0
 40
0.0722704255722269
  0
CIRCLE
  5
DB8
  8
PCB_OUTLINE
 10
2.3424427775816401
 20
0.5176776434594208
 30
0.0
 40
0.0722704255722269
  0
CIRCLE
  5
DB9
  8
PCB_TOP
 10
2.3424427775816401
 20
0.5176776434594208
 30
0.0
 40
0.0722704255722269
  0
LINE
  5
DBA
  8
PCB_BOT
 10
2.3424427775816552
 20
0.6200401347899165
 30
0.0
 11
2.3424427775816552
 21
0.4153151521289395
 31
0.0
  0
LINE
  5
DBB
  8
PCB_OUTLINE
 10
2.3424427775816401
 20
0.6200401347899236
 30
0.0
 11
2.3424427775816401
 21
0.4153151521289466
 31
0.0
  0
LINE
  5
DBC
  8
PCB_TOP
 10
2.3424427775816401
 20
0.6200401347899236
 30
0.0
 11
2.3424427775816401
 21
0.4153151521289466
 31
0.0
  0
LINE
  5
DBD
  8
PCB_BOT
 10
2.2400802862511591
 20
0.5176776434594279
 30
0.0
 11
2.444805268912134
 21
0.5176776434594279
 31
0.0
  0
INSERT
  5
DBE
  8
PCB_TOP
  6
CONTINUOUS
  2
*U12
 10
3.9801605725023181
 20
0.0
 30
0.0
 41
-1.0
1001
ACAD
1002
{
1000
R14_HATCH_DATA
1000
2C9
1011
2.9801605725023181
1021
0.0
1031
0.0
1021
0.0
1031
0.0
1011
3.9801605725023181
1021
0.0
1031
0.0
1021
1.0
1031
0.0
1011
3.9801605725023181
1021
0.0
1031
0.0
1021
0.0
1031
1.0
1040
0.0
1010
0.0
1020
0.0
1030
1.0
1000
SOLID
1070
     1
1070
     0
1071
        3
1071
        7
1070
     1
1070
     1
1071
        3
1040
1.637717794920664
1040
0.5899480690316558
1040
0.1989123673796765
1040
1.5866148869193031
1040
0.5687805514607894
1040
0.0
1040
1.637717794920664
1040
0.5176776434594279
1040
0.0
1071
        0
1071
        7
1070
     1
1070
     1
1071
        3
1040
1.5866148869193031
1040
0.5687805514607894
1040
0.1989123673796716
1040
1.5654473693484361
1040
0.5176776434594279
1040
0.0
1040
1.637717794920664
1040
0.5176776434594279
1040
0.0
1071
        0
1071
        7
1070
     1
1070
     1
1071
        3
1040
1.688820702922019
1040
0.5687805514607858
1040
0.1989123673796498
1040
1.637717794920664
1040
0.5899480690316558
1040
0.0
1040
1.637717794920664
1040
0.517677643459435
1040
0.0
1071
        0
1070
     0
1070
     1
1040
0.0001896584045076
1071
        3
1040
1.6216868683583701
1040
0.5664026656587238
1040
0.0
1040
1.5985299625720331
1040
0.5470575130109081
1040
0.0
1040
1.6539545646417391
1040
0.5519886143317008
1040
0.0
1002
}
  0
LINE
  5
DBF
  8
PCB_OUTLINE
 10
2.2400802862511591
 20
0.517677643459435
 30
0.0
 11
2.444805268912122
 21
0.517677643459435
 31
0.0
  0
LINE
  5
DC0
  8
PCB_TOP
 10
2.2400802862511591
 20
0.517677643459435
 30
0.0
 11
2.444805268912122
 21
0.517677643459435
 31
0.0
  0
CIRCLE
  5
DC1
  8
PCB_OUTLINE
 10
3.6681382420309472
 20
0.8575000000012661
 30
0.0
 40
0.0425000000000004
  0
CIRCLE
  5
DC2
  8
PCB_OUTLINE
 10
3.3281382420329031
 20
0.8575000000080519
 30
0.0
 40
0.0425000000000004
  0
CIRCLE
  5
DC3
  8
PCB_OUTLINE
 10
3.122660572496164
 20
0.312022330472228
 30
0.0
 40
0.0425000000000004
  0
CIRCLE
  5
DC4
  8
PCB_OUTLINE
 10
3.2927829029725761
 20
0.1425000000014673
 30
0.0
 40
0.0425000000000004
  0
POLYLINE
  5
DC5
  8
PCB_OUTLINE
 66
     1
 10
0.0
 20
0.0
 30
0.0
 70
     1
  0
VERTEX
  5
12B5
  8
PCB_OUTLINE
 10
3.9801605725023181
 20
0.0000000000012718
 30
0.0
  0
VERTEX
  5
12B6
  8
PCB_OUTLINE
 10
2.9801605725023341
 20
0.0000000000012678
 30
0.0
  0
VERTEX
  5
12B7
  8
PCB_OUTLINE
 10
2.9801605725023341
 20
1.0000000000012681
 30
0.0
  0
VERTEX
  5
12B8
  8
PCB_OUTLINE
 10
3.9801605725023341
 20
1.0000000000012681
 30
0.0
  0
SEQEND
  5
12B9
  8
PCB_OUTLINE
  0
CIRCLE
  5
E09
  8
PCB_OUTLINE
 10
3.9443382420319919
 20
0.6141776695309363
 30
0.0
 40
0.0125
  0
CIRCLE
  5
E0A
  8
PCB_OUTLINE
 10
3.9443382420319919
 20
0.6641776695309412
 30
0.0
 40
0.0125
  0
CIRCLE
  5
E0B
  8
PCB_OUTLINE
 10
3.9443382420319919
 20
0.7141776695309408
 30
0.0
 40
0.0125
  0
CIRCLE
  5
E0C
  8
PCB_OUTLINE
 10
3.9443382420319919
 20
0.7641776695309394
 30
0.0
 40
0.0125
  0
CIRCLE
  5
E0D
  8
PCB_OUTLINE
 10
3.9443382420319919
 20
0.81417766953094
 30
0.0
 40
0.0125
  0
CIRCLE
  5
E0E
  8
PCB_OUTLINE
 10
3.9443382420319919
 20
0.8641776695309396
 30
0.0
 40
0.0125
  0
CIRCLE
  5
E0F
  8
PCB_OUTLINE
 10
3.9443382420319919
 20
0.9141776695309367
 30
0.0
 40
0.0125
  0
CIRCLE
  5
E10
  8
PCB_OUTLINE
 10
3.9443382420319919
 20
0.9641776695309406
 30
0.0
 40
0.0125
  0
CIRCLE
  5
E11
  8
PCB_OUTLINE
 10
3.8943382420320001
 20
0.6141776695309398
 30
0.0
 40
0.0125
  0
CIRCLE
  5
E12
  8
PCB_OUTLINE
 10
3.8943382420320001
 20
0.7641776695309428
 30
0.0
 40
0.0125
  0
CIRCLE
  5
E13
  8
PCB_OUTLINE
 10
3.8943382420320001
 20
0.81417766953094
 30
0.0
 40
0.0125
  0
CIRCLE
  5
E14
  8
PCB_OUTLINE
 10
3.8943382420320001
 20
0.8641776695309356
 30
0.0
 40
0.0125
  0
CIRCLE
  5
E15
  8
PCB_OUTLINE
 10
3.8943382420320001
 20
0.914177669530941
 30
0.0
 40
0.0125
  0
CIRCLE
  5
E16
  8
PCB_OUTLINE
 10
3.8943382420320001
 20
0.9641776695309388
 30
0.0
 40
0.0125
  0
CIRCLE
  5
E17
  8
PCB_OUTLINE
 10
3.8443382420319989
 20
0.6141776695309398
 30
0.0
 40
0.0125
  0
CIRCLE
  5
E18
  8
PCB_OUTLINE
 10
3.8443382420319989
 20
0.7641776695309394
 30
0.0
 40
0.0125
  0
CIRCLE
  5
E19
  8
PCB_OUTLINE
 10
3.8443382420319989
 20
0.81417766953094
 30
0.0
 40
0.0125
  0
CIRCLE
  5
E1A
  8
PCB_OUTLINE
 10
3.8443382420319989
 20
0.8641776695309396
 30
0.0
 40
0.0125
  0
CIRCLE
  5
E1B
  8
PCB_OUTLINE
 10
3.8443382420319989
 20
0.9141776695309367
 30
0.0
 40
0.0125
  0
CIRCLE
  5
E1C
  8
PCB_OUTLINE
 10
3.8443382420319989
 20
0.9641776695309406
 30
0.0
 40
0.0125
  0
CIRCLE
  5
E1D
  8
PCB_OUTLINE
 10
3.7943382420320062
 20
0.6141776695309398
 30
0.0
 40
0.0125
  0
CIRCLE
  5
E1E
  8
PCB_OUTLINE
 10
3.7943382420320062
 20
0.7641776695309348
 30
0.0
 40
0.0125
  0
CIRCLE
  5
E1F
  8
PCB_OUTLINE
 10
3.7943382420320062
 20
0.81417766953094
 30
0.0
 40
0.0125
  0
CIRCLE
  5
E20
  8
PCB_OUTLINE
 10
3.7943382420320062
 20
0.8641776695309396
 30
0.0
 40
0.0125
  0
CIRCLE
  5
E21
  8
PCB_OUTLINE
 10
3.7943382420320062
 20
0.914177669530941
 30
0.0
 40
0.0125
  0
CIRCLE
  5
E22
  8
PCB_OUTLINE
 10
3.7943382420320062
 20
0.9641776695309388
 30
0.0
 40
0.0125
  0
CIRCLE
  5
E23
  8
PCB_OUTLINE
 10
3.7443382420320042
 20
0.6141776695309398
 30
0.0
 40
0.0125
  0
CIRCLE
  5
E24
  8
PCB_OUTLINE
 10
3.7443382420320042
 20
0.6641776695309412
 30
0.0
 40
0.0125
  0
CIRCLE
  5
E25
  8
PCB_OUTLINE
 10
3.7443382420320042
 20
0.7141776695309388
 30
0.0
 40
0.0125
  0
CIRCLE
  5
E26
  8
PCB_OUTLINE
 10
3.7443382420320042
 20
0.7641776695309394
 30
0.0
 40
0.0125
  0
CIRCLE
  5
E27
  8
PCB_OUTLINE
 10
3.7443382420320042
 20
0.8141776695309358
 30
0.0
 40
0.0125
  0
CIRCLE
  5
E28
  8
PCB_OUTLINE
 10
3.7443382420320042
 20
0.8641776695309396
 30
0.0
 40
0.0125
  0
CIRCLE
  5
E29
  8
PCB_OUTLINE
 10
3.7443382420320042
 20
0.914177669530941
 30
0.0
 40
0.0125
  0
CIRCLE
  5
E2A
  8
PCB_OUTLINE
 10
3.7443382420320042
 20
0.9641776695309388
 30
0.0
 40
0.0125
  0
CIRCLE
  5
E2B
  8
PCB_OUTLINE
 10
3.6943382420319919
 20
0.6141776695309363
 30
0.0
 40
0.0125
  0
CIRCLE
  5
E2C
  8
PCB_OUTLINE
 10
3.694338242032003
 20
0.6641776695309412
 30
0.0
 40
0.0125
  0
CIRCLE
  5
E2D
  8
PCB_OUTLINE
 10
3.694338242032003
 20
0.7141776695309408
 30
0.0
 40
0.0125
  0
CIRCLE
  5
E2E
  8
PCB_OUTLINE
 10
3.694338242032003
 20
0.7641776695309394
 30
0.0
 40
0.0125
  0
CIRCLE
  5
E2F
  8
PCB_OUTLINE
 10
3.6943382420319919
 20
0.9641776695309388
 30
0.0
 40
0.0125
  0
CIRCLE
  5
E30
  8
PCB_OUTLINE
 10
3.6443382420320041
 20
0.6141776695309363
 30
0.0
 40
0.0125
  0
CIRCLE
  5
E31
  8
PCB_OUTLINE
 10
3.6443382420320041
 20
0.6641776695309412
 30
0.0
 40
0.0125
  0
CIRCLE
  5
E32
  8
PCB_OUTLINE
 10
3.6443382420320041
 20
0.7141776695309388
 30
0.0
 40
0.0125
  0
CIRCLE
  5
E33
  8
PCB_OUTLINE
 10
3.6443382420320041
 20
0.7641776695309428
 30
0.0
 40
0.0125
  0
CIRCLE
  5
E34
  8
PCB_OUTLINE
 10
3.6443382420320041
 20
0.9641776695309388
 30
0.0
 40
0.0125
  0
CIRCLE
  5
E35
  8
PCB_OUTLINE
 10
3.5685489201506382
 20
0.5883883476495561
 30
0.0
 40
0.0125
  0
CIRCLE
  5
E36
  8
PCB_OUTLINE
 10
3.594338242031998
 20
0.6641776695309372
 30
0.0
 40
0.0125
  0
CIRCLE
  5
E37
  8
PCB_OUTLINE
 10
3.594338242031998
 20
0.7141776695309388
 30
0.0
 40
0.0125
  0
CIRCLE
  5
E38
  8
PCB_OUTLINE
 10
3.594338242031998
 20
0.7641776695309394
 30
0.0
 40
0.0125
  0
CIRCLE
  5
E39
  8
PCB_OUTLINE
 10
3.594338242031998
 20
0.8141776695309427
 30
0.0
 40
0.0125
  0
CIRCLE
  5
E3A
  8
PCB_OUTLINE
 10
3.594338242031998
 20
0.8641776695309396
 30
0.0
 40
0.0125
  0
CIRCLE
  5
E3B
  8
PCB_OUTLINE
 10
3.594338242031998
 20
0.9141776695309367
 30
0.0
 40
0.0125
  0
CIRCLE
  5
E3C
  8
PCB_OUTLINE
 10
3.594338242031998
 20
0.9641776695309388
 30
0.0
 40
0.0125
  0
CIRCLE
  5
E3D
  8
PCB_OUTLINE
 10
3.594338242031998
 20
0.6141776695309398
 30
0.0
 40
0.0125
  0
CIRCLE
  5
E3E
  8
PCB_OUTLINE
 10
3.0577022030626781
 20
0.6228137085002568
 30
0.0
 40
0.0125
  0
CIRCLE
  5
E3F
  8
PCB_OUTLINE
 10
3.0577022030626781
 20
0.7228137085002621
 30
0.0
 40
0.0125
  0
CIRCLE
  5
E40
  8
PCB_OUTLINE
 10
3.0577022030626781
 20
0.772813708500264
 30
0.0
 40
0.0125
  0
CIRCLE
  5
E41
  8
PCB_OUTLINE
 10
3.0577022030626781
 20
0.8228137085002597
 30
0.0
 40
0.0125
  0
CIRCLE
  5
E42
  8
PCB_OUTLINE
 10
3.0577022030626781
 20
0.8728137085002607
 30
0.0
 40
0.0125
  0
CIRCLE
  5
E43
  8
PCB_OUTLINE
 10
3.0577022030626781
 20
0.9228137085002588
 30
0.0
 40
0.0125
  0
CIRCLE
  5
E44
  8
PCB_OUTLINE
 10
3.0577022030626781
 20
0.9728137085002618
 30
0.0
 40
0.0125
  0
CIRCLE
  5
E45
  8
PCB_OUTLINE
 10
3.1077022030626762
 20
0.772813708500264
 30
0.0
 40
0.0125
  0
CIRCLE
  5
E46
  8
PCB_OUTLINE
 10
3.1077022030626762
 20
0.8228137085002597
 30
0.0
 40
0.0125
  0
CIRCLE
  5
E47
  8
PCB_OUTLINE
 10
3.1077022030626762
 20
0.8728137085002568
 30
0.0
 40
0.0125
  0
CIRCLE
  5
E48
  8
PCB_OUTLINE
 10
3.1077022030626762
 20
0.9228137085002627
 30
0.0
 40
0.0125
  0
CIRCLE
  5
E49
  8
PCB_OUTLINE
 10
3.1077022030626762
 20
0.9728137085002588
 30
0.0
 40
0.0125
  0
CIRCLE
  5
E4A
  8
PCB_OUTLINE
 10
3.1577022030626831
 20
0.7228137085002621
 30
0.0
 40
0.0125
  0
CIRCLE
  5
E4B
  8
PCB_OUTLINE
 10
3.1577022030626831
 20
0.77281370850026
 30
0.0
 40
0.0125
  0
CIRCLE
  5
E4C
  8
PCB_OUTLINE
 10
3.157702203062672
 20
0.8228137085002597
 30
0.0
 40
0.0125
  0
CIRCLE
  5
E4D
  8
PCB_OUTLINE
 10
3.1577022030626831
 20
0.8728137085002607
 30
0.0
 40
0.0125
  0
CIRCLE
  5
E4E
  8
PCB_OUTLINE
 10
3.1577022030626831
 20
0.9228137085002588
 30
0.0
 40
0.0125
  0
CIRCLE
  5
E4F
  8
PCB_OUTLINE
 10
3.1577022030626831
 20
0.9728137085002618
 30
0.0
 40
0.0125
  0
CIRCLE
  5
E50
  8
PCB_OUTLINE
 10
3.2077022030626821
 20
0.7228137085002621
 30
0.0
 40
0.0125
  0
CIRCLE
  5
E51
  8
PCB_OUTLINE
 10
3.2077022030626821
 20
0.77281370850026
 30
0.0
 40
0.0125
  0
CIRCLE
  5
E52
  8
PCB_OUTLINE
 10
3.2077022030626821
 20
0.8228137085002597
 30
0.0
 40
0.0125
  0
CIRCLE
  5
E53
  8
PCB_OUTLINE
 10
3.2077022030626821
 20
0.8728137085002607
 30
0.0
 40
0.0125
  0
CIRCLE
  5
E54
  8
PCB_OUTLINE
 10
3.2077022030626821
 20
0.9228137085002588
 30
0.0
 40
0.0125
  0
CIRCLE
  5
E55
  8
PCB_OUTLINE
 10
3.2077022030626821
 20
0.9728137085002588
 30
0.0
 40
0.0125
  0
CIRCLE
  5
E56
  8
PCB_OUTLINE
 10
3.2577022030626721
 20
0.6228137085002609
 30
0.0
 40
0.0125
  0
CIRCLE
  5
E57
  8
PCB_OUTLINE
 10
3.2577022030626721
 20
0.672813708500263
 30
0.0
 40
0.0125
  0
CIRCLE
  5
E58
  8
PCB_OUTLINE
 10
3.2577022030626721
 20
0.7228137085002589
 30
0.0
 40
0.0125
  0
CIRCLE
  5
E59
  8
PCB_OUTLINE
 10
3.2577022030626721
 20
0.77281370850026
 30
0.0
 40
0.0125
  0
CIRCLE
  5
E5A
  8
PCB_OUTLINE
 10
3.2577022030626721
 20
0.8228137085002597
 30
0.0
 40
0.0125
  0
CIRCLE
  5
E5B
  8
PCB_OUTLINE
 10
3.2577022030626721
 20
0.9228137085002627
 30
0.0
 40
0.0125
  0
CIRCLE
  5
E5C
  8
PCB_OUTLINE
 10
3.2577022030626721
 20
0.9728137085002618
 30
0.0
 40
0.0125
  0
CIRCLE
  5
E5D
  8
PCB_OUTLINE
 10
3.3077022030626781
 20
0.6228137085002609
 30
0.0
 40
0.0125
  0
CIRCLE
  5
E5E
  8
PCB_OUTLINE
 10
3.3077022030626781
 20
0.6728137085002591
 30
0.0
 40
0.0125
  0
CIRCLE
  5
E5F
  8
PCB_OUTLINE
 10
3.3077022030626781
 20
0.7228137085002621
 30
0.0
 40
0.0125
  0
CIRCLE
  5
E60
  8
PCB_OUTLINE
 10
3.3077022030626781
 20
0.77281370850026
 30
0.0
 40
0.0125
  0
CIRCLE
  5
E61
  8
PCB_OUTLINE
 10
3.3077022030626781
 20
0.9728137085002618
 30
0.0
 40
0.0125
  0
CIRCLE
  5
E62
  8
PCB_OUTLINE
 10
3.3577022030626762
 20
0.6228137085002609
 30
0.0
 40
0.0125
  0
CIRCLE
  5
E63
  8
PCB_OUTLINE
 10
3.3577022030626762
 20
0.672813708500263
 30
0.0
 40
0.0125
  0
CIRCLE
  5
E64
  8
PCB_OUTLINE
 10
3.3577022030626762
 20
0.7228137085002589
 30
0.0
 40
0.0125
  0
CIRCLE
  5
E65
  8
PCB_OUTLINE
 10
3.3577022030626762
 20
0.77281370850026
 30
0.0
 40
0.0125
  0
CIRCLE
  5
E66
  8
PCB_OUTLINE
 10
3.3577022030626762
 20
0.9228137085002627
 30
0.0
 40
0.0125
  0
CIRCLE
  5
E67
  8
PCB_OUTLINE
 10
3.3577022030626762
 20
0.9728137085002588
 30
0.0
 40
0.0125
  0
CIRCLE
  5
E68
  8
PCB_OUTLINE
 10
3.4077022030626831
 20
0.6728137085002591
 30
0.0
 40
0.0125
  0
CIRCLE
  5
E69
  8
PCB_OUTLINE
 10
3.407702203062672
 20
0.7228137085002589
 30
0.0
 40
0.0125
  0
CIRCLE
  5
E6A
  8
PCB_OUTLINE
 10
3.4077022030626831
 20
0.77281370850026
 30
0.0
 40
0.0125
  0
CIRCLE
  5
E6B
  8
PCB_OUTLINE
 10
3.4077022030626831
 20
0.822813708500265
 30
0.0
 40
0.0125
  0
CIRCLE
  5
E6C
  8
PCB_OUTLINE
 10
3.4077022030626831
 20
0.8728137085002607
 30
0.0
 40
0.0125
  0
CIRCLE
  5
E6D
  8
PCB_OUTLINE
 10
3.4077022030626831
 20
0.9228137085002588
 30
0.0
 40
0.0125
  0
CIRCLE
  5
E6E
  8
PCB_OUTLINE
 10
3.407702203062672
 20
0.9728137085002588
 30
0.0
 40
0.0125
  0
CIRCLE
  5
E6F
  8
PCB_OUTLINE
 10
3.4077022030626831
 20
0.6228137085002609
 30
0.0
 40
0.0125
  0
CIRCLE
  5
E70
  8
PCB_OUTLINE
 10
3.0077022030626832
 20
0.6228137085002609
 30
0.0
 40
0.0125
  0
CIRCLE
  5
E71
  8
PCB_OUTLINE
 10
3.0077022030626832
 20
0.6728137085002655
 30
0.0
 40
0.0125
  0
CIRCLE
  5
E72
  8
PCB_OUTLINE
 10
3.0077022030626832
 20
0.7228137085002589
 30
0.0
 40
0.0125
  0
CIRCLE
  5
E73
  8
PCB_OUTLINE
 10
3.0077022030626832
 20
0.77281370850026
 30
0.0
 40
0.0125
  0
CIRCLE
  5
E74
  8
PCB_OUTLINE
 10
3.0077022030626832
 20
0.822813708500265
 30
0.0
 40
0.0125
  0
CIRCLE
  5
E75
  8
PCB_OUTLINE
 10
3.0077022030626832
 20
0.8728137085002607
 30
0.0
 40
0.0125
  0
CIRCLE
  5
E76
  8
PCB_OUTLINE
 10
3.0077022030626832
 20
0.9228137085002627
 30
0.0
 40
0.0125
  0
CIRCLE
  5
E77
  8
PCB_OUTLINE
 10
3.0077022030626832
 20
0.9728137085002588
 30
0.0
 40
0.0125
  0
CIRCLE
  5
E78
  8
PCB_OUTLINE
 10
3.0577022030626781
 20
0.5728137085002603
 30
0.0
 40
0.0125
  0
CIRCLE
  5
E79
  8
PCB_OUTLINE
 10
3.1077022030626762
 20
0.5728137085002583
 30
0.0
 40
0.0125
  0
CIRCLE
  5
E7A
  8
PCB_OUTLINE
 10
3.1577022030626831
 20
0.5728137085002603
 30
0.0
 40
0.0125
  0
CIRCLE
  5
E7B
  8
PCB_OUTLINE
 10
3.2077022030626821
 20
0.5728137085002603
 30
0.0
 40
0.0125
  0
CIRCLE
  5
E7C
  8
PCB_OUTLINE
 10
3.2577022030626721
 20
0.5728137085002603
 30
0.0
 40
0.0125
  0
CIRCLE
  5
E7D
  8
PCB_OUTLINE
 10
3.3077022030626781
 20
0.5728137085002603
 30
0.0
 40
0.0125
  0
CIRCLE
  5
E7E
  8
PCB_OUTLINE
 10
3.3577022030626762
 20
0.5728137085002603
 30
0.0
 40
0.0125
  0
CIRCLE
  5
E7F
  8
PCB_OUTLINE
 10
3.0077022030626832
 20
0.5728137085002603
 30
0.0
 40
0.0125
  0
CIRCLE
  5
E80
  8
PCB_OUTLINE
 10
3.5331935810913162
 20
0.5530330085902281
 30
0.0
 40
0.0125
  0
CIRCLE
  5
E81
  8
PCB_OUTLINE
 10
3.497838242031976
 20
0.5176776695309036
 30
0.0
 40
0.0125
  0
CIRCLE
  5
E82
  8
PCB_OUTLINE
 10
3.427127563913321
 20
0.4469669914122449
 30
0.0
 40
0.0125
  0
CIRCLE
  5
E83
  8
PCB_OUTLINE
 10
3.462482902972658
 20
0.4823223304715771
 30
0.0
 40
0.0125
  0
CIRCLE
  5
E84
  8
PCB_OUTLINE
 10
3.3917722248539981
 20
0.4116116523529179
 30
0.0
 40
0.0125
  0
CIRCLE
  5
E85
  8
PCB_OUTLINE
 10
3.462482902972658
 20
0.5530330085902321
 30
0.0
 40
0.0125
  0
CIRCLE
  5
E86
  8
PCB_OUTLINE
 10
3.427127563913321
 20
0.5883883476495561
 30
0.0
 40
0.0125
  0
CIRCLE
  5
E87
  8
PCB_OUTLINE
 10
3.427127563913408
 20
0.5176776695311398
 30
0.0
 40
0.0125
  0
CIRCLE
  5
E88
  8
PCB_OUTLINE
 10
3.391772224854237
 20
0.5530330085906248
 30
0.0
 40
0.0125
  0
CIRCLE
  5
E89
  8
PCB_OUTLINE
 10
3.5331935810912918
 20
0.4823223304715771
 30
0.0
 40
0.0125
  0
CIRCLE
  5
E8A
  8
PCB_OUTLINE
 10
3.5685489201506382
 20
0.4469669914122524
 30
0.0
 40
0.0125
  0
CIRCLE
  5
E8B
  8
PCB_OUTLINE
 10
3.4978382420322141
 20
0.4469669914123262
 30
0.0
 40
0.0125
  0
CIRCLE
  5
E8C
  8
PCB_OUTLINE
 10
3.5331935810917061
 20
0.4116116523531609
 30
0.0
 40
0.0125
  0
CIRCLE
  5
E8D
  8
PCB_OUTLINE
 10
3.365982902972648
 20
0.035822330471571
 30
0.0
 40
0.0125
  0
CIRCLE
  5
E8E
  8
PCB_OUTLINE
 10
3.315982902972658
 20
0.035822330471571
 30
0.0
 40
0.0125
  0
CIRCLE
  5
E8F
  8
PCB_OUTLINE
 10
3.265982902972655
 20
0.035822330471567
 30
0.0
 40
0.0125
  0
CIRCLE
  5
E90
  8
PCB_OUTLINE
 10
3.2159829029726561
 20
0.035822330471563
 30
0.0
 40
0.0125
  0
CIRCLE
  5
E91
  8
PCB_OUTLINE
 10
3.165982902972643
 20
0.0358223304715599
 30
0.0
 40
0.0125
  0
CIRCLE
  5
E92
  8
PCB_OUTLINE
 10
3.115982902972664
 20
0.035822330471563
 30
0.0
 40
0.0125
  0
CIRCLE
  5
E93
  8
PCB_OUTLINE
 10
3.065982902972658
 20
0.035822330471563
 30
0.0
 40
0.0125
  0
CIRCLE
  5
E94
  8
PCB_OUTLINE
 10
3.015982902972655
 20
0.035822330471563
 30
0.0
 40
0.0125
  0
CIRCLE
  5
E95
  8
PCB_OUTLINE
 10
3.365982902972648
 20
0.0858223304715761
 30
0.0
 40
0.0125
  0
CIRCLE
  5
E96
  8
PCB_OUTLINE
 10
3.2159829029726561
 20
0.0858223304715686
 30
0.0
 40
0.0125
  0
CIRCLE
  5
E97
  8
PCB_OUTLINE
 10
3.165982902972643
 20
0.0858223304715651
 30
0.0
 40
0.0125
  0
CIRCLE
  5
E98
  8
PCB_OUTLINE
 10
3.1159829029726551
 20
0.0858223304715619
 30
0.0
 40
0.0125
  0
CIRCLE
  5
E99
  8
PCB_OUTLINE
 10
3.065982902972658
 20
0.0858223304715619
 30
0.0
 40
0.0125
  0
CIRCLE
  5
E9A
  8
PCB_OUTLINE
 10
3.015982902972655
 20
0.0858223304715619
 30
0.0
 40
0.0125
  0
CIRCLE
  5
E9B
  8
PCB_OUTLINE
 10
3.365982902972648
 20
0.1358223304715769
 30
0.0
 40
0.0125
  0
CIRCLE
  5
E9C
  8
PCB_OUTLINE
 10
3.2159829029726441
 20
0.1358223304715649
 30
0.0
 40
0.0125
  0
CIRCLE
  5
E9D
  8
PCB_OUTLINE
 10
3.165982902972643
 20
0.135822330471568
 30
0.0
 40
0.0125
  0
CIRCLE
  5
E9E
  8
PCB_OUTLINE
 10
3.1159829029726551
 20
0.1358223304715649
 30
0.0
 40
0.0125
  0
CIRCLE
  5
E9F
  8
PCB_OUTLINE
 10
3.065982902972658
 20
0.1358223304715609
 30
0.0
 40
0.0125
  0
CIRCLE
  5
EA0
  8
PCB_OUTLINE
 10
3.015982902972655
 20
0.1358223304715609
 30
0.0
 40
0.0125
  0
CIRCLE
  5
EA1
  8
PCB_OUTLINE
 10
3.365982902972648
 20
0.1858223304715739
 30
0.0
 40
0.0125
  0
CIRCLE
  5
EA2
  8
PCB_OUTLINE
 10
3.2159829029726441
 20
0.1858223304715673
 30
0.0
 40
0.0125
  0
CIRCLE
  5
EA3
  8
PCB_OUTLINE
 10
3.165982902972643
 20
0.1858223304715633
 30
0.0
 40
0.0125
  0
CIRCLE
  5
EA4
  8
PCB_OUTLINE
 10
3.1159829029726551
 20
0.1858223304715633
 30
0.0
 40
0.0125
  0
CIRCLE
  5
EA5
  8
PCB_OUTLINE
 10
3.065982902972658
 20
0.1858223304715633
 30
0.0
 40
0.0125
  0
CIRCLE
  5
EA6
  8
PCB_OUTLINE
 10
3.015982902972655
 20
0.1858223304715633
 30
0.0
 40
0.0125
  0
CIRCLE
  5
EA7
  8
PCB_OUTLINE
 10
3.3659829029726231
 20
0.2358223304715694
 30
0.0
 40
0.0125
  0
CIRCLE
  5
EA8
  8
PCB_OUTLINE
 10
3.315982902972658
 20
0.2358223304715729
 30
0.0
 40
0.0125
  0
CIRCLE
  5
EA9
  8
PCB_OUTLINE
 10
3.265982902972647
 20
0.2358223304715694
 30
0.0
 40
0.0125
  0
CIRCLE
  5
EAA
  8
PCB_OUTLINE
 10
3.2159829029726441
 20
0.2358223304715694
 30
0.0
 40
0.0125
  0
CIRCLE
  5
EAB
  8
PCB_OUTLINE
 10
3.165982902972643
 20
0.2358223304715654
 30
0.0
 40
0.0125
  0
CIRCLE
  5
EAC
  8
PCB_OUTLINE
 10
3.1159829029726551
 20
0.235822330471564
 30
0.0
 40
0.0125
  0
CIRCLE
  5
EAD
  8
PCB_OUTLINE
 10
3.065982902972658
 20
0.23582233047156
 30
0.0
 40
0.0125
  0
CIRCLE
  5
EAE
  8
PCB_OUTLINE
 10
3.0159829029726422
 20
0.235822330471564
 30
0.0
 40
0.0125
  0
CIRCLE
  5
EAF
  8
PCB_OUTLINE
 10
3.365982902972648
 20
0.2858223304715711
 30
0.0
 40
0.0125
  0
CIRCLE
  5
EB0
  8
PCB_OUTLINE
 10
3.315982902972646
 20
0.2858223304715711
 30
0.0
 40
0.0125
  0
CIRCLE
  5
EB1
  8
PCB_OUTLINE
 10
3.265982902972647
 20
0.2858223304715711
 30
0.0
 40
0.0125
  0
CIRCLE
  5
EB2
  8
PCB_OUTLINE
 10
3.2159829029726441
 20
0.2858223304715679
 30
0.0
 40
0.0125
  0
CIRCLE
  5
EB3
  8
PCB_OUTLINE
 10
3.0159829029726422
 20
0.2858223304715559
 30
0.0
 40
0.0125
  0
CIRCLE
  5
EB4
  8
PCB_OUTLINE
 10
3.365982902972648
 20
0.3358223304715761
 30
0.0
 40
0.0125
  0
CIRCLE
  5
EB5
  8
PCB_OUTLINE
 10
3.315982902972646
 20
0.3358223304715721
 30
0.0
 40
0.0125
  0
CIRCLE
  5
EB6
  8
PCB_OUTLINE
 10
3.265982902972647
 20
0.3358223304715686
 30
0.0
 40
0.0125
  0
CIRCLE
  5
EB7
  8
PCB_OUTLINE
 10
3.2159829029726441
 20
0.3358223304715686
 30
0.0
 40
0.0125
  0
CIRCLE
  5
EB8
  8
PCB_OUTLINE
 10
3.0159829029726422
 20
0.3358223304715619
 30
0.0
 40
0.0125
  0
CIRCLE
  5
EB9
  8
PCB_OUTLINE
 10
3.315982902972646
 20
0.3858223304715768
 30
0.0
 40
0.0125
  0
CIRCLE
  5
EBA
  8
PCB_OUTLINE
 10
3.265982902972647
 20
0.3858223304715679
 30
0.0
 40
0.0125
  0
CIRCLE
  5
EBB
  8
PCB_OUTLINE
 10
3.2159829029726441
 20
0.3858223304715648
 30
0.0
 40
0.0125
  0
CIRCLE
  5
EBC
  8
PCB_OUTLINE
 10
3.1659829029726381
 20
0.3858223304715608
 30
0.0
 40
0.0125
  0
CIRCLE
  5
EBD
  8
PCB_OUTLINE
 10
3.1159829029726551
 20
0.3858223304715648
 30
0.0
 40
0.0125
  0
CIRCLE
  5
EBE
  8
PCB_OUTLINE
 10
3.065982902972646
 20
0.3858223304715648
 30
0.0
 40
0.0125
  0
CIRCLE
  5
EBF
  8
PCB_OUTLINE
 10
3.0159829029726422
 20
0.3858223304715648
 30
0.0
 40
0.0125
  0
CIRCLE
  5
EC0
  8
PCB_OUTLINE
 10
3.3659829029726231
 20
0.3858223304715719
 30
0.0
 40
0.0125
  0
CIRCLE
  5
EC1
  8
PCB_OUTLINE
 10
3.602832859645678
 20
0.077683051917627
 30
0.0
 40
0.0125
  0
CIRCLE
  5
EC2
  8
PCB_OUTLINE
 10
3.702832859645663
 20
0.0776830519176918
 30
0.0
 40
0.0125
  0
CIRCLE
  5
EC3
  8
PCB_OUTLINE
 10
3.7528328596456548
 20
0.0776830519177198
 30
0.0
 40
0.0125
  0
CIRCLE
  5
EC4
  8
PCB_OUTLINE
 10
3.8028328596456631
 20
0.0776830519177518
 30
0.0
 40
0.0125
  0
CIRCLE
  5
EC5
  8
PCB_OUTLINE
 10
3.8528328596456629
 20
0.0776830519177842
 30
0.0
 40
0.0125
  0
CIRCLE
  5
EC6
  8
PCB_OUTLINE
 10
3.9028328596456792
 20
0.0776830519178162
 30
0.0
 40
0.0125
  0
CIRCLE
  5
EC7
  8
PCB_OUTLINE
 10
3.952832859645663
 20
0.0776830519178482
 30
0.0
 40
0.0125
  0
CIRCLE
  5
EC8
  8
PCB_OUTLINE
 10
3.7528328596456322
 20
0.127683051917721
 30
0.0
 40
0.0125
  0
CIRCLE
  5
EC9
  8
PCB_OUTLINE
 10
3.8028328596456351
 20
0.1276830519177529
 30
0.0
 40
0.0125
  0
CIRCLE
  5
ECA
  8
PCB_OUTLINE
 10
3.8528328596456332
 20
0.1276830519177836
 30
0.0
 40
0.0125
  0
CIRCLE
  5
ECB
  8
PCB_OUTLINE
 10
3.9028328596456401
 20
0.1276830519178169
 30
0.0
 40
0.0125
  0
CIRCLE
  5
ECC
  8
PCB_OUTLINE
 10
3.9528328596456421
 20
0.127683051917848
 30
0.0
 40
0.0125
  0
CIRCLE
  5
ECD
  8
PCB_OUTLINE
 10
3.702832859645615
 20
0.1776830519176919
 30
0.0
 40
0.0125
  0
CIRCLE
  5
ECE
  8
PCB_OUTLINE
 10
3.7528328596456162
 20
0.1776830519177208
 30
0.0
 40
0.0125
  0
CIRCLE
  5
ECF
  8
PCB_OUTLINE
 10
3.802832859645616
 20
0.1776830519177559
 30
0.0
 40
0.0125
  0
CIRCLE
  5
ED0
  8
PCB_OUTLINE
 10
3.852832859645607
 20
0.1776830519177865
 30
0.0
 40
0.0125
  0
CIRCLE
  5
ED1
  8
PCB_OUTLINE
 10
3.9028328596456081
 20
0.1776830519178198
 30
0.0
 40
0.0125
  0
CIRCLE
  5
ED2
  8
PCB_OUTLINE
 10
3.9528328596455871
 20
0.1776830519178496
 30
0.0
 40
0.0125
  0
CIRCLE
  5
ED3
  8
PCB_OUTLINE
 10
3.6028328596455661
 20
0.2276830519176273
 30
0.0
 40
0.0125
  0
CIRCLE
  5
ED4
  8
PCB_OUTLINE
 10
3.6528328596455681
 20
0.227683051917658
 30
0.0
 40
0.0125
  0
CIRCLE
  5
ED5
  8
PCB_OUTLINE
 10
3.7028328596455871
 20
0.22768305191769
 30
0.0
 40
0.0125
  0
CIRCLE
  5
ED6
  8
PCB_OUTLINE
 10
3.7528328596455882
 20
0.2276830519177219
 30
0.0
 40
0.0125
  0
CIRCLE
  5
ED7
  8
PCB_OUTLINE
 10
3.8028328596455721
 20
0.2276830519177579
 30
0.0
 40
0.0125
  0
CIRCLE
  5
ED8
  8
PCB_OUTLINE
 10
3.8528328596455661
 20
0.2276830519177819
 30
0.0
 40
0.0125
  0
CIRCLE
  5
ED9
  8
PCB_OUTLINE
 10
3.9028328596455721
 20
0.227683051917817
 30
0.0
 40
0.0125
  0
CIRCLE
  5
EDA
  8
PCB_OUTLINE
 10
3.9528328596455711
 20
0.2276830519178489
 30
0.0
 40
0.0125
  0
CIRCLE
  5
EDB
  8
PCB_OUTLINE
 10
3.6028328596455501
 20
0.2776830519176241
 30
0.0
 40
0.0125
  0
CIRCLE
  5
EDC
  8
PCB_OUTLINE
 10
3.652832859645545
 20
0.277683051917656
 30
0.0
 40
0.0125
  0
CIRCLE
  5
EDD
  8
PCB_OUTLINE
 10
3.702832859645548
 20
0.277683051917688
 30
0.0
 40
0.0125
  0
CIRCLE
  5
EDE
  8
PCB_OUTLINE
 10
3.7528328596455469
 20
0.2776830519177195
 30
0.0
 40
0.0125
  0
CIRCLE
  5
EDF
  8
PCB_OUTLINE
 10
3.8028328596455601
 20
0.2776830519177519
 30
0.0
 40
0.0125
  0
CIRCLE
  5
EE0
  8
PCB_OUTLINE
 10
3.902832859645545
 20
0.2776830519178159
 30
0.0
 40
0.0125
  0
CIRCLE
  5
EE1
  8
PCB_OUTLINE
 10
3.952832859645548
 20
0.277683051917847
 30
0.0
 40
0.0125
  0
CIRCLE
  5
EE2
  8
PCB_OUTLINE
 10
3.602832859645523
 20
0.327683051917627
 30
0.0
 40
0.0125
  0
CIRCLE
  5
EE3
  8
PCB_OUTLINE
 10
3.6528328596455131
 20
0.327683051917659
 30
0.0
 40
0.0125
  0
CIRCLE
  5
EE4
  8
PCB_OUTLINE
 10
3.70283285964552
 20
0.3276830519176918
 30
0.0
 40
0.0125
  0
CIRCLE
  5
EE5
  8
PCB_OUTLINE
 10
3.7528328596455189
 20
0.3276830519177238
 30
0.0
 40
0.0125
  0
CIRCLE
  5
EE6
  8
PCB_OUTLINE
 10
3.95283285964552
 20
0.3276830519178446
 30
0.0
 40
0.0125
  0
CIRCLE
  5
EE7
  8
PCB_OUTLINE
 10
3.6028328596454791
 20
0.377683051917629
 30
0.0
 40
0.0125
  0
CIRCLE
  5
EE8
  8
PCB_OUTLINE
 10
3.6528328596454811
 20
0.377683051917657
 30
0.0
 40
0.0125
  0
CIRCLE
  5
EE9
  8
PCB_OUTLINE
 10
3.70283285964548
 20
0.377683051917689
 30
0.0
 40
0.0125
  0
CIRCLE
  5
EEA
  8
PCB_OUTLINE
 10
3.7528328596454781
 20
0.377683051917721
 30
0.0
 40
0.0125
  0
CIRCLE
  5
EEB
  8
PCB_OUTLINE
 10
3.9028328596454811
 20
0.3776830519178169
 30
0.0
 40
0.0125
  0
CIRCLE
  5
EEC
  8
PCB_OUTLINE
 10
3.95283285964548
 20
0.377683051917848
 30
0.0
 40
0.0125
  0
CIRCLE
  5
EED
  8
PCB_OUTLINE
 10
3.652832859645442
 20
0.4276830519176562
 30
0.0
 40
0.0125
  0
CIRCLE
  5
EEE
  8
PCB_OUTLINE
 10
3.7028328596454441
 20
0.427683051917687
 30
0.0
 40
0.0125
  0
CIRCLE
  5
EEF
  8
PCB_OUTLINE
 10
3.7528328596454621
 20
0.4276830519177194
 30
0.0
 40
0.0125
  0
CIRCLE
  5
EF0
  8
PCB_OUTLINE
 10
3.802832859645457
 20
0.4276830519177512
 30
0.0
 40
0.0125
  0
CIRCLE
  5
EF1
  8
PCB_OUTLINE
 10
3.8528328596454431
 20
0.4276830519177841
 30
0.0
 40
0.0125
  0
CIRCLE
  5
EF2
  8
PCB_OUTLINE
 10
3.902832859645442
 20
0.4276830519178163
 30
0.0
 40
0.0125
  0
CIRCLE
  5
EF3
  8
PCB_OUTLINE
 10
3.952832859645445
 20
0.4276830519178481
 30
0.0
 40
0.0125
  0
CIRCLE
  5
EF4
  8
PCB_OUTLINE
 10
3.6028328596454431
 20
0.427683051917624
 30
0.0
 40
0.0125
  0
CIRCLE
  5
EF5
  8
PCB_OUTLINE
 10
3.5528328596456742
 20
0.0776830519175919
 30
0.0
 40
0.0125
  0
CIRCLE
  5
EF6
  8
PCB_OUTLINE
 10
3.5528328596456351
 20
0.12768305191759
 30
0.0
 40
0.0125
  0
CIRCLE
  5
EF7
  8
PCB_OUTLINE
 10
3.552832859645604
 20
0.1776830519175929
 30
0.0
 40
0.0125
  0
CIRCLE
  5
EF8
  8
PCB_OUTLINE
 10
3.5528328596455721
 20
0.2276830519175954
 30
0.0
 40
0.0125
  0
CIRCLE
  5
EF9
  8
PCB_OUTLINE
 10
3.5528328596455352
 20
0.2776830519175921
 30
0.0
 40
0.0125
  0
CIRCLE
  5
EFA
  8
PCB_OUTLINE
 10
3.5528328596455072
 20
0.3276830519175946
 30
0.0
 40
0.0125
  0
CIRCLE
  5
EFB
  8
PCB_OUTLINE
 10
3.552832859645481
 20
0.3776830519175971
 30
0.0
 40
0.0125
  0
POLYLINE
  5
EFD
  8
PCB_OUTLINE
 66
     1
 10
0.0
 20
0.0
 30
0.0
 70
     1
  0
VERTEX
  5
12BA
  8
PCB_OUTLINE
 10
2.9801605725022871
 20
1.0000000000012681
 30
0.0
  0
VERTEX
  5
12BB
  8
PCB_OUTLINE
 10
2.9801605725023341
 20
0.0000000000006359
 30
0.0
  0
VERTEX
  5
12BC
  8
PCB_OUTLINE
 10
3.9801605725023181
 20
0.0000000000006359
 30
0.0
  0
VERTEX
  5
12BD
  8
PCB_OUTLINE
 10
3.9801605725023341
 20
1.0000000000012681
 30
0.0
  0
SEQEND
  5
12BE
  8
PCB_OUTLINE
  0
CIRCLE
  5
F03
  8
PCB_OUTLINE
 10
3.1226605725023382
 20
0.6520223304722304
 30
0.0
 40
0.0425000000000004
  0
CIRCLE
  5
F04
  8
PCB_OUTLINE
 10
3.2077022030626741
 20
0.6228137085002609
 30
0.0
 40
0.0125
  0
CIRCLE
  5
F05
  8
PCB_OUTLINE
 10
3.2077022030626821
 20
0.6728137085002591
 30
0.0
 40
0.0125
  0
CIRCLE
  5
F06
  8
PCB_OUTLINE
 10
3.632782902972556
 20
0.1424999999946799
 30
0.0
 40
0.0425000000000004
  0
CIRCLE
  5
F07
  8
PCB_OUTLINE
 10
3.8376605725113162
 20
0.6873776695335148
 30
0.0
 40
0.0425000000000004
  0
CIRCLE
  5
F08
  8
PCB_OUTLINE
 10
3.837660572508256
 20
0.347377669531574
 30
0.0
 40
0.0425000000000004
  0
CIRCLE
  5
F09
  8
PCB_OUTLINE
 10
3.600368725303785
 20
0.5176776695308341
 30
-0.0000000000000002
 40
0.031
  0
CIRCLE
  5
F0A
  8
PCB_OUTLINE
 10
3.4978382420319232
 20
0.620208152802745
 30
-0.0000000000000002
 40
0.031
  0
CIRCLE
  5
F0B
  8
PCB_OUTLINE
 10
3.462482902972706
 20
0.3797918471997441
 30
-0.0000000000000002
 40
0.031
  0
CIRCLE
  5
F0C
  8
PCB_OUTLINE
 10
3.3599524197007851
 20
0.4823223304716073
 30
-0.0000000000000002
 40
0.031
  0
CIRCLE
  5
F0D
  8
PCB_OUTLINE
 10
3.107702203062698
 20
0.7228137085002621
 30
0.0
 40
0.0125
  0
CIRCLE
  5
F0E
  8
PCB_OUTLINE
 10
3.2577022030626721
 20
0.8728137085002607
 30
0.0
 40
0.0125
  0
CIRCLE
  5
F0F
  8
PCB_OUTLINE
 10
3.8528328596455501
 20
0.2776830519177759
 30
0.0
 40
0.0125
  0
CIRCLE
  5
F10
  8
PCB_OUTLINE
 10
3.702832859645643
 20
0.127683051917693
 30
0.0
 40
0.0125
  0
TEXT
  5
11FC
  8
TEXT
 10
0.1992607830000033
 20
-0.4716598175938139
 30
0.0
 40
0.08
  1
TOP VIEW
  0
TEXT
  5
11FD
  8
TEXT
 10
3.0578262168925461
 20
-0.4716598175938139
 30
0.0
 40
0.08
  1
BOTTOM VIEW
  0
POLYLINE
  5
1207
  8
PCB_BOT
 66
     1
 10
0.0
 20
0.0
 30
0.0
 70
     1
  0
VERTEX
  5
1306
  8
PCB_BOT
 10
2.9801605725022871
 20
1.0000000000012681
 30
0.0
  0
VERTEX
  5
1307
  8
PCB_BOT
 10
2.9801605725023341
 20
0.0000000000006359
 30
0.0
  0
VERTEX
  5
1308
  8
PCB_BOT
 10
3.9801605725023181
 20
0.0000000000006359
 30
0.0
  0
VERTEX
  5
1309
  8
PCB_BOT
 10
3.9801605725023341
 20
1.0000000000012681
 30
0.0
  0
SEQEND
  5
130A
  8
PCB_BOT
  0
CIRCLE
  5
1208
  8
PCB_BOT
 10
3.462482902972706
 20
0.3797918471997441
 30
-0.0000000000000002
 40
0.031
1001
ACAD
1000
ASC_BOUNDS
1002
{
1070
    19
1005
1223
1002
}
  0
CIRCLE
  5
1209
  8
PCB_BOT
 10
3.3599524197007851
 20
0.4823223304716073
 30
-0.0000000000000002
 40
0.031
1001
ACAD
1000
ASC_BOUNDS
1002
{
1070
    19
1005
1223
1002
}
  0
CIRCLE
  5
120A
  8
PCB_BOT
 10
3.4978382420319232
 20
0.620208152802745
 30
-0.0000000000000002
 40
0.031
1001
ACAD
1000
ASC_BOUNDS
1002
{
1070
    19
1005
1223
1002
}
  0
CIRCLE
  5
120B
  8
PCB_BOT
 10
3.600368725303785
 20
0.5176776695308341
 30
-0.0000000000000002
 40
0.031
1001
ACAD
1000
ASC_BOUNDS
1002
{
1070
    19
1005
1223
1002
}
  0
INSERT
  5
1223
  8
PCB_BOT
  6
CONTINUOUS
  2
*X22
 10
0.0
 20
0.0
 30
0.0
1001
GRADIENTCOLOR1ACI
1070
     5
1001
GRADIENTCOLOR2ACI
1070
     2
1001
ACAD
1000
HATCH
1002
{
1070
    19
1000
ANSI31
1040
1.0
1040
0.0
1000
ASC_BOUNDS
1070
     4
1070
     1
1070
     1
1005
1209
1070
     1
1070
     1
1005
1208
1070
     1
1070
     1
1005
120B
1070
     1
1070
     1
1005
120A
1000
ASC_SEEDPOINT
1011
3.5020209555803632
1021
0.0
1031
0.0
1021
0.6216512591222836
1031
0.0
1000
R14_HATCH_DATA
1000
1223
1011
1.0
1021
0.0
1031
0.0
1021
0.0
1031
0.0
1011
0.0
1021
0.0
1031
0.0
1021
1.0
1031
0.0
1011
0.0
1021
0.0
1031
0.0
1021
0.0
1031
1.0
1040
0.0
1010
0.0
1020
0.0
1030
1.0
1000
ANSI31
1070
     0
1070
     1
1071
        4
1071
        7
1070
     1
1070
     1
1071
        2
1040
3.466838242031923
1040
0.620208152802745
1040
1.0
1040
3.5288382420319229
1040
0.620208152802745
1040
1.0
1071
        1
1005
120A
1071
        7
1070
     1
1070
     1
1071
        2
1040
3.6313687253037852
1040
0.5176776695308341
1040
1.0
1040
3.569368725303784
1040
0.5176776695308341
1040
1.0
1071
        1
1005
120B
1071
        7
1070
     1
1070
     1
1071
        2
1040
3.4934829029727061
1040
0.3797918471997441
1040
1.0
1040
3.431482902972705
1040
0.3797918471997441
1040
1.0
1071
        1
1005
1208
1071
        7
1070
     1
1070
     1
1071
        2
1040
3.3289524197007849
1040
0.4823223304716073
1040
1.0
1040
3.3909524197007861
1040
0.4823223304716073
1040
1.0
1071
        1
1005
1209
1070
     1
1070
     1
1040
0.0
1040
1.0
1070
     0
1070
     1
1040
0.7853981633974483
1040
0.0
1040
0.0
1040
-0.0883883476483184
1040
0.0883883476483185
1070
     0
1040
0.0013972324115929
1071
        4
1040
3.5020209555803632
1040
0.6216512591222836
1040
0.0
1040
3.6111597421206829
1040
0.5154615947761103
1040
0.0
1040
3.4530484438140401
1040
0.3701494231982423
1040
0.0
1040
3.3341151676399678
1040
0.4903114124858084
1040
0.0
1002
}
  0
ENDSEC
  0
EOF
