  0
SECTION
  2
HEADER
  9
$ACADVER
  1
AC1015
  9
$ACADMAINTVER
 70
    20
  9
$DWGCODEPAGE
  3
ANSI_1252
  9
$INSBASE
 10
0.0
 20
0.0
 30
0.0
  9
$EXTMIN
 10
23.07282632712917
 20
-2.292206883848245
 30
0.0
  9
$EXTMAX
 10
25.37704838454029
 20
-0.5916465993676349
 30
0.062
  9
$LIMMIN
 10
0.0
 20
0.0
  9
$LIMMAX
 10
12.0
 20
9.0
  9
$ORTHOMODE
 70
     1
  9
$REGENMODE
 70
     1
  9
$FILLMODE
 70
     1
  9
$QTEXTMODE
 70
     0
  9
$MIRRTEXT
 70
     1
  9
$LTSCALE
 40
1.0
  9
$ATTMODE
 70
     1
  9
$TEXTSIZE
 40
0.2
  9
$TRACEWID
 40
0.05
  9
$TEXTSTYLE
  7
Standard
  9
$CLAYER
  8
PCB_BOT
  9
$CELTYPE
  6
ByLayer
  9
$CECOLOR
 62
   256
  9
$CELTSCALE
 40
1.0
  9
$DISPSILH
 70
     0
  9
$DIMSCALE
 40
1.0
  9
$DIMASZ
 40
0.12
  9
$DIMEXO
 40
0.05
  9
$DIMDLI
 40
0.5
  9
$DIMRND
 40
0.0
  9
$DIMDLE
 40
0.0
  9
$DIMEXE
 40
0.1
  9
$DIMTP
 40
0.1
  9
$DIMTM
 40
0.1
  9
$DIMTXT
 40
0.12
  9
$DIMCEN
 40
0.0
  9
$DIMTSZ
 40
0.0
  9
$DIMTOL
 70
     0
  9
$DIMLIM
 70
     0
  9
$DIMTIH
 70
     1
  9
$DIMTOH
 70
     1
  9
$DIMSE1
 70
     0
  9
$DIMSE2
 70
     0
  9
$DIMTAD
 70
     0
  9
$DIMZIN
 70
     7
  9
$DIMBLK
  1

  9
$DIMASO
 70
     1
  9
$DIMSHO
 70
     1
  9
$DIMPOST
  1

  9
$DIMAPOST
  1
mm
  9
$DIMALT
 70
     0
  9
$DIMALTD
 70
     2
  9
$DIMALTF
 40
25.4
  9
$DIMLFAC
 40
1.0
  9
$DIMTOFL
 70
     0
  9
$DIMTVP
 40
0.0
  9
$DIMTIX
 70
     0
  9
$DIMSOXD
 70
     0
  9
$DIMSAH
 70
     0
  9
$DIMBLK1
  1

  9
$DIMBLK2
  1

  9
$DIMSTYLE
  2
AM_ANSI
  9
$DIMCLRD
 70
   256
  9
$DIMCLRE
 70
   256
  9
$DIMCLRT
 70
     2
  9
$DIMTFAC
 40
0.71
  9
$DIMGAP
 40
0.06
  9
$DIMJUST
 70
     0
  9
$DIMSD1
 70
     0
  9
$DIMSD2
 70
     0
  9
$DIMTOLJ
 70
     1
  9
$DIMTZIN
 70
     7
  9
$DIMALTZ
 70
     0
  9
$DIMALTTZ
 70
     0
  9
$DIMUPT
 70
     0
  9
$DIMDEC
 70
     4
  9
$DIMTDEC
 70
     4
  9
$DIMALTU
 70
     2
  9
$DIMALTTD
 70
     4
  9
$DIMTXSTY
  7
Standard
  9
$DIMAUNIT
 70
     0
  9
$DIMADEC
 70
     0
  9
$DIMALTRND
 40
0.0
  9
$DIMAZIN
 70
     2
  9
$DIMDSEP
 70
    46
  9
$DIMATFIT
 70
     3
  9
$DIMFRAC
 70
     0
  9
$DIMLDRBLK
  1

  9
$DIMLUNIT
 70
     2
  9
$DIMLWD
 70
    -1
  9
$DIMLWE
 70
    -1
  9
$DIMTMOVE
 70
     0
  9
$LUNITS
 70
     2
  9
$LUPREC
 70
     4
  9
$SKETCHINC
 40
0.1
  9
$FILLETRAD
 40
0.5
  9
$AUNITS
 70
     0
  9
$AUPREC
 70
     0
  9
$MENU
  1
.
  9
$ELEVATION
 40
0.0
  9
$PELEVATION
 40
0.0
  9
$THICKNESS
 40
0.0
  9
$LIMCHECK
 70
     0
  9
$CHAMFERA
 40
0.5
  9
$CHAMFERB
 40
0.5
  9
$CHAMFERC
 40
1.0
  9
$CHAMFERD
 40
0.0
  9
$SKPOLY
 70
     0
  9
$TDCREATE
 40
2454494.837450614
  9
$TDUCREATE
 40
2454495.004117280
  9
$TDUPDATE
 40
2456906.480927211
  9
$TDUUPDATE
 40
2456906.647593878
  9
$TDINDWG
 40
0.2913169213
  9
$TDUSRTIMER
 40
0.2913167940
  9
$USRTIMER
 70
     1
  9
$ANGBASE
 50
0.0
  9
$ANGDIR
 70
     0
  9
$PDMODE
 70
     0
  9
$PDSIZE
 40
0.0
  9
$PLINEWID
 40
0.0
  9
$SPLFRAME
 70
     0
  9
$SPLINETYPE
 70
     6
  9
$SPLINESEGS
 70
     8
  9
$HANDSEED
  5
46B2
  9
$SURFTAB1
 70
     6
  9
$SURFTAB2
 70
     6
  9
$SURFTYPE
 70
     6
  9
$SURFU
 70
     6
  9
$SURFV
 70
     6
  9
$UCSBASE
  2

  9
$UCSNAME
  2

  9
$UCSORG
 10
0.0
 20
0.0
 30
0.0
  9
$UCSXDIR
 10
1.0
 20
0.0
 30
0.0
  9
$UCSYDIR
 10
0.0
 20
1.0
 30
0.0
  9
$UCSORTHOREF
  2

  9
$UCSORTHOVIEW
 70
     0
  9
$UCSORGTOP
 10
0.0
 20
0.0
 30
0.0
  9
$UCSORGBOTTOM
 10
0.0
 20
0.0
 30
0.0
  9
$UCSORGLEFT
 10
0.0
 20
0.0
 30
0.0
  9
$UCSORGRIGHT
 10
0.0
 20
0.0
 30
0.0
  9
$UCSORGFRONT
 10
0.0
 20
0.0
 30
0.0
  9
$UCSORGBACK
 10
0.0
 20
0.0
 30
0.0
  9
$PUCSBASE
  2

  9
$PUCSNAME
  2

  9
$PUCSORG
 10
0.0
 20
0.0
 30
0.0
  9
$PUCSXDIR
 10
1.0
 20
0.0
 30
0.0
  9
$PUCSYDIR
 10
0.0
 20
1.0
 30
0.0
  9
$PUCSORTHOREF
  2

  9
$PUCSORTHOVIEW
 70
     0
  9
$PUCSORGTOP
 10
0.0
 20
0.0
 30
0.0
  9
$PUCSORGBOTTOM
 10
0.0
 20
0.0
 30
0.0
  9
$PUCSORGLEFT
 10
0.0
 20
0.0
 30
0.0
  9
$PUCSORGRIGHT
 10
0.0
 20
0.0
 30
0.0
  9
$PUCSORGFRONT
 10
0.0
 20
0.0
 30
0.0
  9
$PUCSORGBACK
 10
0.0
 20
0.0
 30
0.0
  9
$USERI1
 70
     0
  9
$USERI2
 70
     0
  9
$USERI3
 70
     0
  9
$USERI4
 70
     0
  9
$USERI5
 70
     0
  9
$USERR1
 40
0.0
  9
$USERR2
 40
0.0
  9
$USERR3
 40
0.0
  9
$USERR4
 40
0.0
  9
$USERR5
 40
0.0
  9
$WORLDVIEW
 70
     1
  9
$SHADEDGE
 70
     3
  9
$SHADEDIF
 70
    70
  9
$TILEMODE
 70
     1
  9
$MAXACTVP
 70
    64
  9
$PINSBASE
 10
0.0
 20
0.0
 30
0.0
  9
$PLIMCHECK
 70
     0
  9
$PEXTMIN
 10
1.000000000000000E+20
 20
1.000000000000000E+20
 30
1.000000000000000E+20
  9
$PEXTMAX
 10
-1.000000000000000E+20
 20
-1.000000000000000E+20
 30
-1.000000000000000E+20
  9
$PLIMMIN
 10
0.0
 20
0.0
  9
$PLIMMAX
 10
12.0
 20
9.0
  9
$UNITMODE
 70
     0
  9
$VISRETAIN
 70
     1
  9
$PLINEGEN
 70
     0
  9
$PSLTSCALE
 70
     1
  9
$TREEDEPTH
 70
  3020
  9
$CMLSTYLE
  2
Standard
  9
$CMLJUST
 70
     0
  9
$CMLSCALE
 40
1.0
  9
$PROXYGRAPHICS
 70
     1
  9
$MEASUREMENT
 70
     0
  9
$CELWEIGHT
370
    -1
  9
$ENDCAPS
280
     0
  9
$JOINSTYLE
280
     0
  9
$LWDISPLAY
290
     0
  9
$INSUNITS
 70
     1
  9
$HYPERLINKBASE
  1

  9
$STYLESHEET
  1
MONOCHROME.CTB
  9
$XEDIT
290
     1
  9
$CEPSNTYPE
380
     0
  9
$PSTYLEMODE
290
     1
  9
$FINGERPRINTGUID
  2
{1EFF4B40-43D6-4315-84AB-46688295E3F0}
  9
$VERSIONGUID
  2
{F4A4BE55-5B1A-4458-875E-23D9ED0114BC}
  9
$EXTNAMES
290
     1
  9
$PSVPSCALE
 40
0.0
  9
$OLESTARTUP
290
     0
  0
ENDSEC
  0
SECTION
  2
CLASSES
  0
CLASS
  1
ACDBDICTIONARYWDFLT
  2
AcDbDictionaryWithDefault
  3
ObjectDBX Classes
 90
        0
280
     0
281
     0
  0
CLASS
  1
ACDBPLACEHOLDER
  2
AcDbPlaceHolder
  3
ObjectDBX Classes
 90
        0
280
     0
281
     0
  0
CLASS
  1
LAYOUT
  2
AcDbLayout
  3
ObjectDBX Classes
 90
        0
280
     0
281
     0
  0
CLASS
  1
SORTENTSTABLE
  2
AcDbSortentsTable
  3
ObjectDBX Classes
 90
        0
280
     0
281
     0
  0
CLASS
  1
DIMASSOC
  2
AcDbDimAssoc
  3
"AcDbDimAssoc|Product Desc:     AcDim ARX App For Dimension|Company:          Autodesk, Inc.|WEB Address:      www.autodesk.com"
 90
    32768
280
     0
281
     0
  0
CLASS
  1
DICTIONARYVAR
  2
AcDbDictionaryVar
  3
ObjectDBX Classes
 90
        0
280
     0
281
     0
  0
CLASS
  1
MATERIAL
  2
AcDbMaterial
  3
ObjectDBX Classes
 90
     1153
280
     0
281
     0
  0
CLASS
  1
VISUALSTYLE
  2
AcDbVisualStyle
  3
ObjectDBX Classes
 90
     4095
280
     0
281
     0
  0
CLASS
  1
TABLESTYLE
  2
AcDbTableStyle
  3
ObjectDBX Classes
 90
     4095
280
     0
281
     0
  0
CLASS
  1
SCALE
  2
AcDbScale
  3
ObjectDBX Classes
 90
     1153
280
     0
281
     0
  0
CLASS
  1
MLEADERSTYLE
  2
AcDbMLeaderStyle
  3
ACDB_MLEADERSTYLE_CLASS
 90
     4095
280
     0
281
     0
  0
CLASS
  1
ACME_DOCUMENT
  2
AcMeDbDoc
  3
AcMeServices
 90
     1024
280
     0
281
     0
  0
CLASS
  1
AMGSETTINGSOBJ
  2
AmgSettingsObj
  3
"AcadM|Product Description: AutoCAD Mechanical|Company: Autodesk, Inc."
 90
     1024
280
     0
281
     0
  0
CLASS
  1
ACMESCOPE
  2
AcMeScope
  3
AcMeServices
 90
     1024
280
     0
281
     0
  0
CLASS
  1
ACMECOMMANDHISTORY
  2
AcMeCommandHistory
  3
AcMeServices
 90
     1024
280
     0
281
     0
  0
CLASS
  1
ACIMSYSVARMAN
  2
AcImSysVarManager
  3
AcMeServices
 90
     1024
280
     0
281
     0
  0
CLASS
  1
ACIMINTSYSVAR
  2
AcImIntSysVar
  3
AcMeServices
 90
     1024
280
     0
281
     0
  0
CLASS
  1
ACMEDRAWINGMAN
  2
AcMeDrawingMan
  3
AcMeServices
 90
    33792
280
     0
281
     0
  0
CLASS
  1
ACMEVIEW
  2
AcMeView
  3
AcMeServices
 90
    33792
280
     0
281
     0
  0
CLASS
  1
ACDBENTITYCACHE
  2
AcMeEntityCache
  3
AcMeServices
 90
     1024
280
     0
281
     0
  0
CLASS
  1
GSMANAGER
  2
AcMeGSManager
  3
AcMeServices
 90
    33792
280
     0
281
     0
  0
CLASS
  1
AMDTINTERNALREACTOR
  2
AmdtInternalReactor
  3
AcMeServices
 90
    33792
280
     0
281
     0
  0
CLASS
  1
ACMESTATEMGR
  2
AcMeStateMgr
  3
AcMeServices
 90
     1024
280
     0
281
     0
  0
CLASS
  1
ACGREFMASTER
  2
AcGrefMaster
  3
AcAttribServices
 90
     1024
280
     0
281
     0
  0
CLASS
  1
AM_DRAWING_MGR
  2
AcDmDwgMgr
  3
AcMechDwgViewMgmt
 90
    33792
280
     0
281
     0
  0
CLASS
  1
AM_DWG_DOCUMENT
  2
AcDmDwgDocument
  3
AcMechDwgViewMgmt
 90
    33792
280
     0
281
     0
  0
CLASS
  1
AM_DWG_SHEET
  2
AcDmSheet
  3
AcMechDwgViewMgmt
 90
    33792
280
     0
281
     0
  0
CLASS
  1
AM_VIEWDIMPARMAP
  2
AcDmViewDimParMap
  3
AcMechDwgViewMgmt
 90
    33792
280
     0
281
     0
  0
CLASS
  1
ACIMREALSYSVAR
  2
AcImRealSysVar
  3
AcMeServices
 90
    33792
280
     0
281
     0
  0
CLASS
  1
AM_DWGMGR_NAME
  2
AcDmDwgMgrName
  3
AcMechDwgViewMgmt
 90
    33792
280
     0
281
     0
  0
CLASS
  1
ACME_DATABASE
  2
AcMeDbDatabase
  3
AcMeServices
 90
     1024
280
     0
281
     0
  0
CLASS
  1
ACRFINSADJUSTERMGR
  2
AcRfInsAdjusterMgr
  3
AcMeServices
 90
     1024
280
     0
281
     0
  0
CLASS
  1
ACGREFACADMASTER
  2
AcGrefacadMaster
  3
AcGrefServices
 90
     1024
280
     0
281
     0
  0
CLASS
  1
AMDTMENUSTATEMGR
  2
AmdtMenuStateMgr
  3
McadcomServices
 90
     1024
280
     0
281
     0
  0
CLASS
  1
AMDTMCOMMENUSTATE
  2
AmdtMcomMenuState
  3
McadcomServices
 90
     1024
280
     0
281
     0
  0
CLASS
  1
AMIMASTER
  2
AmiMaster
  3
AmiServices
 90
     1024
280
     0
281
     0
  0
CLASS
  1
MAPIAMMOUDLE
  2
MApiAmModule
  3
MApiAmServices
 90
     1024
280
     0
281
     0
  0
CLASS
  1
ACIMSTRSYSVAR
  2
AcImStrSysVar
  3
AcMeServices
 90
     1024
280
     0
281
     0
  0
CLASS
  1
AMDTADMENUSTATE
  2
AmdtAdMenuState
  3
DesignerServices
 90
    33792
280
     0
281
     0
  0
CLASS
  1
ADAPPL
  2
AcAdAppl
  3
DesignerAssemblies
 90
    33792
280
     0
281
     0
  0
CLASS
  1
DEPMGR
  2
AcAdDepMgr
  3
DesignerAssemblies
 90
    33792
280
     0
281
     0
  0
CLASS
  1
PARAMMGR
  2
AcAdParamMgr
  3
DesignerAssemblies
 90
    33792
280
     0
281
     0
  0
CLASS
  1
PARAMSCOPE
  2
AcAdParamScope
  3
DesignerAssemblies
 90
    33792
280
     0
281
     0
  0
CLASS
  1
NAMEDAPPL
  2
AcAdNamedAppl
  3
DesignerAssemblies
 90
    33792
280
     0
281
     0
  0
CLASS
  1
AMDTDMMENUSTATE
  2
AmdtDmMenuState
  3
AcMechDwgViewMgmt
 90
    33792
280
     0
281
     0
  0
CLASS
  1
AMDTAMMENUSTATE
  2
AmdtAmMenuState
  3
DesignerAssemblies
 90
     1024
280
     0
281
     0
  0
CLASS
  1
ACAMPROJECT
  2
AcAmProject
  3
DesignerAssemblies
 90
     1024
280
     0
281
     0
  0
CLASS
  1
ACAMGRCOMPDEF
  2
AcAmGrCompDef
  3
DesignerAssemblies
 90
     1024
280
     0
281
     0
  0
CLASS
  1
ACCMCONTEXT
  2
AcCmContext
  3
DesignerAssemblies
 90
    33792
280
     0
281
     0
  0
CLASS
  1
ACAMCOMPDEF
  2
AcAmCompDef
  3
DesignerAssemblies
 90
     1024
280
     0
281
     0
  0
CLASS
  1
ACAMCOMPDEFMGR
  2
AcAmCompDefMgr
  3
DesignerAssemblies
 90
     1024
280
     0
281
     0
  0
CLASS
  1
AMCONTEXTMGR
  2
AcAmContextMgr
  3
DesignerAssemblies
 90
     1024
280
     0
281
     0
  0
CLASS
  1
ACAMCONTEXTMODELER
  2
AcAmContextModeler
  3
DesignerAssemblies
 90
     1024
280
     0
281
     0
  0
CLASS
  1
ACMDATADICTIONARY
  2
AcmDataDictionary
  3
"AcmSymBB|Product Description: AutoCAD Mechanical|Company: Autodesk, Inc."
 90
     1024
280
     0
281
     0
  0
CLASS
  1
CATALOGSTATE
  2
AcAmCatalogState
  3
DesignerAssemblies
 90
    33792
280
     0
281
     0
  0
CLASS
  1
ACAMGRCOMPDEFSET
  2
AcAmGrCompDefSet
  3
DesignerAssemblies
 90
     1024
280
     0
281
     0
  0
CLASS
  1
AMDTBROWSERDBTAB
  2
AmdtBrowserDbTab
  3
McadcomServices
 90
     1024
280
     0
281
     0
  0
CLASS
  1
CBROWSERAPPOBJECT
  2
CBrowserAppObject
  3
McadcomServices
 90
     1024
280
     0
281
     0
  0
CLASS
  1
DM_PLACEHOLDER
  2
AcDmSelsetPlaceholder
  3
McadcomServices
 90
     1024
280
     0
281
     0
  0
CLASS
  1
ACMSTANDARDANSI
  2
AcmStandardANSI
  3
"Amdt_StdImp|Product Description: AutoCAD Mechanical|Company: Autodesk, Inc."
 90
     1024
280
     0
281
     0
  0
CLASS
  1
AMGOBJPROPCFG
  2
AmgObjPropCfg
  3
"AmgLay|Product Description: AutoCAD Mechanical|Company: Autodesk, Inc."
 90
     1024
280
     0
281
     0
  0
CLASS
  1
ACMSURFSTANDARDANSI
  2
AcmSurfTextStdANSI
  3
"Amdt_StdImp|Product Description: AutoCAD Mechanical|Company: Autodesk, Inc."
 90
     1024
280
     0
281
     0
  0
CLASS
  1
ACMFCFSTANDARDANSI
  2
AcmFCFStdANSI
  3
"Amdt_StdImp|Product Description: AutoCAD Mechanical|Company: Autodesk, Inc."
 90
     1024
280
     0
281
     0
  0
CLASS
  1
ACMWELDSTANDARDANSI
  2
AcmWeldingStdANSI
  3
"Amdt_StdImp|Product Description: AutoCAD Mechanical|Company: Autodesk, Inc."
 90
     1024
280
     0
281
     0
  0
CLASS
  1
ACMIDSTANDARDANSI
  2
AcmIdStdANSI
  3
"Amdt_StdImp|Product Description: AutoCAD Mechanical|Company: Autodesk, Inc."
 90
     1024
280
     0
281
     0
  0
CLASS
  1
ACMDATUMSTANDARDANSI
  2
AcmDatumStdANSI
  3
"Amdt_StdImp|Product Description: AutoCAD Mechanical|Company: Autodesk, Inc."
 90
     1024
280
     0
281
     0
  0
CLASS
  1
ACMBOMSTANDARDANSI
  2
AcmBOMStdANSI
  3
"Amdt_StdImp|Product Description: AutoCAD Mechanical|Company: Autodesk, Inc."
 90
     1024
280
     0
281
     0
  0
CLASS
  1
ACMDETAILSTANDARDANSI
  2
AmdtDetailSymStdANSI
  3
"Amdt_StdImp|Product Description: AutoCAD Mechanical|Company: Autodesk, Inc."
 90
     1024
280
     0
281
     0
  0
CLASS
  1
ACMSECTIONSTANDARDANSI
  2
AmdtSectionSymStdANSI
  3
"Amdt_StdImp|Product Description: AutoCAD Mechanical|Company: Autodesk, Inc."
 90
     1024
280
     0
281
     0
  0
CLASS
  1
ACMCENTERLINESTANDARDANSI
  2
AmdtCenterLineStdANSI
  3
"Amdt_StdImp|Product Description: AutoCAD Mechanical|Company: Autodesk, Inc."
 90
     1024
280
     0
281
     0
  0
CLASS
  1
ACMTHREADLINESTANDARDANSI
  2
AmdtThreadLineStdANSI
  3
"Amdt_StdImp|Product Description: AutoCAD Mechanical|Company: Autodesk, Inc."
 90
     1024
280
     0
281
     0
  0
CLASS
  1
ACMNOTESTANDARDANSI
  2
AmdtNoteStdANSI
  3
"Amdt_StdImp|Product Description: AutoCAD Mechanical|Company: Autodesk, Inc."
 90
     1024
280
     0
281
     0
  0
CLASS
  1
ACMTAPERSTANDARDANSI
  2
AcmTaperStdANSI
  3
"Amdt_StdImp|Product Description: AutoCAD Mechanical|Company: Autodesk, Inc."
 90
     1024
280
     0
281
     0
  0
CLASS
  1
ACMANOOTATIONVIEWSTANDARDANSI
  2
AmdtAnViewStdANSI
  3
"Amdt_StdImp|Product Description: AutoCAD Mechanical|Company: Autodesk, Inc."
 90
     1024
280
     0
281
     0
  0
CLASS
  1
AMDTNOTETEMPLATEDB
  2
AmdtNoteTemplateDB
  3
AcmSymBB|Product Description: AutoCAD Mechanical|Company: Autodesk, Inc.
 90
     1024
280
     0
281
     0
  0
CLASS
  1
ACAMGLAYSTD
  2
AcAmgLayStd
  3
"AmgLay|Product Description: AutoCAD Mechanical|Company: Autodesk, Inc."
 90
     1024
280
     0
281
     0
  0
CLASS
  1
ACAMGDIMSTD
  2
AcAmgDimStd
  3
"AmgDim|Product Description: AutoCAD Mechanical|Company: Autodesk, Inc."
 90
     1024
280
     0
281
     0
  0
CLASS
  1
ACAMGHOLECHARTSTDANSI
  2
AcAmgHoleChartStdANSI
  3
AmgDim|Product Description: AutoCAD Mechanical|Company: Autodesk, Inc.
 90
     1024
280
     0
281
     0
  0
CLASS
  1
ACAMGTITLESTD
  2
AcAmgTitleStd
  3
"AmgTitle|Product Description: AutoCAD Mechanical|Company: Autodesk, Inc."
 90
     1024
280
     0
281
     0
  0
CLASS
  1
ACAMGFILTERDAT
  2
AcAmgFilterDat
  3
"AcadM|Product Description: AutoCAD Mechanical|Company: Autodesk, Inc."
 90
    33792
280
     0
281
     0
  0
CLASS
  1
CELLSTYLEMAP
  2
AcDbCellStyleMap
  3
ObjectDBX Classes
 90
     1152
280
     0
281
     0
  0
CLASS
  1
SOLID_BACKGROUND
  2
AcDbSolidBackground
  3
SCENEOE
 90
    36863
280
     0
281
     0
  0
CLASS
  1
NPOCOLLECTION
  2
AcDbImpNonPersistentObjectsCollection
  3
ObjectDBX Classes
 90
    33921
280
     0
281
     0
  0
CLASS
  1
ACDBSECTIONVIEWSTYLE
  2
AcDbSectionViewStyle
  3
ObjectDBX Classes
 90
     1025
280
     0
281
     0
  0
CLASS
  1
ACDBDETAILVIEWSTYLE
  2
AcDbDetailViewStyle
  3
ObjectDBX Classes
 90
     1025
280
     0
281
     0
  0
ENDSEC
  0
SECTION
  2
TABLES
  0
TABLE
  2
VPORT
  5
26
102
{ACAD_XDICTIONARY
360
2A
102
}
330
0
100
AcDbSymbolTable
 70
     1
  0
VPORT
  5
27
330
26
100
AcDbSymbolTableRecord
100
AcDbViewportTableRecord
  2
*Active
 70
     0
 10
0.0
 20
0.0
 11
1.0
 21
1.0
 12
24.16777920631878
 22
-1.482120772934495
 13
0.0
 23
0.0
 14
0.5
 24
0.5
 15
0.5
 25
0.5
 16
0.0
 26
0.0
 36
1.0
 17
0.0
 27
0.0
 37
0.0
 40
1.971847142010132
 41
2.035582822085889
 42
50.0
 43
0.0
 44
0.0
 50
0.0
 51
0.0
 71
     0
 72
   100
 73
     1
 74
     3
 75
     0
 76
     0
 77
     0
 78
     0
281
     0
 65
     0
110
0.0
120
0.0
130
0.0
111
1.0
121
0.0
131
0.0
112
0.0
122
1.0
132
0.0
 79
     0
146
0.0
1001
ACAD_NAV_VCDISPLAY
1070
     3
  0
ENDTAB
  0
TABLE
  2
LTYPE
  5
21
330
0
100
AcDbSymbolTable
 70
    16
  0
LTYPE
  5
22
330
21
100
AcDbSymbolTableRecord
100
AcDbLinetypeTableRecord
  2
ByBlock
 70
     0
  3

 72
    65
 73
     0
 40
0.0
  0
LTYPE
  5
23
330
21
100
AcDbSymbolTableRecord
100
AcDbLinetypeTableRecord
  2
ByLayer
 70
     0
  3

 72
    65
 73
     0
 40
0.0
  0
LTYPE
  5
1B
330
21
100
AcDbSymbolTableRecord
100
AcDbLinetypeTableRecord
  2
Continuous
 70
     0
  3
Solid line
 72
    65
 73
     0
 40
0.0
  0
LTYPE
  5
1AB
330
21
100
AcDbSymbolTableRecord
100
AcDbLinetypeTableRecord
  2
HIDDEN
 70
     0
  3
Hidden __ __ __ __ __ __ __ __ __ __ __ __ __ _
 72
    65
 73
     2
 40
0.375
 49
0.25
 74
     0
 49
-0.125
 74
     0
  0
LTYPE
  5
1AD
330
21
100
AcDbSymbolTableRecord
100
AcDbLinetypeTableRecord
  2
PHANTOM2
 70
     0
  3
Phantom (.5x) ___ _ _ ___ _ _ ___ _ _ ___ _ _
 72
    65
 73
     6
 40
1.25
 49
0.625
 74
     0
 49
-0.125
 74
     0
 49
0.125
 74
     0
 49
-0.125
 74
     0
 49
0.125
 74
     0
 49
-0.125
 74
     0
  0
LTYPE
  5
1AC
330
21
100
AcDbSymbolTableRecord
100
AcDbLinetypeTableRecord
  2
CENTER
 70
     0
  3
Center ____ _ ____ _ ____ _ ____ _ ____ _ ____
 72
    65
 73
     4
 40
2.0
 49
1.25
 74
     0
 49
-0.25
 74
     0
 49
0.25
 74
     0
 49
-0.25
 74
     0
  0
LTYPE
  5
1AE
330
21
100
AcDbSymbolTableRecord
100
AcDbLinetypeTableRecord
  2
Amconstr
 70
     0
  3
_______________________
 72
    65
 73
     2
 40
9999.0
 49
9999.0
 74
     0
 49
0.0
 74
     0
  0
LTYPE
  5
339B
330
21
100
AcDbSymbolTableRecord
100
AcDbLinetypeTableRecord
  2
ACANSTGB
 70
     0
  3
__ . . __ . .
 72
    65
 73
     6
 40
0.35433070866
 49
0.15748031496
 74
     0
 49
-0.03937007874
 74
     0
 49
0.03937007874
 74
     0
 49
-0.03937007874
 74
     0
 49
0.03937007874
 74
     0
 49
-0.03937007874
 74
     0
  0
LTYPE
  5
339C
330
21
100
AcDbSymbolTableRecord
100
AcDbLinetypeTableRecord
  2
ACANSTGL
 70
     0
  3
_ _ _ _ _
 72
    65
 73
     2
 40
0.11811023622
 49
0.07874015748
 74
     0
 49
-0.03937007874
 74
     0
  0
LTYPE
  5
4449
330
21
100
AcDbSymbolTableRecord
100
AcDbLinetypeTableRecord
  2
CENTER2
 70
     0
  3
Center (.5x) ___ _ ___ _ ___ _ ___ _ ___ _ ___
 72
    65
 73
     4
 40
1.125
 49
0.75
 74
     0
 49
-0.125
 74
     0
 49
0.125
 74
     0
 49
-0.125
 74
     0
  0
LTYPE
  5
444A
330
21
100
AcDbSymbolTableRecord
100
AcDbLinetypeTableRecord
  2
HIDDEN2
 70
     0
  3
Hidden (.5x) _ _ _ _ _ _ _ _ _ _ _ _ _ _ _ _ _
 72
    65
 73
     2
 40
0.1875
 49
0.125
 74
     0
 49
-0.0625
 74
     0
  0
LTYPE
  5
444B
330
21
100
AcDbSymbolTableRecord
100
AcDbLinetypeTableRecord
  2
Amzigzag2
 70
     0
  3
/\/-/\/-/\/-/\/-/\/-/\/
 72
    65
 73
     2
 40
0.4401
 49
0.0001
 74
     4
 75
   136
340
1B2
 46
0.0016
 50
0.0
 44
0.0
 45
0.0
 49
-0.4400000000000003
 74
     0
  0
LTYPE
  5
44DB
330
21
100
AcDbSymbolTableRecord
100
AcDbLinetypeTableRecord
  2
AM_ISO02W050
 70
     0
  3
__ __ __ __ __ __ __ __ __ __ __ __ __ __ __
 72
    65
 73
     2
 40
7.5
 49
6.0
 74
     0
 49
-1.5
 74
     0
  0
LTYPE
  5
44DC
330
21
100
AcDbSymbolTableRecord
100
AcDbLinetypeTableRecord
  2
AM_ISO08W050
 70
     0
  3
____ . ____ . ____ . ____ . ____ . ____ . ____
 72
    65
 73
     4
 40
18.0
 49
12.0
 74
     0
 49
-1.5
 74
     0
 49
3.0
 74
     0
 49
-1.5
 74
     0
  0
LTYPE
  5
44DD
330
21
100
AcDbSymbolTableRecord
100
AcDbLinetypeTableRecord
  2
AM_ISO09W050
 70
     0
  3
_____ . . _____ . . _____ . . ____ .. ____
 72
    65
 73
     6
 40
22.5
 49
12.0
 74
     0
 49
-1.5
 74
     0
 49
3.0
 74
     0
 49
-1.5
 74
     0
 49
3.0
 74
     0
 49
-1.5
 74
     0
  0
LTYPE
  5
44DE
330
21
100
AcDbSymbolTableRecord
100
AcDbLinetypeTableRecord
  2
AM_ISO08W050x2
 70
     0
  3
__ . __ . __ . __ . __ . __
 72
    65
 73
     4
 40
9.0
 49
6.0
 74
     0
 49
-0.75
 74
     0
 49
1.5
 74
     0
 49
-0.75
 74
     0
  0
LTYPE
  5
44DF
330
21
100
AcDbSymbolTableRecord
100
AcDbLinetypeTableRecord
  2
AM_ISO02W050x2
 70
     0
  3
 _ _ _ _ _ _ _ _ _ _ _ _
 72
    65
 73
     2
 40
3.75
 49
3.0
 74
     0
 49
-0.75
 74
     0
  0
LTYPE
  5
44E0
330
21
100
AcDbSymbolTableRecord
100
AcDbLinetypeTableRecord
  2
Amzigzag
 70
     0
  3
/\/-/\/-/\/-/\/-/\/-/\/
 72
    65
 73
     2
 40
11.0001
 49
0.0001
 74
     4
 75
   136
340
1B2
 46
0.04
 50
0.0
 44
0.0
 45
0.0
 49
-11.0
 74
     0
  0
ENDTAB
  0
TABLE
  2
LAYER
  5
C
102
{ACAD_XDICTIONARY
360
1C
102
}
330
0
100
AcDbSymbolTable
 70
    10
  0
LAYER
  5
D
102
{ACAD_XDICTIONARY
360
E
102
}
330
C
100
AcDbSymbolTableRecord
100
AcDbLayerTableRecord
  2
0
 70
     0
 62
     7
  6
Continuous
370
    -3
390
10
  0
LAYER
  5
94
102
{ACAD_XDICTIONARY
360
95
102
}
330
C
100
AcDbSymbolTableRecord
100
AcDbLayerTableRecord
  2
Border
 70
     0
 62
     5
  6
Continuous
370
    -3
390
10
1001
RAK
1000
{ACET-LAYISO
1070
     0
1070
     5
1000
Continuous
1071
       -3
1071
        1
1005
10
1000
ACET-LAYISO}
  0
LAYER
  5
98
102
{ACAD_XDICTIONARY
360
99
102
}
330
C
100
AcDbSymbolTableRecord
100
AcDbLayerTableRecord
  2
Text
 70
     0
 62
     3
  6
Continuous
370
    -3
390
10
1001
RAK
1000
{ACET-LAYISO
1070
     0
1070
     3
1000
Continuous
1071
       -3
1071
        1
1005
10
1000
ACET-LAYISO}
  0
LAYER
  5
7E
330
C
100
AcDbSymbolTableRecord
100
AcDbLayerTableRecord
  2
DEFPOINTS
 70
     0
 62
     7
  6
Continuous
290
     0
370
    -3
390
10
1001
RAK
1000
{ACET-LAYISO
1070
     0
1070
     7
1000
Continuous
1071
       -3
1071
        0
1005
10
1000
ACET-LAYISO}
  0
LAYER
  5
10C
102
{ACAD_XDICTIONARY
360
10D
102
}
330
C
100
AcDbSymbolTableRecord
100
AcDbLayerTableRecord
  2
PCB_TOP
 70
     0
 62
     5
  6
Continuous
370
    -3
390
10
1001
RAK
1000
{ACET-LAYISO
1070
     0
1070
     5
1000
Continuous
1070
     1
1071
       -3
1071
        1
1005
10
1000
ACET-LAYISO}
  0
LAYER
  5
117
102
{ACAD_XDICTIONARY
360
118
102
}
330
C
100
AcDbSymbolTableRecord
100
AcDbLayerTableRecord
  2
PCB_BOT
 70
     0
 62
     1
  6
Continuous
370
    -3
390
10
1001
RAK
1000
{ACET-LAYISO
1070
     0
1070
     1
1000
Continuous
1071
       -3
1071
        1
1005
10
1000
ACET-LAYISO}
  0
LAYER
  5
108
102
{ACAD_XDICTIONARY
360
109
102
}
330
C
100
AcDbSymbolTableRecord
100
AcDbLayerTableRecord
  2
PCB_OUTLINE
 70
     0
 62
   142
  6
Continuous
370
    -3
390
10
1001
RAK
1000
{ACET-LAYISO
1070
     0
1070
   142
1000
Continuous
1071
       -3
1071
        1
1005
10
1000
ACET-LAYISO}
  0
LAYER
  5
BF
102
{ACAD_XDICTIONARY
360
C0
102
}
330
C
100
AcDbSymbolTableRecord
100
AcDbLayerTableRecord
  2
Layer1
 70
     0
 62
     1
  6
Continuous
370
    -3
390
10
1001
AcAecLayerStandard
1000

1000

1001
RAK
1000
{ACET-LAYISO
1070
     0
1070
     1
1000
Continuous
1071
       -3
1071
        1
1005
10
1000
ACET-LAYISO}
  0
LAYER
  5
6F
102
{ACAD_XDICTIONARY
360
70
102
}
330
C
100
AcDbSymbolTableRecord
100
AcDbLayerTableRecord
  2
DIMS
 70
     0
 62
     3
  6
Continuous
370
    15
390
10
1001
RAK
1000
{ACET-LAYISO
1070
     0
1070
    82
1000
Continuous
1071
       -3
1071
        1
1005
10
1000
ACET-LAYISO}
  0
LAYER
  5
4624
330
C
100
AcDbSymbolTableRecord
100
AcDbLayerTableRecord
  2
Part
 70
     0
 62
     1
  6
Continuous
370
    -3
390
10
1001
AcAecLayerStandard
1000

1000

  0
ENDTAB
  0
TABLE
  2
STYLE
  5
1E
330
0
100
AcDbSymbolTable
 70
     6
  0
STYLE
  5
1F
330
1E
100
AcDbSymbolTableRecord
100
AcDbTextStyleTableRecord
  2
Standard
 70
     0
 40
0.0
 41
1.0
 50
0.0
 71
     0
 42
0.2
  3
txt
  4

  0
STYLE
  5
7C
330
1E
100
AcDbSymbolTableRecord
100
AcDbTextStyleTableRecord
  2
ROMANS
 70
     0
 40
0.0
 41
1.0
 50
0.0
 71
     0
 42
0.1
  3
C:\ACADWIN\FONTS\AU100S00.SHX
  4

  0
STYLE
  5
C4
330
1E
100
AcDbSymbolTableRecord
100
AcDbTextStyleTableRecord
  2
ARIAL
 70
     0
 40
0.0
 41
1.0
 50
0.0
 71
     0
 42
0.2452744685283672
  3
ARIAL.TTF
  4

1001
ACAD
1000
Arial
1071
       34
  0
STYLE
  5
1B2
330
1E
100
AcDbSymbolTableRecord
100
AcDbTextStyleTableRecord
  2

 70
     1
 40
0.0
 41
1.0
 50
0.0
 71
     0
 42
0.2
  3
genltshp.shx
  4

  0
STYLE
  5
339A
330
1E
100
AcDbSymbolTableRecord
100
AcDbTextStyleTableRecord
  2
ACANSGDT
 70
     0
 40
0.0
 41
1.0
 50
0.0
 71
     0
 42
0.2
  3
amgdt.shx
  4

  0
STYLE
  5
456F
330
1E
100
AcDbSymbolTableRecord
100
AcDbTextStyleTableRecord
  2
ACANSTS
 70
     0
 40
1.0
 41
1.0
 50
0.0
 71
     0
 42
0.2
  3
romans.shx
  4

  0
ENDTAB
  0
TABLE
  2
VIEW
  5
24
330
0
100
AcDbSymbolTable
 70
     0
  0
ENDTAB
  0
TABLE
  2
UCS
  5
25
330
0
100
AcDbSymbolTable
 70
     0
  0
ENDTAB
  0
TABLE
  2
APPID
  5
2B
330
0
100
AcDbSymbolTable
 70
    25
  0
APPID
  5
2C
330
2B
100
AcDbSymbolTableRecord
100
AcDbRegAppTableRecord
  2
ACAD
 70
     0
  0
APPID
  5
72
330
2B
100
AcDbSymbolTableRecord
100
AcDbRegAppTableRecord
  2
RAK
 70
     0
  0
APPID
  5
C2
330
2B
100
AcDbSymbolTableRecord
100
AcDbRegAppTableRecord
  2
AcAecLayerStandard
 70
     0
  0
APPID
  5
1E7
330
2B
100
AcDbSymbolTableRecord
100
AcDbRegAppTableRecord
  2
ACATTRIBSERVICES
 70
     0
  0
APPID
  5
227
330
2B
100
AcDbSymbolTableRecord
100
AcDbRegAppTableRecord
  2
ACAD_MLEADERVER
 70
     0
  0
APPID
  5
233
330
2B
100
AcDbSymbolTableRecord
100
AcDbRegAppTableRecord
  2
MCAD_NO_VIS
 70
     0
  0
APPID
  5
234
330
2B
100
AcDbSymbolTableRecord
100
AcDbRegAppTableRecord
  2
ACAD_TEMP_GRAPHIC
 70
     0
  0
APPID
  5
23D
330
2B
100
AcDbSymbolTableRecord
100
AcDbRegAppTableRecord
  2
AD_DRAW
 70
     0
  0
APPID
  5
258
330
2B
100
AcDbSymbolTableRecord
100
AcDbRegAppTableRecord
  2
DESIGNERASSEMBLIES
 70
     0
  0
APPID
  5
25F
330
2B
100
AcDbSymbolTableRecord
100
AcDbRegAppTableRecord
  2
ACADM_DIM_EDIT
 70
     0
  0
APPID
  5
260
330
2B
100
AcDbSymbolTableRecord
100
AcDbRegAppTableRecord
  2
AMDT_DM_ADJ
 70
     0
  0
APPID
  5
2A8
330
2B
100
AcDbSymbolTableRecord
100
AcDbRegAppTableRecord
  2
ACAD_PSEXT
 70
     0
  0
APPID
  5
2E7
330
2B
100
AcDbSymbolTableRecord
100
AcDbRegAppTableRecord
  2
ACAD_DSTYLE_DIMARC_LENGTH_SYMBOL
 70
     0
  0
APPID
  5
454
330
2B
100
AcDbSymbolTableRecord
100
AcDbRegAppTableRecord
  2
ACAD_DSTYLE_DIM_LINETYPE
 70
     0
  0
APPID
  5
455
330
2B
100
AcDbSymbolTableRecord
100
AcDbRegAppTableRecord
  2
ACAD_DSTYLE_DIM_EXT1_LINETYPE
 70
     0
  0
APPID
  5
456
330
2B
100
AcDbSymbolTableRecord
100
AcDbRegAppTableRecord
  2
ACAD_DSTYLE_DIM_EXT2_LINETYPE
 70
     0
  0
APPID
  5
4BD
330
2B
100
AcDbSymbolTableRecord
100
AcDbRegAppTableRecord
  2
ACAD_DSTYLE_DIMJOGGED_JOGANGLE_SYMBOL
 70
     0
  0
APPID
  5
7FE
330
2B
100
AcDbSymbolTableRecord
100
AcDbRegAppTableRecord
  2
ACAD_EXEMPT_FROM_CAD_STANDARDS
 70
     0
  0
APPID
  5
B8B
330
2B
100
AcDbSymbolTableRecord
100
AcDbRegAppTableRecord
  2
ACAD_DSTYLE_DIMINSPECT
 70
     0
  0
APPID
  5
1DE7
330
2B
100
AcDbSymbolTableRecord
100
AcDbRegAppTableRecord
  2
ACLAYERTOOLS
 70
     0
  0
APPID
  5
23BF
330
2B
100
AcDbSymbolTableRecord
100
AcDbRegAppTableRecord
  2
ACAD_DSTYLE_DIMRADIAL_EXTENSION
 70
     0
  0
APPID
  5
2669
330
2B
100
AcDbSymbolTableRecord
100
AcDbRegAppTableRecord
  2
ACAD_DSTYLE_DIMJAG
 70
     0
  0
APPID
  5
266A
330
2B
100
AcDbSymbolTableRecord
100
AcDbRegAppTableRecord
  2
ACAD_DSTYLE_DIMBREAK
 70
     0
  0
APPID
  5
266B
330
2B
100
AcDbSymbolTableRecord
100
AcDbRegAppTableRecord
  2
ACAD_DSTYLE_DIMTALN
 70
     0
  0
APPID
  5
44E1
330
2B
100
AcDbSymbolTableRecord
100
AcDbRegAppTableRecord
  2
ACAD_NAV_VCDISPLAY
 70
     0
  0
ENDTAB
  0
TABLE
  2
DIMSTYLE
  5
2D
330
0
100
AcDbSymbolTable
 70
    10
100
AcDbDimStyleTable
 71
     2
340
3389
340
1519
  0
DIMSTYLE
105
1519
330
2D
100
AcDbSymbolTableRecord
100
AcDbDimStyleTableRecord
  2
3 Decimal Places
 70
     0
 41
0.125
 44
0.08
 78
     4
140
0.09
176
   256
177
   256
178
   256
271
     3
272
     3
284
     4
285
     4
286
     4
340
7C
371
    -1
372
    -1
  0
DIMSTYLE
105
3389
102
{ACAD_REACTORS
330
4609
102
}
330
2D
100
AcDbSymbolTableRecord
100
AcDbDimStyleTableRecord
  2
AM_ANSI
 70
     0
  4
mm
 41
0.12
 42
0.05
 43
0.5
 44
0.1
 47
0.1
 48
0.1
 78
     7
 79
     2
140
0.12
141
0.0
146
0.71
147
0.06
176
   256
177
   256
178
     2
274
     4
284
     7
340
1F
371
    -1
372
    -1
1001
ACAD_DSTYLE_DIMARC_LENGTH_SYMBOL
1070
   379
1070
     1
1001
ACAD_DSTYLE_DIM_LINETYPE
1070
   380
1005
22
1001
ACAD_DSTYLE_DIM_EXT1_LINETYPE
1070
   381
1005
22
1001
ACAD_DSTYLE_DIM_EXT2_LINETYPE
1070
   382
1005
22
  0
DIMSTYLE
105
338E
330
2D
100
AcDbSymbolTableRecord
100
AcDbDimStyleTableRecord
  2
AM_ANSI$3
 70
     0
  4
mm
 41
0.12
 42
0.05
 43
0.5
 44
0.1
 47
0.1
 48
0.1
 78
     7
 79
     2
140
0.12
141
0.0
146
0.71
147
0.06
176
   256
177
   256
178
     2
274
     4
284
     7
288
     1
289
     0
340
1F
371
    -1
372
    -1
1001
ACAD_DSTYLE_DIMARC_LENGTH_SYMBOL
1070
   379
1070
     1
1001
ACAD_DSTYLE_DIM_LINETYPE
1070
   380
1005
22
1001
ACAD_DSTYLE_DIM_EXT1_LINETYPE
1070
   381
1005
22
1001
ACAD_DSTYLE_DIM_EXT2_LINETYPE
1070
   382
1005
22
  0
DIMSTYLE
105
338F
330
2D
100
AcDbSymbolTableRecord
100
AcDbDimStyleTableRecord
  2
AM_ANSI$4
 70
     0
  4
mm
 41
0.12
 42
0.05
 43
0.5
 44
0.1
 47
0.1
 48
0.1
 78
     7
 79
     2
140
0.12
141
0.0
146
0.71
147
0.06
176
   256
177
   256
178
     2
274
     4
284
     7
340
1F
371
    -1
372
    -1
1001
ACAD_DSTYLE_DIMARC_LENGTH_SYMBOL
1070
   379
1070
     1
1001
ACAD_DSTYLE_DIM_LINETYPE
1070
   380
1005
22
1001
ACAD_DSTYLE_DIM_EXT1_LINETYPE
1070
   381
1005
22
1001
ACAD_DSTYLE_DIM_EXT2_LINETYPE
1070
   382
1005
22
  0
DIMSTYLE
105
3390
330
2D
100
AcDbSymbolTableRecord
100
AcDbDimStyleTableRecord
  2
AM_ANSI$7
 70
     0
  4
mm
 41
0.12
 42
0.05
 43
0.5
 44
0.1
 47
0.1
 48
0.1
 78
     7
 79
     2
140
0.12
141
0.0
146
0.71
147
0.06
176
   256
177
   256
178
     2
274
     4
284
     7
340
1F
371
    -1
372
    -1
1001
ACAD_DSTYLE_DIMARC_LENGTH_SYMBOL
1070
   379
1070
     1
1001
ACAD_DSTYLE_DIM_LINETYPE
1070
   380
1005
22
1001
ACAD_DSTYLE_DIM_EXT1_LINETYPE
1070
   381
1005
22
1001
ACAD_DSTYLE_DIM_EXT2_LINETYPE
1070
   382
1005
22
  0
DIMSTYLE
105
3391
330
2D
100
AcDbSymbolTableRecord
100
AcDbDimStyleTableRecord
  2
AM_ANSI$SF
 70
     0
  4
mm
 41
0.12
 42
0.05
 43
0.5
 44
0.1
 47
0.1
 48
0.1
 75
     1
 76
     1
 78
     7
 79
     2
140
0.12
141
0.0
146
0.71
147
0.06
176
   256
177
   256
178
     2
274
     4
284
     7
340
1F
371
    -1
372
    -1
1001
ACAD_DSTYLE_DIMARC_LENGTH_SYMBOL
1070
   379
1070
     1
1001
ACAD_DSTYLE_DIM_LINETYPE
1070
   380
1005
22
1001
ACAD_DSTYLE_DIM_EXT1_LINETYPE
1070
   381
1005
22
1001
ACAD_DSTYLE_DIM_EXT2_LINETYPE
1070
   382
1005
22
  0
DIMSTYLE
105
3396
330
2D
100
AcDbSymbolTableRecord
100
AcDbDimStyleTableRecord
  2
AM_ANSI$SH
 70
     0
  4
mm
 41
0.12
 42
0.05
 43
0.5
 44
0.1
 47
0.1
 48
0.1
 75
     1
 76
     1
 78
     7
 79
     2
140
0.12
141
0.0
146
0.71
147
0.06
173
     1
176
   256
177
   256
178
     2
274
     4
284
     7
340
1F
343
3392
371
    -1
372
    -1
1001
ACAD_DSTYLE_DIMARC_LENGTH_SYMBOL
1070
   379
1070
     1
1001
ACAD_DSTYLE_DIM_LINETYPE
1070
   380
1005
22
1001
ACAD_DSTYLE_DIM_EXT1_LINETYPE
1070
   381
1005
22
1001
ACAD_DSTYLE_DIM_EXT2_LINETYPE
1070
   382
1005
22
  0
DIMSTYLE
105
4578
330
2D
100
AcDbSymbolTableRecord
100
AcDbDimStyleTableRecord
  2
Standard
 70
     0
340
1F
  0
DIMSTYLE
105
4625
330
2D
100
AcDbSymbolTableRecord
100
AcDbDimStyleTableRecord
  2
2 Decimal Places
 70
     0
 40
0.35
 41
0.125
 44
0.08
 73
     0
 74
     0
 78
     4
140
0.075
170
     1
176
   256
177
   256
178
   256
271
     2
272
     2
284
     4
285
     4
286
     4
340
7C
371
    -1
372
    -1
1001
ACAD_DSTYLE_DIMJAG
1070
   388
1040
1.5
1001
ACAD_DSTYLE_DIMTALN
1070
   392
1070
     0
  0
DIMSTYLE
105
4626
330
2D
100
AcDbSymbolTableRecord
100
AcDbDimStyleTableRecord
  2
2 Dec Hole
 70
     0
 40
0.35
 41
0.125
 44
0.08
 78
     4
140
0.075
170
     1
176
   256
177
   256
178
   256
271
     2
272
     2
279
     1
284
     4
285
     4
286
     4
289
     2
340
7C
371
    -1
372
    -1
1001
ACAD_DSTYLE_DIMJAG
1070
   388
1040
1.5
1001
ACAD_DSTYLE_DIMTALN
1070
   392
1070
     0
  0
ENDTAB
  0
TABLE
  2
BLOCK_RECORD
  5
1
330
0
100
AcDbSymbolTable
 70
     5
  0
BLOCK_RECORD
  5
2
102
{ACAD_XDICTIONARY
360
32A5
102
}
330
1
100
AcDbSymbolTableRecord
100
AcDbBlockTableRecord
  2
*Model_Space
340
5
  0
BLOCK_RECORD
  5
8
330
1
100
AcDbSymbolTableRecord
100
AcDbBlockTableRecord
  2
*Paper_Space
340
B
  0
BLOCK_RECORD
  5
3392
330
1
100
AcDbSymbolTableRecord
100
AcDbBlockTableRecord
  2
GENAXEH
340
0
  0
BLOCK_RECORD
  5
437E
330
1
100
AcDbSymbolTableRecord
100
AcDbBlockTableRecord
  2
*D1
340
0
  0
BLOCK_RECORD
  5
4398
330
1
100
AcDbSymbolTableRecord
100
AcDbBlockTableRecord
  2
*D2
340
0
  0
BLOCK_RECORD
  5
4627
102
{ACAD_XDICTIONARY
360
466A
102
}
330
1
100
AcDbSymbolTableRecord
100
AcDbBlockTableRecord
  2
A$C2F001A0A
340
0
102
{BLKREFS
331
466F
102
}
1001
ACAD
1000
DesignCenter Data
1002
{
1070
     1
1070
     1
1002
}
  0
ENDTAB
  0
ENDSEC
  0
SECTION
  2
BLOCKS
  0
BLOCK
  5
3
330
2
100
AcDbEntity
  8
0
100
AcDbBlockBegin
  2
*Model_Space
 70
     0
 10
0.0
 20
0.0
 30
0.0
  3
*Model_Space
  1

  0
ENDBLK
  5
4
330
2
100
AcDbEntity
  8
0
100
AcDbBlockEnd
  0
BLOCK
  5
9
330
8
100
AcDbEntity
 67
     1
  8
0
100
AcDbBlockBegin
  2
*Paper_Space
 70
     0
 10
0.0
 20
0.0
 30
0.0
  3
*Paper_Space
  1

  0
ENDBLK
  5
A
330
8
100
AcDbEntity
 67
     1
  8
0
100
AcDbBlockEnd
  0
BLOCK
  5
3394
330
3392
100
AcDbEntity
  8
0
100
AcDbBlockBegin
  2
GENAXEH
 70
     0
 10
0.0
 20
0.0
 30
0.0
  3
GENAXEH
  1

  0
LINE
  5
3393
330
3392
100
AcDbEntity
  8
0
100
AcDbLine
 10
-1.0
 20
0.0
 30
0.0
 11
1.0
 21
0.0
 31
0.0
  0
ENDBLK
  5
3395
330
3392
100
AcDbEntity
  8
0
100
AcDbBlockEnd
  0
BLOCK
  5
437F
330
437E
100
AcDbEntity
  8
0
100
AcDbBlockBegin
  2
*D1
 70
     1
 10
0.0
 20
0.0
 30
0.0
  3
*D1
  1

  0
LINE
  5
438C
330
437E
100
AcDbEntity
  8
DIMS
100
AcDbLine
 10
23.40255130979015
 20
-2.934968613822031
 30
0.0
 11
23.40255130979015
 21
-2.631917020910861
 31
0.0
  0
LINE
  5
438D
330
437E
100
AcDbEntity
  8
DIMS
100
AcDbLine
 10
24.9525787426815
 20
-2.934968613822055
 30
0.0
 11
24.9525787426815
 21
-2.631917020910861
 31
0.0
  0
LINE
  5
438E
330
437E
100
AcDbEntity
  8
DIMS
100
AcDbLine
 10
23.52755130979015
 20
-2.711917020910862
 30
0.0
 11
23.91613645480726
 21
-2.711917020910862
 31
0.0
  0
LINE
  5
438F
330
437E
100
AcDbEntity
  8
DIMS
100
AcDbLine
 10
24.8275787426815
 20
-2.711917020910862
 30
0.0
 11
24.4389935976644
 21
-2.711917020910862
 31
0.0
  0
SOLID
  5
4390
330
437E
100
AcDbEntity
  8
DIMS
100
AcDbTrace
 10
23.52755130979015
 20
-2.691083687577528
 30
0.0
 11
23.52755130979015
 21
-2.732750354244194
 31
0.0
 12
23.40255130979015
 22
-2.711917020910862
 32
0.0
 13
23.40255130979015
 23
-2.711917020910862
 33
0.0
  0
SOLID
  5
4391
330
437E
100
AcDbEntity
  8
DIMS
100
AcDbTrace
 10
24.8275787426815
 20
-2.691083687577528
 30
0.0
 11
24.8275787426815
 21
-2.732750354244194
 31
0.0
 12
24.9525787426815
 22
-2.711917020910862
 32
0.0
 13
24.9525787426815
 23
-2.711917020910862
 33
0.0
  0
MTEXT
  5
4392
330
437E
100
AcDbEntity
  8
DIMS
100
AcDbMText
 10
24.17756502623582
 20
-2.711917020910862
 30
0.0
 40
0.09
 41
0.0
 71
     5
 72
     1
  1
\A1;1.550
  7
ROMANS
 73
     1
 44
1.0
1001
ACAD
1000
MTEXTBEGIN
1070
    73
1070
     1
1070
    44
1040
1.0
1070
    74
1070
     0
1000
MTEXTEND
  0
POINT
  5
4393
330
437E
100
AcDbEntity
  8
DEFPOINTS
 62
     0
100
AcDbPoint
 10
23.40255130979015
 20
-2.997468613822031
 30
0.0
  0
POINT
  5
4394
330
437E
100
AcDbEntity
  8
DEFPOINTS
 62
     0
100
AcDbPoint
 10
24.9525787426815
 20
-2.997468613822055
 30
0.0
  0
POINT
  5
4395
330
437E
100
AcDbEntity
  8
DEFPOINTS
 62
     0
100
AcDbPoint
 10
24.9525787426815
 20
-2.711917020910862
 30
0.0
  0
ENDBLK
  5
4380
330
437E
100
AcDbEntity
  8
0
100
AcDbBlockEnd
  0
BLOCK
  5
4399
330
4398
100
AcDbEntity
  8
0
100
AcDbBlockBegin
  2
*D2
 70
     1
 10
0.0
 20
0.0
 30
0.0
  3
*D2
  1

  0
LINE
  5
43A6
330
4398
100
AcDbEntity
  8
DIMS
100
AcDbLine
 10
23.34005130979015
 20
-3.997432336760192
 30
0.0
 11
22.99534405060997
 21
-3.997432336760192
 31
0.0
  0
LINE
  5
43A7
330
4398
100
AcDbEntity
  8
DIMS
100
AcDbLine
 10
23.34005130979015
 20
-2.997468613822031
 30
0.0
 11
22.99534405060997
 21
-2.997468613822031
 31
0.0
  0
LINE
  5
43A8
330
4398
100
AcDbEntity
  8
DIMS
100
AcDbLine
 10
23.07534405060996
 20
-3.872432336760192
 30
0.0
 11
23.07534405060996
 21
-3.632450475291113
 31
0.0
  0
LINE
  5
43A9
330
4398
100
AcDbEntity
  8
DIMS
100
AcDbLine
 10
23.07534405060996
 20
-3.122468613822031
 30
0.0
 11
23.07534405060996
 21
-3.362450475291113
 31
0.0
  0
SOLID
  5
43AA
330
4398
100
AcDbEntity
  8
DIMS
100
AcDbTrace
 10
23.05451071727663
 20
-3.872432336760192
 30
0.0
 11
23.09617738394329
 21
-3.872432336760192
 31
0.0
 12
23.07534405060996
 22
-3.997432336760192
 32
0.0
 13
23.07534405060996
 23
-3.997432336760192
 33
0.0
  0
SOLID
  5
43AB
330
4398
100
AcDbEntity
  8
DIMS
100
AcDbTrace
 10
23.05451071727663
 20
-3.122468613822031
 30
0.0
 11
23.09617738394329
 21
-3.122468613822031
 31
0.0
 12
23.07534405060996
 22
-2.997468613822031
 32
0.0
 13
23.07534405060996
 23
-2.997468613822031
 33
0.0
  0
MTEXT
  5
43AC
330
4398
100
AcDbEntity
  8
DIMS
100
AcDbMText
 10
23.07534405060996
 20
-3.497450475291109
 30
0.0
 40
0.09
 41
0.0
 71
     5
 72
     1
  1
\A1;1.000
  7
ROMANS
 73
     1
 44
1.0
1001
ACAD
1000
MTEXTBEGIN
1070
    73
1070
     1
1070
    44
1040
1.0
1070
    74
1070
     0
1000
MTEXTEND
  0
POINT
  5
43AD
330
4398
100
AcDbEntity
  8
DEFPOINTS
 62
     0
100
AcDbPoint
 10
23.40255130979015
 20
-3.997432336760192
 30
0.0
  0
POINT
  5
43AE
330
4398
100
AcDbEntity
  8
DEFPOINTS
 62
     0
100
AcDbPoint
 10
23.40255130979015
 20
-2.997468613822031
 30
0.0
  0
POINT
  5
43AF
330
4398
100
AcDbEntity
  8
DEFPOINTS
 62
     0
100
AcDbPoint
 10
23.07534405060996
 20
-2.997468613822031
 30
0.0
  0
ENDBLK
  5
439A
330
4398
100
AcDbEntity
  8
0
100
AcDbBlockEnd
  0
BLOCK
  5
466C
330
4627
100
AcDbEntity
  8
0
100
AcDbBlockBegin
  2
A$C2F001A0A
 70
     0
 10
0.0
 20
0.0
 30
0.0
  3
A$C2F001A0A
  1

  0
CIRCLE
  5
4628
330
4627
100
AcDbEntity
  8
Part
100
AcDbCircle
 10
-0.015156281216548
 20
-0.0151329881895848
 30
0.0
 40
0.01
  0
CIRCLE
  5
4629
330
4627
100
AcDbEntity
  8
Part
100
AcDbCircle
 10
-0.0151562812165409
 20
0.2552241570042462
 30
0.0
 40
0.01
  0
CIRCLE
  5
462A
330
4627
100
AcDbEntity
  8
Part
100
AcDbCircle
 10
-0.015156281216548
 20
-0.0151329881895848
 30
0.0
 40
0.01
  0
CIRCLE
  5
462B
330
4627
100
AcDbEntity
  8
Part
100
AcDbCircle
 10
-0.0151562812165409
 20
0.2552241570042462
 30
0.0
 40
0.01
  0
ARC
  5
462C
330
4627
100
AcDbEntity
  8
Part
100
AcDbCircle
 10
-0.0749044253315106
 20
0.3150137229381258
 30
0.0
 40
0.0625
100
AcDbArc
 50
288.6629248849421
 51
341.3370751150576
  0
ARC
  5
462D
330
4627
100
AcDbEntity
  8
Part
100
AcDbCircle
 10
-0.0749044253315106
 20
-0.0749862770618712
 30
0.0
 40
0.0625
100
AcDbArc
 50
18.66292488494292
 51
71.33707511505791
  0
ARC
  5
462E
330
4627
100
AcDbEntity
  8
Part
100
AcDbCircle
 10
0.0674562544434849
 20
-0.0749862770618712
 30
0.0
 40
0.03
100
AcDbArc
 50
90.0
 51
138.1896851042208
  0
ARC
  5
462F
330
4627
100
AcDbEntity
  8
Part
100
AcDbCircle
 10
0.0674562544434849
 20
0.3150137229381258
 30
0.0
 40
0.03
100
AcDbArc
 50
221.8103148957791
 51
270.0
  0
ARC
  5
4630
330
4627
100
AcDbEntity
  8
Part
100
AcDbCircle
 10
-0.0749044253315106
 20
0.1826530431631355
 30
0.0
 40
0.03
100
AcDbArc
 50
359.9999999999982
 51
48.18968510421232
  0
ARC
  5
4631
330
4627
100
AcDbEntity
  8
Part
100
AcDbCircle
 10
-0.0749044253315177
 20
0.0573744027131227
 30
0.0
 40
0.03
100
AcDbArc
 50
311.8103148957871
 51
359.9999999999982
  0
LINE
  5
4632
330
4627
100
AcDbEntity
  8
Part
100
AcDbLine
 10
-0.0449044253315165
 20
0.0573744027131227
 30
0.0
 11
-0.0449044253315094
 21
0.1826530431631355
 31
0.0
  0
LINE
  5
4633
330
4627
100
AcDbEntity
  8
Part
100
AcDbLine
 10
-0.0156908289198725
 20
0.2950137229381298
 30
0.0
 11
0.0450955746684869
 21
0.2950137229381262
 31
0.0
  0
LINE
  5
4634
330
4627
100
AcDbEntity
  8
Part
100
AcDbLine
 10
0.0450955746684869
 20
-0.0549862770618717
 30
0.0
 11
-0.0156908289198725
 21
-0.0549862770618717
 31
0.0
  0
LINE
  5
4635
330
4627
100
AcDbEntity
  8
Part
100
AcDbLine
 10
-0.0549044253315074
 20
-0.0157726806502368
 30
0.0
 11
-0.0549044253315145
 21
0.0350137229381282
 31
0.0
  0
LINE
  5
4636
330
4627
100
AcDbEntity
  8
Part
100
AcDbLine
 10
-0.0549044253315074
 20
0.2050137229381264
 30
0.0
 11
-0.0549044253315074
 21
0.2558001265264913
 31
0.0
  0
CIRCLE
  5
4637
330
4627
100
AcDbEntity
  8
Part
100
AcDbCircle
 10
-0.0151562812166191
 20
0.2552241570040969
 30
0.0
 40
0.01
  0
CIRCLE
  5
4638
330
4627
100
AcDbEntity
  8
Part
100
AcDbCircle
 10
0.9052837141078811
 20
-0.0151329881895883
 30
0.0
 40
0.01
  0
CIRCLE
  5
4639
330
4627
100
AcDbEntity
  8
Part
100
AcDbCircle
 10
0.9052837141078882
 20
0.2552241570042213
 30
0.0
 40
0.01
  0
CIRCLE
  5
463A
330
4627
100
AcDbEntity
  8
Part
100
AcDbCircle
 10
0.9052837141078811
 20
-0.0151329881895883
 30
0.0
 40
0.01
  0
CIRCLE
  5
463B
330
4627
100
AcDbEntity
  8
Part
100
AcDbCircle
 10
0.9052837141078882
 20
0.2552241570042213
 30
0.0
 40
0.01
  0
ARC
  5
463C
330
4627
100
AcDbEntity
  8
Part
100
AcDbCircle
 10
0.9650955746684992
 20
0.3150137229381222
 30
0.0
 40
0.0625
100
AcDbArc
 50
198.6629248849423
 51
251.3370751150579
  0
ARC
  5
463D
330
4627
100
AcDbEntity
  8
Part
100
AcDbCircle
 10
0.9650955746684992
 20
-0.0749862770618748
 30
0.0
 40
0.0625
100
AcDbArc
 50
108.662924884942
 51
161.3370751150571
  0
ARC
  5
463E
330
4627
100
AcDbEntity
  8
Part
100
AcDbCircle
 10
0.8227348948935002
 20
-0.0749862770618748
 30
0.0
 40
0.03
100
AcDbArc
 50
41.8103148957791
 51
90.0
  0
ARC
  5
463F
330
4627
100
AcDbEntity
  8
Part
100
AcDbCircle
 10
0.8227348948935002
 20
0.3150137229381222
 30
0.0
 40
0.03
100
AcDbArc
 50
270.0
 51
318.1896851042209
  0
ARC
  5
4640
330
4627
100
AcDbEntity
  8
Part
100
AcDbCircle
 10
0.9650955746684992
 20
0.1826530431631319
 30
0.0
 40
0.03
100
AcDbArc
 50
131.8103148957876
 51
180.0000000000018
  0
ARC
  5
4641
330
4627
100
AcDbEntity
  8
Part
100
AcDbCircle
 10
0.9650955746684992
 20
0.0573744027131191
 30
0.0
 40
0.03
100
AcDbArc
 50
180.0000000000018
 51
228.1896851042125
  0
LINE
  5
4642
330
4627
100
AcDbEntity
  8
Part
100
AcDbLine
 10
0.9350955746684981
 20
0.0573744027131191
 30
0.0
 11
0.9350955746684981
 21
0.1826530431631319
 31
0.0
  0
LINE
  5
4643
330
4627
100
AcDbEntity
  8
Part
100
AcDbLine
 10
0.9058819782568576
 20
0.2950137229381262
 30
0.0
 11
0.8450955746684982
 21
0.2950137229381227
 31
0.0
  0
LINE
  5
4644
330
4627
100
AcDbEntity
  8
Part
100
AcDbLine
 10
0.8450955746684982
 20
-0.0549862770618752
 30
0.0
 11
0.9058819782568576
 21
-0.0549862770618752
 31
0.0
  0
LINE
  5
4645
330
4627
100
AcDbEntity
  8
Part
100
AcDbLine
 10
0.945095574668489
 20
-0.0157726806502403
 30
0.0
 11
0.9450955746685032
 21
0.0350137229381247
 31
0.0
  0
LINE
  5
4646
330
4627
100
AcDbEntity
  8
Part
100
AcDbLine
 10
0.945095574668489
 20
0.2050137229381228
 30
0.0
 11
0.945095574668489
 21
0.2558001265264878
 31
0.0
  0
LINE
  5
4647
330
4627
100
AcDbEntity
  8
Part
100
AcDbLine
 10
0.0674562544434849
 20
0.2850137229381264
 30
0.0
 11
0.8227348948935002
 21
0.2850137229381229
 31
0.0
  0
LINE
  5
4648
330
4627
100
AcDbEntity
  8
Part
100
AcDbLine
 10
0.8227348948935002
 20
-0.0449862770618754
 30
0.0
 11
0.0674562544434849
 21
-0.0449862770618719
 31
0.0
  0
LINE
  5
4649
330
4627
100
AcDbEntity
  8
Part
100
AcDbLine
 10
0.0300000000000083
 20
0.285063722938137
 30
0.0
 11
0.0300000000000011
 21
0.2100274458762961
 31
0.0
  0
LINE
  5
464A
330
4627
100
AcDbEntity
  8
Part
100
AcDbLine
 10
0.0
 20
0.0
 30
0.0
 11
-0.0499999999999972
 21
0.0000000000000036
 31
0.0
  0
LINE
  5
464B
330
4627
100
AcDbEntity
  8
Part
100
AcDbLine
 10
-0.0499999999999972
 20
0.0000000000000036
 30
0.0
 11
-0.0500000000000007
 21
-0.0176624635206633
 31
0.0
  0
LINE
  5
464C
330
4627
100
AcDbEntity
  8
Part
100
AcDbLine
 10
-0.017616241920031
 20
-0.0499999999999989
 30
0.0
 11
0.0
 21
-0.0500000000000007
 31
0.0
  0
LINE
  5
464D
330
4627
100
AcDbEntity
  8
Part
100
AcDbLine
 10
0.0
 20
-0.0500000000000007
 30
0.0
 11
0.0
 21
0.0
 31
0.0
  0
LINE
  5
464E
330
4627
100
AcDbEntity
  8
Part
100
AcDbLine
 10
0.0300000000000011
 20
0.0299999999999976
 30
0.0
 11
-0.0449681417771615
 21
0.0300000000000011
 31
0.0
  0
LINE
  5
464F
330
4627
100
AcDbEntity
  8
Part
100
AcDbLine
 10
0.0299999999999585
 20
-0.0450362770618327
 30
0.0
 11
0.0300000000000011
 21
0.0299999999999976
 31
0.0
  0
LINE
  5
4650
330
4627
100
AcDbEntity
  8
Part
100
AcDbLine
 10
0.8601274328913817
 20
0.2850637229381121
 30
0.0
 11
0.0300000000000083
 21
0.285063722938137
 31
0.0
  0
LINE
  5
4651
330
4627
100
AcDbEntity
  8
Part
100
AcDbLine
 10
-0.0449681417771615
 20
0.2100274458762925
 30
0.0
 11
-0.0449681417771615
 21
0.0300000000000011
 31
0.0
  0
LINE
  5
4652
330
4627
100
AcDbEntity
  8
Part
100
AcDbLine
 10
0.8601274328913746
 20
-0.0450362770618789
 30
0.0
 11
0.0299999999999585
 21
-0.0450362770618327
 31
0.0
  0
LINE
  5
4653
330
4627
100
AcDbEntity
  8
Part
100
AcDbLine
 10
0.0
 20
0.2400274458763008
 30
0.0
 11
-0.0499999999999972
 21
0.2400274458762972
 31
0.0
  0
LINE
  5
4654
330
4627
100
AcDbEntity
  8
Part
100
AcDbLine
 10
-0.0499999999999972
 20
0.2400274458762972
 30
0.0
 11
-0.0500000000000007
 21
0.2576899093969178
 31
0.0
  0
LINE
  5
4655
330
4627
100
AcDbEntity
  8
Part
100
AcDbLine
 10
-0.0176162419200097
 20
0.2900274458762997
 30
0.0
 11
0.0
 21
0.2900274458763015
 31
0.0
  0
LINE
  5
4656
330
4627
100
AcDbEntity
  8
Part
100
AcDbLine
 10
0.0
 20
0.2900274458763015
 30
0.0
 11
0.0
 21
0.2400274458763008
 31
0.0
  0
LINE
  5
4657
330
4627
100
AcDbEntity
  8
Part
100
AcDbLine
 10
0.0300000000000011
 20
0.2100274458762961
 30
0.0
 11
-0.0449681417771615
 21
0.2100274458762925
 31
0.0
  0
LINE
  5
4658
330
4627
100
AcDbEntity
  8
Part
100
AcDbLine
 10
0.860127432891339
 20
0.2850637229381121
 30
0.0
 11
0.8601274328913461
 21
0.2100274458762712
 31
0.0
  0
LINE
  5
4659
330
4627
100
AcDbEntity
  8
Part
100
AcDbLine
 10
0.8901274328913473
 20
-0.0000000000000249
 30
0.0
 11
0.940127432891348
 21
-0.0000000000000213
 31
0.0
  0
LINE
  5
465A
330
4627
100
AcDbEntity
  8
Part
100
AcDbLine
 10
0.940127432891348
 20
-0.0000000000000213
 30
0.0
 11
0.940127432891348
 21
-0.0176901873506559
 31
0.0
  0
LINE
  5
465B
330
4627
100
AcDbEntity
  8
Part
100
AcDbLine
 10
0.907807391257009
 20
-0.0500000000000238
 30
0.0
 11
0.8901274328913473
 21
-0.0500000000000256
 31
0.0
  0
LINE
  5
465C
330
4627
100
AcDbEntity
  8
Part
100
AcDbLine
 10
0.8901274328913473
 20
-0.0500000000000256
 30
0.0
 11
0.8901274328913473
 21
-0.0000000000000249
 31
0.0
  0
LINE
  5
465D
330
4627
100
AcDbEntity
  8
Part
100
AcDbLine
 10
0.8601274328913461
 20
0.0299999999999727
 30
0.0
 11
0.9350955746685123
 21
0.0299999999999763
 31
0.0
  0
LINE
  5
465E
330
4627
100
AcDbEntity
  8
Part
100
AcDbLine
 10
0.8601274328913959
 20
-0.0450362770618575
 30
0.0
 11
0.8601274328913461
 21
0.0299999999999727
 31
0.0
  0
LINE
  5
465F
330
4627
100
AcDbEntity
  8
Part
100
AcDbLine
 10
0.9350955746685123
 20
0.2100274458762676
 30
0.0
 11
0.9350955746685123
 21
0.0299999999999763
 31
0.0
  0
LINE
  5
4660
330
4627
100
AcDbEntity
  8
Part
100
AcDbLine
 10
0.8901274328913473
 20
0.2400274458762759
 30
0.0
 11
0.940127432891348
 21
0.2400274458762723
 31
0.0
  0
LINE
  5
4661
330
4627
100
AcDbEntity
  8
Part
100
AcDbLine
 10
0.940127432891348
 20
0.2400274458762723
 30
0.0
 11
0.940127432891348
 21
0.2577176332269033
 31
0.0
  0
LINE
  5
4662
330
4627
100
AcDbEntity
  8
Part
100
AcDbLine
 10
0.907807391257009
 20
0.2900274458762748
 30
0.0
 11
0.8901274328913473
 21
0.2900274458762766
 31
0.0
  0
LINE
  5
4663
330
4627
100
AcDbEntity
  8
Part
100
AcDbLine
 10
0.8901274328913473
 20
0.2900274458762766
 30
0.0
 11
0.8901274328913473
 21
0.2400274458762759
 31
0.0
  0
LINE
  5
4664
330
4627
100
AcDbEntity
  8
Part
100
AcDbLine
 10
0.8601274328913461
 20
0.2100274458762712
 30
0.0
 11
0.9350955746685123
 21
0.2100274458762676
 31
0.0
  0
MTEXT
  5
4665
330
4627
100
AcDbEntity
  8
Part
100
AcDbMText
 10
0.4450955746684926
 20
0.1199887229381282
 30
0.0
 40
0.035
 41
0.4375323116004495
 71
     5
 72
     5
  1
{\fArial|b0|i1|c0|p34;Innovative\PIPP-8007\P2500 - 6000 MHZ\P20dB}
  7
ARIAL
 73
     1
 44
1.0
1001
ACAD
1000
MTEXTBEGIN
1070
    73
1070
     1
1070
    44
1040
1.0
1070
    74
1070
     0
1000
MTEXTEND
1000
ACAD_MTEXT_DEFINED_HEIGHT_BEGIN
1070
    46
1040
0.2693599363347153
1000
ACAD_MTEXT_DEFINED_HEIGHT_END
  0
CIRCLE
  5
4666
330
4627
100
AcDbEntity
  8
Part
100
AcDbCircle
 10
0.2403137164456623
 20
0.2265796536727826
 30
0.0
 40
0.01
  0
CIRCLE
  5
4667
330
4627
100
AcDbEntity
  8
Part
100
AcDbCircle
 10
0.6498774328912376
 20
0.2265796536727826
 30
0.0
 40
0.01
  0
CIRCLE
  5
4668
330
4627
100
AcDbEntity
  8
Part
100
AcDbCircle
 10
0.24031371644557
 20
0.0134477922032623
 30
0.0
 40
0.01
  0
CIRCLE
  5
4669
330
4627
100
AcDbEntity
  8
Part
100
AcDbCircle
 10
0.6498774328911452
 20
0.0134477922029213
 30
0.0
 40
0.01
  0
ENDBLK
  5
466D
330
4627
100
AcDbEntity
  8
0
100
AcDbBlockEnd
  0
ENDSEC
  0
SECTION
  2
ENTITIES
  0
TEXT
  5
107
330
2
100
AcDbEntity
  8
PCB_OUTLINE
100
AcDbText
 10
25.07914636922405
 20
-1.708568871440165
 30
0.0
 40
0.0299327383810564
  1
PCB_OUTLINE
  7
ROMANS
100
AcDbText
  0
HATCH
  5
11E
330
2
100
AcDbEntity
  8
PCB_BOT
100
AcDbHatch
 10
0.0
 20
0.0
 30
0.0
210
0.0
220
0.0
230
1.0
  2
SOLID
 70
     1
 71
     0
 91
        3
 92
        7
 72
     1
 73
     1
 93
        3
 10
25.17994123401198
 20
-1.436412184248285
 42
0.0
 10
25.17994123401198
 20
-1.508682609820513
 42
0.1989123673796551
 10
25.23104414201335
 20
-1.487515092249639
 42
0.0
 97
        0
 92
        7
 72
     1
 73
     1
 93
        3
 10
25.25221165958421
 20
-1.436412184248285
 42
0.0
 10
25.17994123401198
 20
-1.436412184248289
 42
0.0
 10
25.23104414201335
 20
-1.487515092249644
 42
0.1989123673796482
 97
        0
 92
        7
 72
     1
 73
     1
 93
        3
 10
25.23104414201335
 20
-1.385309276246927
 42
0.0
 10
25.17994123401198
 20
-1.436412184248285
 42
0.0
 10
25.25221165958421
 20
-1.436412184248285
 42
0.1989123673796509
 97
        0
 75
     0
 76
     1
 47
0.0001896584045076
 98
        3
 10
25.20339072298212
 20
-1.477205967712975
 10
25.22882526575921
 20
-1.461274633490801
 10
25.22692719451124
 20
-1.43282585156055
  0
LINE
  5
11F
330
2
100
AcDbEntity
  8
PCB_BOT
100
AcDbLine
 10
25.10756002225305
 20
-1.508793396007215
 30
0.0
 11
25.25232244577092
 21
-1.364030972489347
 31
0.0
  0
LINE
  5
120
330
2
100
AcDbEntity
  8
PCB_BOT
100
AcDbLine
 10
25.10756002225305
 20
-1.364030972489347
 30
0.0
 11
25.25232244577092
 21
-1.508793396007223
 31
0.0
  0
HATCH
  5
121
330
2
100
AcDbEntity
  8
PCB_OUTLINE
100
AcDbHatch
 10
0.0
 20
0.0
 30
0.0
210
0.0
220
0.0
230
1.0
  2
SOLID
 70
     1
 71
     0
 91
        2
 92
        7
 72
     1
 73
     1
 93
        3
 10
25.17994123401199
 20
-1.436412184248274
 42
0.0
 10
25.12883832601062
 20
-1.487515092249644
 42
0.1989123673796946
 10
25.17994123401198
 20
-1.508682609820513
 42
0.0
 97
        0
 92
        7
 72
     1
 73
     1
 93
        3
 10
25.17994123401198
 20
-1.436412184248285
 42
0.0
 10
25.10767080843976
 20
-1.436412184248285
 42
0.1989123673796509
 10
25.12883832601062
 20
-1.487515092249644
 42
0.0
 97
        0
 75
     0
 76
     1
 47
0.0001896584045076
 98
        2
 10
25.16732688420284
 20
-1.488585453249695
 10
25.13202217690912
 20
-1.462033274938376
  0
LINE
  5
122
330
2
100
AcDbEntity
  8
PCB_OUTLINE
100
AcDbLine
 10
25.10756002225305
 20
-1.508793396007209
 30
0.0
 11
25.25232244577094
 21
-1.36403097248934
 31
0.0
  0
LINE
  5
123
330
2
100
AcDbEntity
  8
PCB_OUTLINE
100
AcDbLine
 10
25.10756002225307
 20
-1.36403097248934
 30
0.0
 11
25.25232244577094
 21
-1.508793396007215
 31
0.0
  0
LINE
  5
124
330
2
100
AcDbEntity
  8
PCB_TOP
100
AcDbLine
 10
25.10756002225307
 20
-1.36403097248934
 30
0.0
 11
25.25232244577094
 21
-1.508793396007215
 31
0.0
  0
LINE
  5
125
330
2
100
AcDbEntity
  8
PCB_TOP
100
AcDbLine
 10
25.10756002225305
 20
-1.508793396007209
 30
0.0
 11
25.25232244577094
 21
-1.36403097248934
 31
0.0
  0
CIRCLE
  5
126
330
2
100
AcDbEntity
  8
PCB_BOT
100
AcDbCircle
 10
25.17994123401201
 20
-1.436412184248293
 30
0.0
 40
0.0722704255722269
  0
CIRCLE
  5
127
330
2
100
AcDbEntity
  8
PCB_OUTLINE
100
AcDbCircle
 10
25.17994123401201
 20
-1.436412184248293
 30
0.0
 40
0.0722704255722269
  0
CIRCLE
  5
128
330
2
100
AcDbEntity
  8
PCB_TOP
100
AcDbCircle
 10
25.17994123401201
 20
-1.436412184248293
 30
0.0
 40
0.0722704255722269
  0
LINE
  5
129
330
2
100
AcDbEntity
  8
PCB_BOT
100
AcDbLine
 10
25.17994123401198
 20
-1.334049692917797
 30
0.0
 11
25.17994123401198
 21
-1.538774675578774
 31
0.0
  0
LINE
  5
12A
330
2
100
AcDbEntity
  8
PCB_OUTLINE
100
AcDbLine
 10
25.17994123401201
 20
-1.33404969291779
 30
0.0
 11
25.17994123401201
 21
-1.538774675578766
 31
0.0
  0
LINE
  5
12B
330
2
100
AcDbEntity
  8
PCB_TOP
100
AcDbLine
 10
25.17994123401201
 20
-1.33404969291779
 30
0.0
 11
25.17994123401201
 21
-1.538774675578766
 31
0.0
  0
TEXT
  5
12C
330
2
100
AcDbEntity
  8
PCB_TOP
100
AcDbText
 10
25.07914636922405
 20
-1.651755429224365
 30
0.0
 40
0.0299327383810564
  1
PCB_TOP
  7
ROMANS
100
AcDbText
  0
TEXT
  5
12D
330
2
100
AcDbEntity
  8
PCB_BOT
100
AcDbText
 10
25.07914636922405
 20
-1.767850893308458
 30
0.0
 40
0.0299327383810564
  1
PCB_BOT
  7
ROMANS
100
AcDbText
  0
LINE
  5
12E
330
2
100
AcDbEntity
  8
PCB_BOT
100
AcDbLine
 10
25.28230372534248
 20
-1.436412184248285
 30
0.0
 11
25.0775787426815
 21
-1.436412184248285
 31
0.0
  0
HATCH
  5
12F
330
2
100
AcDbEntity
  8
PCB_TOP
100
AcDbHatch
 10
0.0
 20
0.0
 30
0.0
210
0.0
220
0.0
230
1.0
  2
SOLID
 70
     1
 71
     0
 91
        3
 92
        7
 72
     1
 73
     1
 93
        3
 10
25.17994123401198
 20
-1.364141758676057
 42
0.1989123673796765
 10
25.12883832601062
 20
-1.385309276246924
 42
0.0
 10
25.17994123401198
 20
-1.436412184248285
 42
0.0
 97
        0
 92
        7
 72
     1
 73
     1
 93
        3
 10
25.12883832601062
 20
-1.385309276246924
 42
0.1989123673796716
 10
25.10767080843976
 20
-1.436412184248285
 42
0.0
 10
25.17994123401198
 20
-1.436412184248285
 42
0.0
 97
        0
 92
        7
 72
     1
 73
     1
 93
        3
 10
25.23104414201335
 20
-1.385309276246927
 42
0.1989123673796498
 10
25.17994123401198
 20
-1.364141758676057
 42
0.0
 10
25.17994123401198
 20
-1.436412184248279
 42
0.0
 97
        0
 75
     0
 76
     1
 47
0.0001896584045076
 98
        3
 10
25.1639103074497
 20
-1.38768716204899
 10
25.14075340166335
 20
-1.407032314696805
 10
25.19617800373306
 20
-1.402101213376013
  0
LINE
  5
130
330
2
100
AcDbEntity
  8
PCB_OUTLINE
100
AcDbLine
 10
25.28230372534248
 20
-1.436412184248279
 30
0.0
 11
25.07757874268153
 21
-1.436412184248279
 31
0.0
  0
LINE
  5
131
330
2
100
AcDbEntity
  8
PCB_TOP
100
AcDbLine
 10
25.28230372534248
 20
-1.436412184248279
 30
0.0
 11
25.07757874268153
 21
-1.436412184248279
 31
0.0
  0
HATCH
  5
1E6F
330
2
100
AcDbEntity
  8
PCB_BOT
100
AcDbHatch
 10
0.0
 20
0.0
 30
0.0
210
0.0
220
0.0
230
1.0
  2
SOLID
 70
     1
 71
     0
 91
        3
 92
        7
 72
     1
 73
     1
 93
        3
 10
23.17518881845965
 20
-1.436412184248293
 42
0.0
 10
23.17518881845965
 20
-1.508682609820519
 42
0.1989123673796551
 10
23.22629172646101
 20
-1.487515092249645
 42
0.0
 97
        0
 92
        7
 72
     1
 73
     1
 93
        3
 10
23.24745924403188
 20
-1.436412184248293
 42
0.0
 10
23.17518881845965
 20
-1.436412184248295
 42
0.0
 10
23.22629172646101
 20
-1.48751509224965
 42
0.1989123673796482
 97
        0
 92
        7
 72
     1
 73
     1
 93
        3
 10
23.22629172646101
 20
-1.385309276246935
 42
0.0
 10
23.17518881845965
 20
-1.436412184248293
 42
0.0
 10
23.24745924403188
 20
-1.436412184248293
 42
0.1989123673796509
 97
        0
 75
     0
 76
     1
 47
0.0001896584045076
 98
        3
 10
23.19863830742978
 20
-1.477205967712982
 10
23.22407285020687
 20
-1.461274633490809
 10
23.22217477895891
 20
-1.432825851560556
  0
LINE
  5
1E70
330
2
100
AcDbEntity
  8
PCB_BOT
100
AcDbLine
 10
23.10280760670072
 20
-1.508793396007221
 30
0.0
 11
23.24757003021859
 21
-1.364030972489354
 31
0.0
  0
LINE
  5
1E71
330
2
100
AcDbEntity
  8
PCB_BOT
100
AcDbLine
 10
23.10280760670072
 20
-1.364030972489354
 30
0.0
 11
23.24757003021859
 21
-1.508793396007229
 31
0.0
  0
HATCH
  5
1E72
330
2
100
AcDbEntity
  8
PCB_OUTLINE
100
AcDbHatch
 10
0.0
 20
0.0
 30
0.0
210
0.0
220
0.0
230
1.0
  2
SOLID
 70
     1
 71
     0
 91
        2
 92
        7
 72
     1
 73
     1
 93
        3
 10
23.17518881845966
 20
-1.436412184248282
 42
0.0
 10
23.12408591045828
 20
-1.48751509224965
 42
0.1989123673796946
 10
23.17518881845965
 20
-1.508682609820519
 42
0.0
 97
        0
 92
        7
 72
     1
 73
     1
 93
        3
 10
23.17518881845965
 20
-1.436412184248293
 42
0.0
 10
23.10291839288743
 20
-1.436412184248293
 42
0.1989123673796509
 10
23.12408591045828
 20
-1.48751509224965
 42
0.0
 97
        0
 75
     0
 76
     1
 47
0.0001896584045076
 98
        2
 10
23.1625744686505
 20
-1.488585453249703
 10
23.1272697613568
 20
-1.462033274938383
  0
LINE
  5
1E73
330
2
100
AcDbEntity
  8
PCB_OUTLINE
100
AcDbLine
 10
23.10280760670072
 20
-1.508793396007215
 30
0.0
 11
23.24757003021861
 21
-1.364030972489346
 31
0.0
  0
LINE
  5
1E74
330
2
100
AcDbEntity
  8
PCB_OUTLINE
100
AcDbLine
 10
23.10280760670073
 20
-1.364030972489346
 30
0.0
 11
23.24757003021861
 21
-1.508793396007221
 31
0.0
  0
LINE
  5
1E75
330
2
100
AcDbEntity
  8
PCB_TOP
100
AcDbLine
 10
23.10280760670073
 20
-1.364030972489346
 30
0.0
 11
23.24757003021861
 21
-1.508793396007221
 31
0.0
  0
LINE
  5
1E76
330
2
100
AcDbEntity
  8
PCB_TOP
100
AcDbLine
 10
23.10280760670072
 20
-1.508793396007215
 30
0.0
 11
23.24757003021861
 21
-1.364030972489346
 31
0.0
  0
CIRCLE
  5
1E77
330
2
100
AcDbEntity
  8
PCB_BOT
100
AcDbCircle
 10
23.17518881845967
 20
-1.4364121842483
 30
0.0
 40
0.0722704255722269
  0
CIRCLE
  5
1E78
330
2
100
AcDbEntity
  8
PCB_OUTLINE
100
AcDbCircle
 10
23.17518881845967
 20
-1.4364121842483
 30
0.0
 40
0.0722704255722269
  0
CIRCLE
  5
1E79
330
2
100
AcDbEntity
  8
PCB_TOP
100
AcDbCircle
 10
23.17518881845967
 20
-1.4364121842483
 30
0.0
 40
0.0722704255722269
  0
LINE
  5
1E7A
330
2
100
AcDbEntity
  8
PCB_BOT
100
AcDbLine
 10
23.17518881845965
 20
-1.334049692917804
 30
0.0
 11
23.17518881845965
 21
-1.538774675578781
 31
0.0
  0
LINE
  5
1E7B
330
2
100
AcDbEntity
  8
PCB_OUTLINE
100
AcDbLine
 10
23.17518881845967
 20
-1.334049692917797
 30
0.0
 11
23.17518881845967
 21
-1.538774675578773
 31
0.0
  0
LINE
  5
1E7C
330
2
100
AcDbEntity
  8
PCB_TOP
100
AcDbLine
 10
23.17518881845967
 20
-1.334049692917797
 30
0.0
 11
23.17518881845967
 21
-1.538774675578773
 31
0.0
  0
LINE
  5
1E7D
330
2
100
AcDbEntity
  8
PCB_BOT
100
AcDbLine
 10
23.27755130979015
 20
-1.436412184248293
 30
0.0
 11
23.07282632712917
 21
-1.436412184248293
 31
0.0
  0
HATCH
  5
1E7E
330
2
100
AcDbEntity
  8
PCB_TOP
100
AcDbHatch
 10
0.0
 20
0.0
 30
0.0
210
0.0
220
0.0
230
1.0
  2
SOLID
 70
     1
 71
     0
 91
        3
 92
        7
 72
     1
 73
     1
 93
        3
 10
23.17518881845965
 20
-1.364141758676064
 42
0.1989123673796765
 10
23.12408591045829
 20
-1.385309276246931
 42
0.0
 10
23.17518881845965
 20
-1.436412184248293
 42
0.0
 97
        0
 92
        7
 72
     1
 73
     1
 93
        3
 10
23.12408591045829
 20
-1.385309276246931
 42
0.1989123673796716
 10
23.10291839288743
 20
-1.436412184248293
 42
0.0
 10
23.17518881845965
 20
-1.436412184248293
 42
0.0
 97
        0
 92
        7
 72
     1
 73
     1
 93
        3
 10
23.22629172646101
 20
-1.385309276246935
 42
0.1989123673796498
 10
23.17518881845965
 20
-1.364141758676064
 42
0.0
 10
23.17518881845965
 20
-1.436412184248285
 42
0.0
 97
        0
 75
     0
 76
     1
 47
0.0001896584045076
 98
        3
 10
23.15915789189736
 20
-1.387687162048997
 10
23.13600098611102
 20
-1.407032314696812
 10
23.19142558818073
 20
-1.40210121337602
  0
LINE
  5
1E7F
330
2
100
AcDbEntity
  8
PCB_OUTLINE
100
AcDbLine
 10
23.27755130979015
 20
-1.436412184248285
 30
0.0
 11
23.07282632712918
 21
-1.436412184248285
 31
0.0
  0
LINE
  5
1E80
330
2
100
AcDbEntity
  8
PCB_TOP
100
AcDbLine
 10
23.27755130979015
 20
-1.436412184248285
 30
0.0
 11
23.07282632712918
 21
-1.436412184248285
 31
0.0
  0
LINE
  5
36C6
330
2
100
AcDbEntity
  8
PCB_BOT
100
AcDbLine
 10
23.40255130979015
 20
-0.9364303227792055
 30
0.0
 11
24.9525787426815
 21
-0.9364303227792303
 31
0.0
  0
LINE
  5
36C7
330
2
100
AcDbEntity
  8
PCB_BOT
100
AcDbLine
 10
24.9525787426815
 20
-0.9364303227792303
 30
0.0
 11
24.9525787426815
 21
-1.936394045717392
 31
0.0
  0
LINE
  5
36C8
330
2
100
AcDbEntity
  8
PCB_BOT
100
AcDbLine
 10
24.9525787426815
 20
-1.936394045717366
 30
0.0
 11
23.40255130979015
 21
-1.936394045717366
 31
0.0
  0
LINE
  5
36C9
330
2
100
AcDbEntity
  8
PCB_BOT
100
AcDbLine
 10
23.40255130979015
 20
-1.936394045717366
 30
0.0
 11
23.40255130979015
 21
-0.9364303227792055
 31
0.0
  0
LINE
  5
36CA
330
2
100
AcDbEntity
  8
PCB_OUTLINE
100
AcDbLine
 10
23.40255130979015
 20
-0.9364303227792055
 30
0.0
 11
24.9525787426815
 21
-0.9364303227792303
 31
0.0
  0
LINE
  5
36CB
330
2
100
AcDbEntity
  8
PCB_OUTLINE
100
AcDbLine
 10
24.9525787426815
 20
-0.9364303227792303
 30
0.0
 11
24.9525787426815
 21
-1.936394045717392
 31
0.0
  0
LINE
  5
36CC
330
2
100
AcDbEntity
  8
PCB_OUTLINE
100
AcDbLine
 10
24.9521287426815
 20
-1.936394045717392
 30
0.0
 11
23.40255130979015
 21
-1.936394045717366
 31
0.0
  0
LINE
  5
36CD
330
2
100
AcDbEntity
  8
PCB_OUTLINE
100
AcDbLine
 10
23.40255130979015
 20
-1.936394045717366
 30
0.0
 11
23.40255130979015
 21
-0.9364303227792055
 31
0.0
  0
LINE
  5
36CE
330
2
100
AcDbEntity
  8
PCB_TOP
100
AcDbLine
 10
23.80750130979015
 20
-1.936394045717366
 30
0.0
 11
23.80750130979015
 21
-1.606444045717369
 31
0.0
  0
LINE
  5
36CF
330
2
100
AcDbEntity
  8
PCB_TOP
100
AcDbLine
 10
23.73250130979015
 20
-1.906894045717368
 30
0.0
 11
23.73250130979015
 21
-1.55644404571737
 31
0.0
  0
LINE
  5
36D0
330
2
100
AcDbEntity
  8
PCB_TOP
100
AcDbLine
 10
23.73250130979015
 20
-1.55644404571737
 30
0.0
 11
23.67350130979016
 21
-1.556444045717368
 31
0.0
  0
LINE
  5
36D1
330
2
100
AcDbEntity
  8
PCB_TOP
100
AcDbLine
 10
23.67350130979016
 20
-1.556444045717368
 30
0.0
 11
23.67350130979015
 21
-1.906894045717368
 31
0.0
  0
ARC
  5
36D2
330
2
100
AcDbEntity
  8
PCB_TOP
100
AcDbCircle
 10
23.70300130979016
 20
-1.906894045717368
 30
0.0
 40
0.0295
100
AcDbArc
 50
180.0
 51
0.0
  0
LINE
  5
36D3
330
2
100
AcDbEntity
  8
PCB_TOP
100
AcDbLine
 10
24.6226287426815
 20
-1.906894045717393
 30
0.0
 11
24.6226287426815
 21
-1.556444045717394
 31
0.0
  0
LINE
  5
36D4
330
2
100
AcDbEntity
  8
PCB_TOP
100
AcDbLine
 10
24.6226287426815
 20
-1.556444045717394
 30
0.0
 11
24.68162874268152
 21
-1.556444045717393
 31
0.0
  0
LINE
  5
36D5
330
2
100
AcDbEntity
  8
PCB_TOP
100
AcDbLine
 10
24.68162874268152
 20
-1.556444045717393
 30
0.0
 11
24.68162874268149
 21
-1.906894045717393
 31
0.0
  0
ARC
  5
36D6
330
2
100
AcDbEntity
  8
PCB_TOP
100
AcDbCircle
 10
24.6521287426815
 20
-1.906894045717393
 30
0.0
 40
0.0295
100
AcDbArc
 50
180.0
 51
0.0
  0
LINE
  5
36D7
330
2
100
AcDbEntity
  8
PCB_TOP
100
AcDbLine
 10
23.76250130979015
 20
-1.606444045717369
 30
0.0
 11
23.76250130979015
 21
-1.526444045717368
 31
0.0
  0
LINE
  5
36D8
330
2
100
AcDbEntity
  8
PCB_TOP
100
AcDbLine
 10
23.76250130979015
 20
-1.606444045717369
 30
0.0
 11
23.80750130979015
 21
-1.606444045717369
 31
0.0
  0
LINE
  5
36D9
330
2
100
AcDbEntity
  8
PCB_TOP
100
AcDbLine
 10
23.59850130979015
 20
-1.526444045717368
 30
0.0
 11
23.76250130979015
 21
-1.526444045717368
 31
0.0
  0
LINE
  5
36DA
330
2
100
AcDbEntity
  8
PCB_TOP
100
AcDbLine
 10
23.59850130979015
 20
-1.936394045717366
 30
0.0
 11
23.59850130979015
 21
-1.526444045717368
 31
0.0
  0
LINE
  5
36DB
330
2
100
AcDbEntity
  8
PCB_TOP
100
AcDbLine
 10
23.80750130979015
 20
-0.9364303227792055
 30
0.0
 11
23.80750130979015
 21
-1.266380322779204
 31
0.0
  0
LINE
  5
36DC
330
2
100
AcDbEntity
  8
PCB_TOP
100
AcDbLine
 10
23.76250130979016
 20
-1.266380322779204
 30
0.0
 11
23.76250130979016
 21
-1.346380322779204
 31
0.0
  0
LINE
  5
36DD
330
2
100
AcDbEntity
  8
PCB_TOP
100
AcDbLine
 10
23.76250130979016
 20
-1.266380322779204
 30
0.0
 11
23.80750130979015
 21
-1.266380322779204
 31
0.0
  0
LINE
  5
36DE
330
2
100
AcDbEntity
  8
PCB_TOP
100
AcDbLine
 10
23.59850130979015
 20
-1.346380322779204
 30
0.0
 11
23.76250130979016
 21
-1.346380322779204
 31
0.0
  0
LINE
  5
36DF
330
2
100
AcDbEntity
  8
PCB_TOP
100
AcDbLine
 10
23.59850130979015
 20
-0.9364303227792055
 30
0.0
 11
23.59850130979015
 21
-1.346380322779204
 31
0.0
  0
LINE
  5
36E0
330
2
100
AcDbEntity
  8
PCB_TOP
100
AcDbLine
 10
23.73250130979016
 20
-0.9659303227792044
 30
0.0
 11
23.73250130979016
 21
-1.316380322779204
 31
0.0
  0
LINE
  5
36E1
330
2
100
AcDbEntity
  8
PCB_TOP
100
AcDbLine
 10
23.73250130979016
 20
-1.316380322779204
 30
0.0
 11
23.67350130979015
 21
-1.316380322779206
 31
0.0
  0
LINE
  5
36E2
330
2
100
AcDbEntity
  8
PCB_TOP
100
AcDbLine
 10
23.67350130979015
 20
-1.316380322779206
 30
0.0
 11
23.67350130979015
 21
-0.9659303227792044
 31
0.0
  0
ARC
  5
36E3
330
2
100
AcDbEntity
  8
PCB_TOP
100
AcDbCircle
 10
23.70300130979016
 20
-0.9659303227792044
 30
0.0
 40
0.0295
100
AcDbArc
 50
0.0
 51
180.0
  0
LINE
  5
36E4
330
2
100
AcDbEntity
  8
PCB_TOP
100
AcDbLine
 10
24.6226287426815
 20
-0.9659303227792291
 30
0.0
 11
24.6226287426815
 21
-1.316380322779229
 31
0.0
  0
LINE
  5
36E5
330
2
100
AcDbEntity
  8
PCB_TOP
100
AcDbLine
 10
24.6226287426815
 20
-1.316380322779229
 30
0.0
 11
24.68162874268149
 21
-1.316380322779229
 31
0.0
  0
LINE
  5
36E6
330
2
100
AcDbEntity
  8
PCB_TOP
100
AcDbLine
 10
24.68162874268149
 20
-1.316380322779229
 30
0.0
 11
24.6816287426815
 21
-0.9659303227792291
 31
0.0
  0
ARC
  5
36E7
330
2
100
AcDbEntity
  8
PCB_TOP
100
AcDbCircle
 10
24.6521287426815
 20
-0.9659303227792291
 30
0.0
 40
0.0295
100
AcDbArc
 50
0.0
 51
180.0
  0
LINE
  5
36E8
330
2
100
AcDbEntity
  8
PCB_TOP
100
AcDbLine
 10
24.5476287426815
 20
-1.936394045717392
 30
0.0
 11
24.5476287426815
 21
-1.606444045717394
 31
0.0
  0
LINE
  5
36E9
330
2
100
AcDbEntity
  8
PCB_TOP
100
AcDbLine
 10
24.5926287426815
 20
-1.606444045717394
 30
0.0
 11
24.5926287426815
 21
-1.526444045717394
 31
0.0
  0
LINE
  5
36EA
330
2
100
AcDbEntity
  8
PCB_TOP
100
AcDbLine
 10
24.5926287426815
 20
-1.606444045717394
 30
0.0
 11
24.5476287426815
 21
-1.606444045717394
 31
0.0
  0
LINE
  5
36EB
330
2
100
AcDbEntity
  8
PCB_TOP
100
AcDbLine
 10
24.7566287426815
 20
-1.526444045717394
 30
0.0
 11
24.5926287426815
 21
-1.526444045717394
 31
0.0
  0
LINE
  5
36EC
330
2
100
AcDbEntity
  8
PCB_TOP
100
AcDbLine
 10
24.7566287426815
 20
-1.936394045717392
 30
0.0
 11
24.7566287426815
 21
-1.526444045717394
 31
0.0
  0
LINE
  5
36ED
330
2
100
AcDbEntity
  8
PCB_TOP
100
AcDbLine
 10
24.5476287426815
 20
-0.9364303227792303
 30
0.0
 11
24.5476287426815
 21
-1.266380322779228
 31
0.0
  0
LINE
  5
36EE
330
2
100
AcDbEntity
  8
PCB_TOP
100
AcDbLine
 10
24.5926287426815
 20
-1.266380322779228
 30
0.0
 11
24.5926287426815
 21
-1.346380322779229
 31
0.0
  0
LINE
  5
36EF
330
2
100
AcDbEntity
  8
PCB_TOP
100
AcDbLine
 10
24.5926287426815
 20
-1.266380322779228
 30
0.0
 11
24.5476287426815
 21
-1.266380322779228
 31
0.0
  0
LINE
  5
36F0
330
2
100
AcDbEntity
  8
PCB_TOP
100
AcDbLine
 10
24.7566287426815
 20
-1.346380322779229
 30
0.0
 11
24.5926287426815
 21
-1.346380322779229
 31
0.0
  0
LINE
  5
36F1
330
2
100
AcDbEntity
  8
PCB_TOP
100
AcDbLine
 10
24.7566287426815
 20
-0.9364303227792303
 30
0.0
 11
24.7566287426815
 21
-1.346380322779229
 31
0.0
  0
LINE
  5
36F2
330
2
100
AcDbEntity
  8
PCB_TOP
100
AcDbLine
 10
23.59850130979015
 20
-0.9364303227792055
 30
0.0
 11
23.40255130979015
 21
-0.9364303227792055
 31
0.0
  0
LINE
  5
36F3
330
2
100
AcDbEntity
  8
PCB_TOP
100
AcDbLine
 10
23.40255130979015
 20
-0.9364303227792055
 30
0.0
 11
23.40255130979015
 21
-1.936394045717366
 31
0.0
  0
LINE
  5
36F4
330
2
100
AcDbEntity
  8
PCB_TOP
100
AcDbLine
 10
23.40255130979015
 20
-1.936394045717366
 30
0.0
 11
23.59850130979015
 21
-1.936394045717366
 31
0.0
  0
LINE
  5
36F5
330
2
100
AcDbEntity
  8
PCB_TOP
100
AcDbLine
 10
23.80750130979015
 20
-1.936394045717366
 30
0.0
 11
24.5476287426815
 21
-1.936394045717392
 31
0.0
  0
LINE
  5
36F6
330
2
100
AcDbEntity
  8
PCB_TOP
100
AcDbLine
 10
24.7566287426815
 20
-1.936394045717392
 30
0.0
 11
24.9521287426815
 21
-1.936394045717392
 31
0.0
  0
LINE
  5
36F7
330
2
100
AcDbEntity
  8
PCB_TOP
100
AcDbLine
 10
24.9525787426815
 20
-1.936394045717392
 30
0.0
 11
24.9525787426815
 21
-0.9364303227792303
 31
0.0
  0
LINE
  5
36F8
330
2
100
AcDbEntity
  8
PCB_TOP
100
AcDbLine
 10
24.9525787426815
 20
-0.9364303227792303
 30
0.0
 11
24.7566287426815
 21
-0.9364303227792303
 31
0.0
  0
LINE
  5
36F9
330
2
100
AcDbEntity
  8
PCB_TOP
100
AcDbLine
 10
24.5476287426815
 20
-0.9364303227792303
 30
0.0
 11
23.80750130979015
 21
-0.9364303227792055
 31
0.0
  0
CIRCLE
  5
36FA
330
2
100
AcDbEntity
  8
PCB_OUTLINE
100
AcDbCircle
 10
24.5771287426815
 20
-1.286380322779228
 30
0.0
 40
0.01
  0
CIRCLE
  5
36FB
330
2
100
AcDbEntity
  8
PCB_OUTLINE
100
AcDbCircle
 10
24.5771287426815
 20
-1.336380322779227
 30
0.0
 40
0.01
  0
CIRCLE
  5
36FC
330
2
100
AcDbEntity
  8
PCB_OUTLINE
100
AcDbCircle
 10
24.5771287426815
 20
-1.536444045717393
 30
0.0
 40
0.01
  0
CIRCLE
  5
36FD
330
2
100
AcDbEntity
  8
PCB_OUTLINE
100
AcDbCircle
 10
24.5771287426815
 20
-1.586444045717394
 30
0.0
 40
0.01
  0
CIRCLE
  5
36FE
330
2
100
AcDbEntity
  8
PCB_OUTLINE
100
AcDbCircle
 10
24.5271287426815
 20
-1.16138032277923
 30
0.0
 40
0.01
  0
CIRCLE
  5
36FF
330
2
100
AcDbEntity
  8
PCB_OUTLINE
100
AcDbCircle
 10
24.5271287426815
 20
-1.211380322779231
 30
0.0
 40
0.01
  0
CIRCLE
  5
3700
330
2
100
AcDbEntity
  8
PCB_OUTLINE
100
AcDbCircle
 10
24.5271287426815
 20
-1.261380322779229
 30
0.0
 40
0.01
  0
CIRCLE
  5
3701
330
2
100
AcDbEntity
  8
PCB_OUTLINE
100
AcDbCircle
 10
24.5271287426815
 20
-1.31138032277923
 30
0.0
 40
0.01
  0
CIRCLE
  5
3702
330
2
100
AcDbEntity
  8
PCB_OUTLINE
100
AcDbCircle
 10
24.5271287426815
 20
-1.361380322779228
 30
0.0
 40
0.01
  0
CIRCLE
  5
3703
330
2
100
AcDbEntity
  8
PCB_OUTLINE
100
AcDbCircle
 10
24.52712874268149
 20
-1.561444045717395
 30
0.0
 40
0.01
  0
CIRCLE
  5
3704
330
2
100
AcDbEntity
  8
PCB_OUTLINE
100
AcDbCircle
 10
24.52712874268149
 20
-1.611444045717396
 30
0.0
 40
0.01
  0
CIRCLE
  5
3705
330
2
100
AcDbEntity
  8
PCB_OUTLINE
100
AcDbCircle
 10
24.52712874268149
 20
-1.661444045717397
 30
0.0
 40
0.01
  0
CIRCLE
  5
3706
330
2
100
AcDbEntity
  8
PCB_OUTLINE
100
AcDbCircle
 10
24.52712874268149
 20
-1.711444045717396
 30
0.0
 40
0.01
  0
CIRCLE
  5
3707
330
2
100
AcDbEntity
  8
PCB_OUTLINE
100
AcDbCircle
 10
24.52712874268149
 20
-1.761444045717396
 30
0.0
 40
0.01
  0
CIRCLE
  5
3708
330
2
100
AcDbEntity
  8
PCB_OUTLINE
100
AcDbCircle
 10
24.52712874268149
 20
-1.811444045717396
 30
0.0
 40
0.01
  0
CIRCLE
  5
3709
330
2
100
AcDbEntity
  8
PCB_OUTLINE
100
AcDbCircle
 10
24.02800130979015
 20
-1.161380322779205
 30
0.0
 40
0.01
  0
CIRCLE
  5
370A
330
2
100
AcDbEntity
  8
PCB_OUTLINE
100
AcDbCircle
 10
24.02800130979015
 20
-1.211380322779205
 30
0.0
 40
0.01
  0
CIRCLE
  5
370B
330
2
100
AcDbEntity
  8
PCB_OUTLINE
100
AcDbCircle
 10
24.02800130979015
 20
-1.261380322779205
 30
0.0
 40
0.01
  0
CIRCLE
  5
370C
330
2
100
AcDbEntity
  8
PCB_OUTLINE
100
AcDbCircle
 10
24.02800130979015
 20
-1.311380322779205
 30
0.0
 40
0.01
  0
CIRCLE
  5
370D
330
2
100
AcDbEntity
  8
PCB_OUTLINE
100
AcDbCircle
 10
24.02800130979015
 20
-1.361380322779204
 30
0.0
 40
0.01
  0
CIRCLE
  5
370E
330
2
100
AcDbEntity
  8
PCB_OUTLINE
100
AcDbCircle
 10
24.02800130979015
 20
-1.56144404571737
 30
0.0
 40
0.01
  0
CIRCLE
  5
370F
330
2
100
AcDbEntity
  8
PCB_OUTLINE
100
AcDbCircle
 10
24.02800130979015
 20
-1.61144404571737
 30
0.0
 40
0.01
  0
CIRCLE
  5
3710
330
2
100
AcDbEntity
  8
PCB_OUTLINE
100
AcDbCircle
 10
24.02800130979015
 20
-1.66144404571737
 30
0.0
 40
0.01
  0
CIRCLE
  5
3711
330
2
100
AcDbEntity
  8
PCB_OUTLINE
100
AcDbCircle
 10
24.02800130979015
 20
-1.71144404571737
 30
0.0
 40
0.01
  0
CIRCLE
  5
3712
330
2
100
AcDbEntity
  8
PCB_OUTLINE
100
AcDbCircle
 10
24.02800130979015
 20
-1.76144404571737
 30
0.0
 40
0.01
  0
CIRCLE
  5
3713
330
2
100
AcDbEntity
  8
PCB_OUTLINE
100
AcDbCircle
 10
24.02800130979015
 20
-1.81144404571737
 30
0.0
 40
0.01
  0
CIRCLE
  5
3714
330
2
100
AcDbEntity
  8
PCB_OUTLINE
100
AcDbCircle
 10
23.97800130979016
 20
-1.161380322779205
 30
0.0
 40
0.01
  0
CIRCLE
  5
3715
330
2
100
AcDbEntity
  8
PCB_OUTLINE
100
AcDbCircle
 10
23.97800130979016
 20
-1.211380322779205
 30
0.0
 40
0.01
  0
CIRCLE
  5
3716
330
2
100
AcDbEntity
  8
PCB_OUTLINE
100
AcDbCircle
 10
23.97800130979016
 20
-1.261380322779205
 30
0.0
 40
0.01
  0
CIRCLE
  5
3717
330
2
100
AcDbEntity
  8
PCB_OUTLINE
100
AcDbCircle
 10
23.97800130979016
 20
-1.311380322779205
 30
0.0
 40
0.01
  0
CIRCLE
  5
3718
330
2
100
AcDbEntity
  8
PCB_OUTLINE
100
AcDbCircle
 10
23.97800130979016
 20
-1.361380322779204
 30
0.0
 40
0.01
  0
CIRCLE
  5
3719
330
2
100
AcDbEntity
  8
PCB_OUTLINE
100
AcDbCircle
 10
23.97800130979015
 20
-1.56144404571737
 30
0.0
 40
0.01
  0
CIRCLE
  5
371A
330
2
100
AcDbEntity
  8
PCB_OUTLINE
100
AcDbCircle
 10
23.97800130979015
 20
-1.61144404571737
 30
0.0
 40
0.01
  0
CIRCLE
  5
371B
330
2
100
AcDbEntity
  8
PCB_OUTLINE
100
AcDbCircle
 10
23.97800130979015
 20
-1.66144404571737
 30
0.0
 40
0.01
  0
CIRCLE
  5
371C
330
2
100
AcDbEntity
  8
PCB_OUTLINE
100
AcDbCircle
 10
23.97800130979015
 20
-1.71144404571737
 30
0.0
 40
0.01
  0
CIRCLE
  5
371D
330
2
100
AcDbEntity
  8
PCB_OUTLINE
100
AcDbCircle
 10
23.97800130979015
 20
-1.76144404571737
 30
0.0
 40
0.01
  0
CIRCLE
  5
371E
330
2
100
AcDbEntity
  8
PCB_OUTLINE
100
AcDbCircle
 10
23.97800130979015
 20
-1.81144404571737
 30
0.0
 40
0.01
  0
CIRCLE
  5
371F
330
2
100
AcDbEntity
  8
PCB_OUTLINE
100
AcDbCircle
 10
23.92800130979015
 20
-1.161380322779205
 30
0.0
 40
0.01
  0
CIRCLE
  5
3720
330
2
100
AcDbEntity
  8
PCB_OUTLINE
100
AcDbCircle
 10
23.92800130979015
 20
-1.211380322779205
 30
0.0
 40
0.01
  0
CIRCLE
  5
3721
330
2
100
AcDbEntity
  8
PCB_OUTLINE
100
AcDbCircle
 10
23.92800130979015
 20
-1.261380322779205
 30
0.0
 40
0.01
  0
CIRCLE
  5
3722
330
2
100
AcDbEntity
  8
PCB_OUTLINE
100
AcDbCircle
 10
23.92800130979015
 20
-1.311380322779205
 30
0.0
 40
0.01
  0
CIRCLE
  5
3723
330
2
100
AcDbEntity
  8
PCB_OUTLINE
100
AcDbCircle
 10
23.92800130979015
 20
-1.361380322779204
 30
0.0
 40
0.01
  0
CIRCLE
  5
3724
330
2
100
AcDbEntity
  8
PCB_OUTLINE
100
AcDbCircle
 10
23.92800130979015
 20
-1.56144404571737
 30
0.0
 40
0.01
  0
CIRCLE
  5
3725
330
2
100
AcDbEntity
  8
PCB_OUTLINE
100
AcDbCircle
 10
23.92800130979015
 20
-1.61144404571737
 30
0.0
 40
0.01
  0
CIRCLE
  5
3726
330
2
100
AcDbEntity
  8
PCB_OUTLINE
100
AcDbCircle
 10
23.92800130979015
 20
-1.66144404571737
 30
0.0
 40
0.01
  0
CIRCLE
  5
3727
330
2
100
AcDbEntity
  8
PCB_OUTLINE
100
AcDbCircle
 10
23.92800130979015
 20
-1.71144404571737
 30
0.0
 40
0.01
  0
CIRCLE
  5
3728
330
2
100
AcDbEntity
  8
PCB_OUTLINE
100
AcDbCircle
 10
23.92800130979015
 20
-1.76144404571737
 30
0.0
 40
0.01
  0
CIRCLE
  5
3729
330
2
100
AcDbEntity
  8
PCB_OUTLINE
100
AcDbCircle
 10
23.92800130979015
 20
-1.81144404571737
 30
0.0
 40
0.01
  0
CIRCLE
  5
372A
330
2
100
AcDbEntity
  8
PCB_OUTLINE
100
AcDbCircle
 10
23.87800130979016
 20
-1.161380322779205
 30
0.0
 40
0.01
  0
CIRCLE
  5
372B
330
2
100
AcDbEntity
  8
PCB_OUTLINE
100
AcDbCircle
 10
23.87800130979016
 20
-1.211380322779205
 30
0.0
 40
0.01
  0
CIRCLE
  5
372C
330
2
100
AcDbEntity
  8
PCB_OUTLINE
100
AcDbCircle
 10
23.87800130979016
 20
-1.261380322779205
 30
0.0
 40
0.01
  0
CIRCLE
  5
372D
330
2
100
AcDbEntity
  8
PCB_OUTLINE
100
AcDbCircle
 10
23.87800130979016
 20
-1.311380322779205
 30
0.0
 40
0.01
  0
CIRCLE
  5
372E
330
2
100
AcDbEntity
  8
PCB_OUTLINE
100
AcDbCircle
 10
23.87800130979016
 20
-1.361380322779204
 30
0.0
 40
0.01
  0
CIRCLE
  5
372F
330
2
100
AcDbEntity
  8
PCB_OUTLINE
100
AcDbCircle
 10
23.87800130979016
 20
-1.56144404571737
 30
0.0
 40
0.01
  0
CIRCLE
  5
3730
330
2
100
AcDbEntity
  8
PCB_OUTLINE
100
AcDbCircle
 10
23.87800130979016
 20
-1.61144404571737
 30
0.0
 40
0.01
  0
CIRCLE
  5
3731
330
2
100
AcDbEntity
  8
PCB_OUTLINE
100
AcDbCircle
 10
23.87800130979016
 20
-1.66144404571737
 30
0.0
 40
0.01
  0
CIRCLE
  5
3732
330
2
100
AcDbEntity
  8
PCB_OUTLINE
100
AcDbCircle
 10
23.87800130979016
 20
-1.71144404571737
 30
0.0
 40
0.01
  0
CIRCLE
  5
3733
330
2
100
AcDbEntity
  8
PCB_OUTLINE
100
AcDbCircle
 10
23.87800130979016
 20
-1.76144404571737
 30
0.0
 40
0.01
  0
CIRCLE
  5
3734
330
2
100
AcDbEntity
  8
PCB_OUTLINE
100
AcDbCircle
 10
23.87800130979016
 20
-1.81144404571737
 30
0.0
 40
0.01
  0
CIRCLE
  5
3735
330
2
100
AcDbEntity
  8
PCB_OUTLINE
100
AcDbCircle
 10
23.82800130979016
 20
-1.161380322779205
 30
0.0
 40
0.01
  0
CIRCLE
  5
3736
330
2
100
AcDbEntity
  8
PCB_OUTLINE
100
AcDbCircle
 10
23.82800130979016
 20
-1.211380322779205
 30
0.0
 40
0.01
  0
CIRCLE
  5
3737
330
2
100
AcDbEntity
  8
PCB_OUTLINE
100
AcDbCircle
 10
23.82800130979016
 20
-1.261380322779205
 30
0.0
 40
0.01
  0
CIRCLE
  5
3738
330
2
100
AcDbEntity
  8
PCB_OUTLINE
100
AcDbCircle
 10
23.82800130979016
 20
-1.311380322779205
 30
0.0
 40
0.01
  0
CIRCLE
  5
3739
330
2
100
AcDbEntity
  8
PCB_OUTLINE
100
AcDbCircle
 10
23.82800130979016
 20
-1.361380322779204
 30
0.0
 40
0.01
  0
CIRCLE
  5
373A
330
2
100
AcDbEntity
  8
PCB_OUTLINE
100
AcDbCircle
 10
23.82800130979015
 20
-1.56144404571737
 30
0.0
 40
0.01
  0
CIRCLE
  5
373B
330
2
100
AcDbEntity
  8
PCB_OUTLINE
100
AcDbCircle
 10
23.82800130979015
 20
-1.61144404571737
 30
0.0
 40
0.01
  0
CIRCLE
  5
373C
330
2
100
AcDbEntity
  8
PCB_OUTLINE
100
AcDbCircle
 10
23.82800130979015
 20
-1.66144404571737
 30
0.0
 40
0.01
  0
CIRCLE
  5
373D
330
2
100
AcDbEntity
  8
PCB_OUTLINE
100
AcDbCircle
 10
23.82800130979015
 20
-1.71144404571737
 30
0.0
 40
0.01
  0
CIRCLE
  5
373E
330
2
100
AcDbEntity
  8
PCB_OUTLINE
100
AcDbCircle
 10
23.82800130979015
 20
-1.76144404571737
 30
0.0
 40
0.01
  0
CIRCLE
  5
373F
330
2
100
AcDbEntity
  8
PCB_OUTLINE
100
AcDbCircle
 10
23.82800130979015
 20
-1.81144404571737
 30
0.0
 40
0.01
  0
CIRCLE
  5
3740
330
2
100
AcDbEntity
  8
PCB_OUTLINE
100
AcDbCircle
 10
23.77800130979015
 20
-1.286380322779202
 30
0.0
 40
0.01
  0
CIRCLE
  5
3741
330
2
100
AcDbEntity
  8
PCB_OUTLINE
100
AcDbCircle
 10
23.77800130979015
 20
-1.336380322779202
 30
0.0
 40
0.01
  0
CIRCLE
  5
3742
330
2
100
AcDbEntity
  8
PCB_OUTLINE
100
AcDbCircle
 10
23.77800130979014
 20
-1.53644404571737
 30
0.0
 40
0.01
  0
CIRCLE
  5
3743
330
2
100
AcDbEntity
  8
PCB_OUTLINE
100
AcDbCircle
 10
23.77800130979014
 20
-1.586444045717368
 30
0.0
 40
0.01
  0
CIRCLE
  5
3744
330
2
100
AcDbEntity
  8
PCB_OUTLINE
100
AcDbCircle
 10
23.57575130979015
 20
-1.111380322779204
 30
0.0
 40
0.01
  0
CIRCLE
  5
3745
330
2
100
AcDbEntity
  8
PCB_OUTLINE
100
AcDbCircle
 10
23.57575130979015
 20
-1.161380322779205
 30
0.0
 40
0.01
  0
CIRCLE
  5
3746
330
2
100
AcDbEntity
  8
PCB_OUTLINE
100
AcDbCircle
 10
23.57575130979015
 20
-1.211380322779205
 30
0.0
 40
0.01
  0
CIRCLE
  5
3747
330
2
100
AcDbEntity
  8
PCB_OUTLINE
100
AcDbCircle
 10
23.57575130979015
 20
-1.261380322779205
 30
0.0
 40
0.01
  0
CIRCLE
  5
3748
330
2
100
AcDbEntity
  8
PCB_OUTLINE
100
AcDbCircle
 10
23.57575130979015
 20
-1.311380322779204
 30
0.0
 40
0.01
  0
CIRCLE
  5
3749
330
2
100
AcDbEntity
  8
PCB_OUTLINE
100
AcDbCircle
 10
23.57575130979015
 20
-1.51144404571737
 30
0.0
 40
0.01
  0
CIRCLE
  5
374A
330
2
100
AcDbEntity
  8
PCB_OUTLINE
100
AcDbCircle
 10
23.57575130979015
 20
-1.56144404571737
 30
0.0
 40
0.01
  0
CIRCLE
  5
374B
330
2
100
AcDbEntity
  8
PCB_OUTLINE
100
AcDbCircle
 10
23.57575130979015
 20
-1.61144404571737
 30
0.0
 40
0.01
  0
CIRCLE
  5
374C
330
2
100
AcDbEntity
  8
PCB_OUTLINE
100
AcDbCircle
 10
23.57575130979015
 20
-1.66144404571737
 30
0.0
 40
0.01
  0
CIRCLE
  5
374D
330
2
100
AcDbEntity
  8
PCB_OUTLINE
100
AcDbCircle
 10
23.57575130979015
 20
-1.71144404571737
 30
0.0
 40
0.01
  0
CIRCLE
  5
374E
330
2
100
AcDbEntity
  8
PCB_OUTLINE
100
AcDbCircle
 10
23.57575130979015
 20
-1.76144404571737
 30
0.0
 40
0.01
  0
CIRCLE
  5
374F
330
2
100
AcDbEntity
  8
PCB_OUTLINE
100
AcDbCircle
 10
23.52575130979015
 20
-1.111380322779204
 30
0.0
 40
0.01
  0
CIRCLE
  5
3750
330
2
100
AcDbEntity
  8
PCB_OUTLINE
100
AcDbCircle
 10
23.52575130979015
 20
-1.161380322779205
 30
0.0
 40
0.01
  0
CIRCLE
  5
3751
330
2
100
AcDbEntity
  8
PCB_OUTLINE
100
AcDbCircle
 10
23.52575130979015
 20
-1.211380322779205
 30
0.0
 40
0.01
  0
CIRCLE
  5
3752
330
2
100
AcDbEntity
  8
PCB_OUTLINE
100
AcDbCircle
 10
23.52575130979015
 20
-1.261380322779205
 30
0.0
 40
0.01
  0
CIRCLE
  5
3753
330
2
100
AcDbEntity
  8
PCB_OUTLINE
100
AcDbCircle
 10
23.52575130979015
 20
-1.311380322779204
 30
0.0
 40
0.01
  0
CIRCLE
  5
3754
330
2
100
AcDbEntity
  8
PCB_OUTLINE
100
AcDbCircle
 10
23.52575130979015
 20
-1.51144404571737
 30
0.0
 40
0.01
  0
CIRCLE
  5
3755
330
2
100
AcDbEntity
  8
PCB_OUTLINE
100
AcDbCircle
 10
23.52575130979015
 20
-1.56144404571737
 30
0.0
 40
0.01
  0
CIRCLE
  5
3756
330
2
100
AcDbEntity
  8
PCB_OUTLINE
100
AcDbCircle
 10
23.52575130979015
 20
-1.61144404571737
 30
0.0
 40
0.01
  0
CIRCLE
  5
3757
330
2
100
AcDbEntity
  8
PCB_OUTLINE
100
AcDbCircle
 10
23.52575130979015
 20
-1.66144404571737
 30
0.0
 40
0.01
  0
CIRCLE
  5
3758
330
2
100
AcDbEntity
  8
PCB_OUTLINE
100
AcDbCircle
 10
23.52575130979015
 20
-1.71144404571737
 30
0.0
 40
0.01
  0
CIRCLE
  5
3759
330
2
100
AcDbEntity
  8
PCB_OUTLINE
100
AcDbCircle
 10
23.52575130979015
 20
-1.76144404571737
 30
0.0
 40
0.01
  0
CIRCLE
  5
375A
330
2
100
AcDbEntity
  8
PCB_OUTLINE
100
AcDbCircle
 10
23.47575130979016
 20
-1.111380322779204
 30
0.0
 40
0.01
  0
CIRCLE
  5
375B
330
2
100
AcDbEntity
  8
PCB_OUTLINE
100
AcDbCircle
 10
23.47575130979016
 20
-1.161380322779205
 30
0.0
 40
0.01
  0
CIRCLE
  5
375C
330
2
100
AcDbEntity
  8
PCB_OUTLINE
100
AcDbCircle
 10
23.47575130979016
 20
-1.211380322779205
 30
0.0
 40
0.01
  0
CIRCLE
  5
375D
330
2
100
AcDbEntity
  8
PCB_OUTLINE
100
AcDbCircle
 10
23.47575130979016
 20
-1.261380322779205
 30
0.0
 40
0.01
  0
CIRCLE
  5
375E
330
2
100
AcDbEntity
  8
PCB_OUTLINE
100
AcDbCircle
 10
23.47575130979016
 20
-1.311380322779204
 30
0.0
 40
0.01
  0
CIRCLE
  5
375F
330
2
100
AcDbEntity
  8
PCB_OUTLINE
100
AcDbCircle
 10
23.47575130979015
 20
-1.51144404571737
 30
0.0
 40
0.01
  0
CIRCLE
  5
3760
330
2
100
AcDbEntity
  8
PCB_OUTLINE
100
AcDbCircle
 10
23.47575130979015
 20
-1.56144404571737
 30
0.0
 40
0.01
  0
CIRCLE
  5
3761
330
2
100
AcDbEntity
  8
PCB_OUTLINE
100
AcDbCircle
 10
23.47575130979015
 20
-1.61144404571737
 30
0.0
 40
0.01
  0
CIRCLE
  5
3762
330
2
100
AcDbEntity
  8
PCB_OUTLINE
100
AcDbCircle
 10
23.47575130979015
 20
-1.66144404571737
 30
0.0
 40
0.01
  0
CIRCLE
  5
3763
330
2
100
AcDbEntity
  8
PCB_OUTLINE
100
AcDbCircle
 10
23.47575130979015
 20
-1.71144404571737
 30
0.0
 40
0.01
  0
CIRCLE
  5
3764
330
2
100
AcDbEntity
  8
PCB_OUTLINE
100
AcDbCircle
 10
23.47575130979015
 20
-1.76144404571737
 30
0.0
 40
0.01
  0
CIRCLE
  5
3765
330
2
100
AcDbEntity
  8
PCB_OUTLINE
100
AcDbCircle
 10
23.42575130979016
 20
-1.111380322779204
 30
0.0
 40
0.01
  0
CIRCLE
  5
3766
330
2
100
AcDbEntity
  8
PCB_OUTLINE
100
AcDbCircle
 10
23.42575130979016
 20
-1.161380322779205
 30
0.0
 40
0.01
  0
CIRCLE
  5
3767
330
2
100
AcDbEntity
  8
PCB_OUTLINE
100
AcDbCircle
 10
23.42575130979016
 20
-1.211380322779205
 30
0.0
 40
0.01
  0
CIRCLE
  5
3768
330
2
100
AcDbEntity
  8
PCB_OUTLINE
100
AcDbCircle
 10
23.42575130979016
 20
-1.261380322779205
 30
0.0
 40
0.01
  0
CIRCLE
  5
3769
330
2
100
AcDbEntity
  8
PCB_OUTLINE
100
AcDbCircle
 10
23.42575130979016
 20
-1.311380322779204
 30
0.0
 40
0.01
  0
CIRCLE
  5
376A
330
2
100
AcDbEntity
  8
PCB_OUTLINE
100
AcDbCircle
 10
23.42575130979016
 20
-1.51144404571737
 30
0.0
 40
0.01
  0
CIRCLE
  5
376B
330
2
100
AcDbEntity
  8
PCB_OUTLINE
100
AcDbCircle
 10
23.42575130979016
 20
-1.56144404571737
 30
0.0
 40
0.01
  0
CIRCLE
  5
376C
330
2
100
AcDbEntity
  8
PCB_OUTLINE
100
AcDbCircle
 10
23.42575130979016
 20
-1.61144404571737
 30
0.0
 40
0.01
  0
CIRCLE
  5
376D
330
2
100
AcDbEntity
  8
PCB_OUTLINE
100
AcDbCircle
 10
23.42575130979016
 20
-1.66144404571737
 30
0.0
 40
0.01
  0
CIRCLE
  5
376E
330
2
100
AcDbEntity
  8
PCB_OUTLINE
100
AcDbCircle
 10
23.42575130979016
 20
-1.71144404571737
 30
0.0
 40
0.01
  0
CIRCLE
  5
376F
330
2
100
AcDbEntity
  8
PCB_OUTLINE
100
AcDbCircle
 10
23.42575130979016
 20
-1.76144404571737
 30
0.0
 40
0.01
  0
CIRCLE
  5
3770
330
2
100
AcDbEntity
  8
PCB_OUTLINE
100
AcDbCircle
 10
23.57575130979015
 20
-1.461380322779204
 30
0.0
 40
0.01
  0
CIRCLE
  5
3771
330
2
100
AcDbEntity
  8
PCB_OUTLINE
100
AcDbCircle
 10
23.57575130979015
 20
-1.411380322779205
 30
0.0
 40
0.01
  0
CIRCLE
  5
3772
330
2
100
AcDbEntity
  8
PCB_OUTLINE
100
AcDbCircle
 10
23.57575130979015
 20
-1.361380322779204
 30
0.0
 40
0.01
  0
CIRCLE
  5
3773
330
2
100
AcDbEntity
  8
PCB_OUTLINE
100
AcDbCircle
 10
23.52575130979015
 20
-1.461380322779204
 30
0.0
 40
0.01
  0
CIRCLE
  5
3774
330
2
100
AcDbEntity
  8
PCB_OUTLINE
100
AcDbCircle
 10
23.52575130979015
 20
-1.411380322779205
 30
0.0
 40
0.01
  0
CIRCLE
  5
3775
330
2
100
AcDbEntity
  8
PCB_OUTLINE
100
AcDbCircle
 10
23.52575130979015
 20
-1.361380322779204
 30
0.0
 40
0.01
  0
CIRCLE
  5
3776
330
2
100
AcDbEntity
  8
PCB_OUTLINE
100
AcDbCircle
 10
23.47575130979016
 20
-1.461380322779204
 30
0.0
 40
0.01
  0
CIRCLE
  5
3777
330
2
100
AcDbEntity
  8
PCB_OUTLINE
100
AcDbCircle
 10
23.47575130979016
 20
-1.411380322779205
 30
0.0
 40
0.01
  0
CIRCLE
  5
3778
330
2
100
AcDbEntity
  8
PCB_OUTLINE
100
AcDbCircle
 10
23.47575130979016
 20
-1.361380322779204
 30
0.0
 40
0.01
  0
CIRCLE
  5
3779
330
2
100
AcDbEntity
  8
PCB_OUTLINE
100
AcDbCircle
 10
23.42575130979016
 20
-1.461380322779204
 30
0.0
 40
0.01
  0
CIRCLE
  5
377A
330
2
100
AcDbEntity
  8
PCB_OUTLINE
100
AcDbCircle
 10
23.42575130979016
 20
-1.411380322779205
 30
0.0
 40
0.01
  0
CIRCLE
  5
377B
330
2
100
AcDbEntity
  8
PCB_OUTLINE
100
AcDbCircle
 10
23.42575130979016
 20
-1.361380322779204
 30
0.0
 40
0.01
  0
CIRCLE
  5
377C
330
2
100
AcDbEntity
  8
PCB_OUTLINE
100
AcDbCircle
 10
24.5771287426815
 20
-1.386380322779228
 30
0.0
 40
0.01
  0
CIRCLE
  5
377D
330
2
100
AcDbEntity
  8
PCB_OUTLINE
100
AcDbCircle
 10
24.5271287426815
 20
-1.411380322779228
 30
0.0
 40
0.01
  0
CIRCLE
  5
377E
330
2
100
AcDbEntity
  8
PCB_OUTLINE
100
AcDbCircle
 10
24.02800130979015
 20
-1.411380322779205
 30
0.0
 40
0.01
  0
CIRCLE
  5
377F
330
2
100
AcDbEntity
  8
PCB_OUTLINE
100
AcDbCircle
 10
23.97800130979016
 20
-1.411380322779205
 30
0.0
 40
0.01
  0
CIRCLE
  5
3780
330
2
100
AcDbEntity
  8
PCB_OUTLINE
100
AcDbCircle
 10
23.92800130979015
 20
-1.411380322779205
 30
0.0
 40
0.01
  0
CIRCLE
  5
3781
330
2
100
AcDbEntity
  8
PCB_OUTLINE
100
AcDbCircle
 10
23.87800130979016
 20
-1.411380322779205
 30
0.0
 40
0.01
  0
CIRCLE
  5
3782
330
2
100
AcDbEntity
  8
PCB_OUTLINE
100
AcDbCircle
 10
23.82800130979016
 20
-1.411380322779205
 30
0.0
 40
0.01
  0
CIRCLE
  5
3783
330
2
100
AcDbEntity
  8
PCB_OUTLINE
100
AcDbCircle
 10
23.77800130979015
 20
-1.386380322779202
 30
0.0
 40
0.01
  0
CIRCLE
  5
3784
330
2
100
AcDbEntity
  8
PCB_OUTLINE
100
AcDbCircle
 10
24.5771287426815
 20
-1.486380322779225
 30
0.0
 40
0.01
  0
CIRCLE
  5
3785
330
2
100
AcDbEntity
  8
PCB_OUTLINE
100
AcDbCircle
 10
24.5771287426815
 20
-1.436380322779228
 30
0.0
 40
0.01
  0
CIRCLE
  5
3786
330
2
100
AcDbEntity
  8
PCB_OUTLINE
100
AcDbCircle
 10
24.5271287426815
 20
-1.511380322779229
 30
0.0
 40
0.01
  0
CIRCLE
  5
3787
330
2
100
AcDbEntity
  8
PCB_OUTLINE
100
AcDbCircle
 10
24.5271287426815
 20
-1.461380322779231
 30
0.0
 40
0.01
  0
CIRCLE
  5
3788
330
2
100
AcDbEntity
  8
PCB_OUTLINE
100
AcDbCircle
 10
24.02800130979015
 20
-1.511380322779205
 30
0.0
 40
0.01
  0
CIRCLE
  5
3789
330
2
100
AcDbEntity
  8
PCB_OUTLINE
100
AcDbCircle
 10
24.02800130979015
 20
-1.461380322779205
 30
0.0
 40
0.01
  0
CIRCLE
  5
378A
330
2
100
AcDbEntity
  8
PCB_OUTLINE
100
AcDbCircle
 10
23.97800130979016
 20
-1.511380322779205
 30
0.0
 40
0.01
  0
CIRCLE
  5
378B
330
2
100
AcDbEntity
  8
PCB_OUTLINE
100
AcDbCircle
 10
23.97800130979016
 20
-1.461380322779205
 30
0.0
 40
0.01
  0
CIRCLE
  5
378C
330
2
100
AcDbEntity
  8
PCB_OUTLINE
100
AcDbCircle
 10
23.92800130979015
 20
-1.511380322779205
 30
0.0
 40
0.01
  0
CIRCLE
  5
378D
330
2
100
AcDbEntity
  8
PCB_OUTLINE
100
AcDbCircle
 10
23.92800130979015
 20
-1.461380322779205
 30
0.0
 40
0.01
  0
CIRCLE
  5
378E
330
2
100
AcDbEntity
  8
PCB_OUTLINE
100
AcDbCircle
 10
23.87800130979016
 20
-1.511380322779205
 30
0.0
 40
0.01
  0
CIRCLE
  5
378F
330
2
100
AcDbEntity
  8
PCB_OUTLINE
100
AcDbCircle
 10
23.87800130979016
 20
-1.461380322779205
 30
0.0
 40
0.01
  0
CIRCLE
  5
3790
330
2
100
AcDbEntity
  8
PCB_OUTLINE
100
AcDbCircle
 10
23.82800130979016
 20
-1.511380322779205
 30
0.0
 40
0.01
  0
CIRCLE
  5
3791
330
2
100
AcDbEntity
  8
PCB_OUTLINE
100
AcDbCircle
 10
23.82800130979016
 20
-1.461380322779205
 30
0.0
 40
0.01
  0
CIRCLE
  5
3792
330
2
100
AcDbEntity
  8
PCB_OUTLINE
100
AcDbCircle
 10
23.77800130979015
 20
-1.486380322779201
 30
0.0
 40
0.01
  0
CIRCLE
  5
3793
330
2
100
AcDbEntity
  8
PCB_OUTLINE
100
AcDbCircle
 10
23.77800130979015
 20
-1.436380322779204
 30
0.0
 40
0.01
  0
CIRCLE
  5
3794
330
2
100
AcDbEntity
  8
PCB_OUTLINE
100
AcDbCircle
 10
23.62800130979016
 20
-1.386380322779202
 30
0.0
 40
0.01
  0
CIRCLE
  5
3795
330
2
100
AcDbEntity
  8
PCB_OUTLINE
100
AcDbCircle
 10
23.67800130979015
 20
-1.386380322779202
 30
0.0
 40
0.01
  0
CIRCLE
  5
3796
330
2
100
AcDbEntity
  8
PCB_OUTLINE
100
AcDbCircle
 10
23.72800130979015
 20
-1.386380322779202
 30
0.0
 40
0.01
  0
CIRCLE
  5
3797
330
2
100
AcDbEntity
  8
PCB_OUTLINE
100
AcDbCircle
 10
23.62800130979016
 20
-1.486380322779201
 30
0.0
 40
0.01
  0
CIRCLE
  5
3798
330
2
100
AcDbEntity
  8
PCB_OUTLINE
100
AcDbCircle
 10
23.62800130979016
 20
-1.436380322779204
 30
0.0
 40
0.01
  0
CIRCLE
  5
3799
330
2
100
AcDbEntity
  8
PCB_OUTLINE
100
AcDbCircle
 10
23.67800130979015
 20
-1.486380322779201
 30
0.0
 40
0.01
  0
CIRCLE
  5
379A
330
2
100
AcDbEntity
  8
PCB_OUTLINE
100
AcDbCircle
 10
23.67800130979015
 20
-1.436380322779204
 30
0.0
 40
0.01
  0
CIRCLE
  5
379B
330
2
100
AcDbEntity
  8
PCB_OUTLINE
100
AcDbCircle
 10
23.72800130979015
 20
-1.486380322779201
 30
0.0
 40
0.01
  0
CIRCLE
  5
379C
330
2
100
AcDbEntity
  8
PCB_OUTLINE
100
AcDbCircle
 10
23.72800130979015
 20
-1.436380322779204
 30
0.0
 40
0.01
  0
CIRCLE
  5
379D
330
2
100
AcDbEntity
  8
PCB_OUTLINE
100
AcDbCircle
 10
24.6271287426815
 20
-1.386380322779228
 30
0.0
 40
0.01
  0
CIRCLE
  5
379E
330
2
100
AcDbEntity
  8
PCB_OUTLINE
100
AcDbCircle
 10
24.6771287426815
 20
-1.386380322779228
 30
0.0
 40
0.01
  0
CIRCLE
  5
379F
330
2
100
AcDbEntity
  8
PCB_OUTLINE
100
AcDbCircle
 10
24.7271287426815
 20
-1.386380322779228
 30
0.0
 40
0.01
  0
CIRCLE
  5
37A0
330
2
100
AcDbEntity
  8
PCB_OUTLINE
100
AcDbCircle
 10
24.6271287426815
 20
-1.486380322779225
 30
0.0
 40
0.01
  0
CIRCLE
  5
37A1
330
2
100
AcDbEntity
  8
PCB_OUTLINE
100
AcDbCircle
 10
24.6271287426815
 20
-1.436380322779228
 30
0.0
 40
0.01
  0
CIRCLE
  5
37A2
330
2
100
AcDbEntity
  8
PCB_OUTLINE
100
AcDbCircle
 10
24.6771287426815
 20
-1.486380322779225
 30
0.0
 40
0.01
  0
CIRCLE
  5
37A3
330
2
100
AcDbEntity
  8
PCB_OUTLINE
100
AcDbCircle
 10
24.6771287426815
 20
-1.436380322779228
 30
0.0
 40
0.01
  0
CIRCLE
  5
37A4
330
2
100
AcDbEntity
  8
PCB_OUTLINE
100
AcDbCircle
 10
24.7271287426815
 20
-1.486380322779225
 30
0.0
 40
0.01
  0
CIRCLE
  5
37A5
330
2
100
AcDbEntity
  8
PCB_OUTLINE
100
AcDbCircle
 10
24.7271287426815
 20
-1.436380322779228
 30
0.0
 40
0.01
  0
CIRCLE
  5
37A6
330
2
100
AcDbEntity
  8
PCB_OUTLINE
100
AcDbCircle
 10
23.57575130979015
 20
-1.81144404571737
 30
0.0
 40
0.01
  0
CIRCLE
  5
37A7
330
2
100
AcDbEntity
  8
PCB_OUTLINE
100
AcDbCircle
 10
23.52575130979015
 20
-1.81144404571737
 30
0.0
 40
0.01
  0
CIRCLE
  5
37A8
330
2
100
AcDbEntity
  8
PCB_OUTLINE
100
AcDbCircle
 10
23.47575130979015
 20
-1.81144404571737
 30
0.0
 40
0.01
  0
CIRCLE
  5
37A9
330
2
100
AcDbEntity
  8
PCB_OUTLINE
100
AcDbCircle
 10
23.42575130979016
 20
-1.81144404571737
 30
0.0
 40
0.01
  0
CIRCLE
  5
37AA
330
2
100
AcDbEntity
  8
PCB_OUTLINE
100
AcDbCircle
 10
24.52712874268149
 20
-1.861444045717396
 30
0.0
 40
0.01
  0
CIRCLE
  5
37AB
330
2
100
AcDbEntity
  8
PCB_OUTLINE
100
AcDbCircle
 10
24.02800130979015
 20
-1.86144404571737
 30
0.0
 40
0.01
  0
CIRCLE
  5
37AC
330
2
100
AcDbEntity
  8
PCB_OUTLINE
100
AcDbCircle
 10
23.97800130979015
 20
-1.86144404571737
 30
0.0
 40
0.01
  0
CIRCLE
  5
37AD
330
2
100
AcDbEntity
  8
PCB_OUTLINE
100
AcDbCircle
 10
23.92800130979015
 20
-1.86144404571737
 30
0.0
 40
0.01
  0
CIRCLE
  5
37AE
330
2
100
AcDbEntity
  8
PCB_OUTLINE
100
AcDbCircle
 10
23.87800130979016
 20
-1.86144404571737
 30
0.0
 40
0.01
  0
CIRCLE
  5
37AF
330
2
100
AcDbEntity
  8
PCB_OUTLINE
100
AcDbCircle
 10
23.82800130979015
 20
-1.86144404571737
 30
0.0
 40
0.01
  0
CIRCLE
  5
37B0
330
2
100
AcDbEntity
  8
PCB_OUTLINE
100
AcDbCircle
 10
23.57575130979015
 20
-1.061380322779204
 30
0.0
 40
0.01
  0
CIRCLE
  5
37B1
330
2
100
AcDbEntity
  8
PCB_OUTLINE
100
AcDbCircle
 10
23.52575130979015
 20
-1.061380322779204
 30
0.0
 40
0.01
  0
CIRCLE
  5
37B2
330
2
100
AcDbEntity
  8
PCB_OUTLINE
100
AcDbCircle
 10
23.47575130979016
 20
-1.061380322779204
 30
0.0
 40
0.01
  0
CIRCLE
  5
37B3
330
2
100
AcDbEntity
  8
PCB_OUTLINE
100
AcDbCircle
 10
23.42575130979016
 20
-1.061380322779204
 30
0.0
 40
0.01
  0
CIRCLE
  5
37B4
330
2
100
AcDbEntity
  8
PCB_OUTLINE
100
AcDbCircle
 10
23.57575130979015
 20
-1.011380322779203
 30
0.0
 40
0.01
  0
CIRCLE
  5
37B5
330
2
100
AcDbEntity
  8
PCB_OUTLINE
100
AcDbCircle
 10
23.52575130979015
 20
-1.011380322779203
 30
0.0
 40
0.01
  0
CIRCLE
  5
37B6
330
2
100
AcDbEntity
  8
PCB_OUTLINE
100
AcDbCircle
 10
23.47575130979016
 20
-1.011380322779203
 30
0.0
 40
0.01
  0
CIRCLE
  5
37B7
330
2
100
AcDbEntity
  8
PCB_OUTLINE
100
AcDbCircle
 10
23.42575130979016
 20
-1.011380322779203
 30
0.0
 40
0.01
  0
CIRCLE
  5
37B8
330
2
100
AcDbEntity
  8
PCB_OUTLINE
100
AcDbCircle
 10
23.57575130979015
 20
-0.9613803227792026
 30
0.0
 40
0.01
  0
CIRCLE
  5
37B9
330
2
100
AcDbEntity
  8
PCB_OUTLINE
100
AcDbCircle
 10
23.52575130979015
 20
-0.9613803227792026
 30
0.0
 40
0.01
  0
CIRCLE
  5
37BA
330
2
100
AcDbEntity
  8
PCB_OUTLINE
100
AcDbCircle
 10
23.47575130979016
 20
-0.9613803227792026
 30
0.0
 40
0.01
  0
CIRCLE
  5
37BB
330
2
100
AcDbEntity
  8
PCB_OUTLINE
100
AcDbCircle
 10
23.42575130979016
 20
-0.9613803227792026
 30
0.0
 40
0.01
  0
CIRCLE
  5
37BC
330
2
100
AcDbEntity
  8
PCB_OUTLINE
100
AcDbCircle
 10
24.5271287426815
 20
-1.111380322779228
 30
0.0
 40
0.01
  0
CIRCLE
  5
37BD
330
2
100
AcDbEntity
  8
PCB_OUTLINE
100
AcDbCircle
 10
24.02800130979015
 20
-1.111380322779204
 30
0.0
 40
0.01
  0
CIRCLE
  5
37BE
330
2
100
AcDbEntity
  8
PCB_OUTLINE
100
AcDbCircle
 10
23.97800130979016
 20
-1.111380322779204
 30
0.0
 40
0.01
  0
CIRCLE
  5
37BF
330
2
100
AcDbEntity
  8
PCB_OUTLINE
100
AcDbCircle
 10
23.92800130979015
 20
-1.111380322779204
 30
0.0
 40
0.01
  0
CIRCLE
  5
37C0
330
2
100
AcDbEntity
  8
PCB_OUTLINE
100
AcDbCircle
 10
23.87800130979016
 20
-1.111380322779204
 30
0.0
 40
0.01
  0
CIRCLE
  5
37C1
330
2
100
AcDbEntity
  8
PCB_OUTLINE
100
AcDbCircle
 10
23.82800130979016
 20
-1.111380322779204
 30
0.0
 40
0.01
  0
CIRCLE
  5
37C2
330
2
100
AcDbEntity
  8
PCB_OUTLINE
100
AcDbCircle
 10
24.5271287426815
 20
-1.061380322779228
 30
0.0
 40
0.01
  0
CIRCLE
  5
37C3
330
2
100
AcDbEntity
  8
PCB_OUTLINE
100
AcDbCircle
 10
24.02800130979015
 20
-1.061380322779204
 30
0.0
 40
0.01
  0
CIRCLE
  5
37C4
330
2
100
AcDbEntity
  8
PCB_OUTLINE
100
AcDbCircle
 10
23.97800130979016
 20
-1.061380322779204
 30
0.0
 40
0.01
  0
CIRCLE
  5
37C5
330
2
100
AcDbEntity
  8
PCB_OUTLINE
100
AcDbCircle
 10
23.92800130979015
 20
-1.061380322779204
 30
0.0
 40
0.01
  0
CIRCLE
  5
37C6
330
2
100
AcDbEntity
  8
PCB_OUTLINE
100
AcDbCircle
 10
23.87800130979016
 20
-1.061380322779204
 30
0.0
 40
0.01
  0
CIRCLE
  5
37C7
330
2
100
AcDbEntity
  8
PCB_OUTLINE
100
AcDbCircle
 10
23.82800130979016
 20
-1.061380322779204
 30
0.0
 40
0.01
  0
CIRCLE
  5
37C8
330
2
100
AcDbEntity
  8
PCB_OUTLINE
100
AcDbCircle
 10
24.5271287426815
 20
-1.011380322779228
 30
0.0
 40
0.01
  0
CIRCLE
  5
37C9
330
2
100
AcDbEntity
  8
PCB_OUTLINE
100
AcDbCircle
 10
24.02800130979015
 20
-1.011380322779203
 30
0.0
 40
0.01
  0
CIRCLE
  5
37CA
330
2
100
AcDbEntity
  8
PCB_OUTLINE
100
AcDbCircle
 10
23.97800130979016
 20
-1.011380322779203
 30
0.0
 40
0.01
  0
CIRCLE
  5
37CB
330
2
100
AcDbEntity
  8
PCB_OUTLINE
100
AcDbCircle
 10
23.92800130979015
 20
-1.011380322779203
 30
0.0
 40
0.01
  0
CIRCLE
  5
37CC
330
2
100
AcDbEntity
  8
PCB_OUTLINE
100
AcDbCircle
 10
23.87800130979016
 20
-1.011380322779203
 30
0.0
 40
0.01
  0
CIRCLE
  5
37CD
330
2
100
AcDbEntity
  8
PCB_OUTLINE
100
AcDbCircle
 10
23.82800130979016
 20
-1.011380322779203
 30
0.0
 40
0.01
  0
CIRCLE
  5
37CE
330
2
100
AcDbEntity
  8
PCB_OUTLINE
100
AcDbCircle
 10
23.57575130979015
 20
-1.861444045717369
 30
0.0
 40
0.01
  0
CIRCLE
  5
37CF
330
2
100
AcDbEntity
  8
PCB_OUTLINE
100
AcDbCircle
 10
23.52575130979015
 20
-1.861444045717369
 30
0.0
 40
0.01
  0
CIRCLE
  5
37D0
330
2
100
AcDbEntity
  8
PCB_OUTLINE
100
AcDbCircle
 10
23.47575130979015
 20
-1.861444045717369
 30
0.0
 40
0.01
  0
CIRCLE
  5
37D1
330
2
100
AcDbEntity
  8
PCB_OUTLINE
100
AcDbCircle
 10
23.42575130979016
 20
-1.861444045717369
 30
0.0
 40
0.01
  0
CIRCLE
  5
37D2
330
2
100
AcDbEntity
  8
PCB_OUTLINE
100
AcDbCircle
 10
24.52712874268149
 20
-1.911444045717393
 30
0.0
 40
0.01
  0
CIRCLE
  5
37D3
330
2
100
AcDbEntity
  8
PCB_OUTLINE
100
AcDbCircle
 10
24.02800130979015
 20
-1.91144404571737
 30
0.0
 40
0.01
  0
CIRCLE
  5
37D4
330
2
100
AcDbEntity
  8
PCB_OUTLINE
100
AcDbCircle
 10
23.97800130979015
 20
-1.91144404571737
 30
0.0
 40
0.01
  0
CIRCLE
  5
37D5
330
2
100
AcDbEntity
  8
PCB_OUTLINE
100
AcDbCircle
 10
23.92800130979015
 20
-1.91144404571737
 30
0.0
 40
0.01
  0
CIRCLE
  5
37D6
330
2
100
AcDbEntity
  8
PCB_OUTLINE
100
AcDbCircle
 10
23.87800130979016
 20
-1.91144404571737
 30
0.0
 40
0.01
  0
CIRCLE
  5
37D7
330
2
100
AcDbEntity
  8
PCB_OUTLINE
100
AcDbCircle
 10
23.82800130979015
 20
-1.91144404571737
 30
0.0
 40
0.01
  0
CIRCLE
  5
37D8
330
2
100
AcDbEntity
  8
PCB_OUTLINE
100
AcDbCircle
 10
23.57575130979015
 20
-1.91144404571737
 30
0.0
 40
0.01
  0
CIRCLE
  5
37D9
330
2
100
AcDbEntity
  8
PCB_OUTLINE
100
AcDbCircle
 10
23.52575130979015
 20
-1.91144404571737
 30
0.0
 40
0.01
  0
CIRCLE
  5
37DA
330
2
100
AcDbEntity
  8
PCB_OUTLINE
100
AcDbCircle
 10
23.47575130979015
 20
-1.91144404571737
 30
0.0
 40
0.01
  0
CIRCLE
  5
37DB
330
2
100
AcDbEntity
  8
PCB_OUTLINE
100
AcDbCircle
 10
23.42575130979016
 20
-1.91144404571737
 30
0.0
 40
0.01
  0
CIRCLE
  5
37DC
330
2
100
AcDbEntity
  8
PCB_OUTLINE
100
AcDbCircle
 10
24.77937874268149
 20
-1.111380322779228
 30
0.0
 40
0.01
  0
CIRCLE
  5
37DD
330
2
100
AcDbEntity
  8
PCB_OUTLINE
100
AcDbCircle
 10
24.77937874268149
 20
-1.16138032277923
 30
0.0
 40
0.01
  0
CIRCLE
  5
37DE
330
2
100
AcDbEntity
  8
PCB_OUTLINE
100
AcDbCircle
 10
24.77937874268149
 20
-1.211380322779231
 30
0.0
 40
0.01
  0
CIRCLE
  5
37DF
330
2
100
AcDbEntity
  8
PCB_OUTLINE
100
AcDbCircle
 10
24.77937874268149
 20
-1.261380322779229
 30
0.0
 40
0.01
  0
CIRCLE
  5
37E0
330
2
100
AcDbEntity
  8
PCB_OUTLINE
100
AcDbCircle
 10
24.77937874268149
 20
-1.311380322779228
 30
0.0
 40
0.01
  0
CIRCLE
  5
37E1
330
2
100
AcDbEntity
  8
PCB_OUTLINE
100
AcDbCircle
 10
24.77937874268149
 20
-1.511444045717396
 30
0.0
 40
0.01
  0
CIRCLE
  5
37E2
330
2
100
AcDbEntity
  8
PCB_OUTLINE
100
AcDbCircle
 10
24.77937874268149
 20
-1.561444045717395
 30
0.0
 40
0.01
  0
CIRCLE
  5
37E3
330
2
100
AcDbEntity
  8
PCB_OUTLINE
100
AcDbCircle
 10
24.77937874268149
 20
-1.611444045717396
 30
0.0
 40
0.01
  0
CIRCLE
  5
37E4
330
2
100
AcDbEntity
  8
PCB_OUTLINE
100
AcDbCircle
 10
24.77937874268149
 20
-1.661444045717393
 30
0.0
 40
0.01
  0
CIRCLE
  5
37E5
330
2
100
AcDbEntity
  8
PCB_OUTLINE
100
AcDbCircle
 10
24.77937874268149
 20
-1.711444045717396
 30
0.0
 40
0.01
  0
CIRCLE
  5
37E6
330
2
100
AcDbEntity
  8
PCB_OUTLINE
100
AcDbCircle
 10
24.77937874268149
 20
-1.761444045717396
 30
0.0
 40
0.01
  0
CIRCLE
  5
37E7
330
2
100
AcDbEntity
  8
PCB_OUTLINE
100
AcDbCircle
 10
24.82937874268149
 20
-1.111380322779228
 30
0.0
 40
0.01
  0
CIRCLE
  5
37E8
330
2
100
AcDbEntity
  8
PCB_OUTLINE
100
AcDbCircle
 10
24.82937874268149
 20
-1.16138032277923
 30
0.0
 40
0.01
  0
CIRCLE
  5
37E9
330
2
100
AcDbEntity
  8
PCB_OUTLINE
100
AcDbCircle
 10
24.82937874268149
 20
-1.211380322779231
 30
0.0
 40
0.01
  0
CIRCLE
  5
37EA
330
2
100
AcDbEntity
  8
PCB_OUTLINE
100
AcDbCircle
 10
24.82937874268149
 20
-1.261380322779229
 30
0.0
 40
0.01
  0
CIRCLE
  5
37EB
330
2
100
AcDbEntity
  8
PCB_OUTLINE
100
AcDbCircle
 10
24.82937874268149
 20
-1.311380322779228
 30
0.0
 40
0.01
  0
CIRCLE
  5
37EC
330
2
100
AcDbEntity
  8
PCB_OUTLINE
100
AcDbCircle
 10
24.82937874268149
 20
-1.511444045717396
 30
0.0
 40
0.01
  0
CIRCLE
  5
37ED
330
2
100
AcDbEntity
  8
PCB_OUTLINE
100
AcDbCircle
 10
24.82937874268149
 20
-1.561444045717395
 30
0.0
 40
0.01
  0
CIRCLE
  5
37EE
330
2
100
AcDbEntity
  8
PCB_OUTLINE
100
AcDbCircle
 10
24.82937874268149
 20
-1.611444045717396
 30
0.0
 40
0.01
  0
CIRCLE
  5
37EF
330
2
100
AcDbEntity
  8
PCB_OUTLINE
100
AcDbCircle
 10
24.82937874268149
 20
-1.661444045717393
 30
0.0
 40
0.01
  0
CIRCLE
  5
37F0
330
2
100
AcDbEntity
  8
PCB_OUTLINE
100
AcDbCircle
 10
24.82937874268149
 20
-1.711444045717396
 30
0.0
 40
0.01
  0
CIRCLE
  5
37F1
330
2
100
AcDbEntity
  8
PCB_OUTLINE
100
AcDbCircle
 10
24.82937874268149
 20
-1.761444045717396
 30
0.0
 40
0.01
  0
CIRCLE
  5
37F2
330
2
100
AcDbEntity
  8
PCB_OUTLINE
100
AcDbCircle
 10
24.87937874268149
 20
-1.111380322779228
 30
0.0
 40
0.01
  0
CIRCLE
  5
37F3
330
2
100
AcDbEntity
  8
PCB_OUTLINE
100
AcDbCircle
 10
24.87937874268149
 20
-1.16138032277923
 30
0.0
 40
0.01
  0
CIRCLE
  5
37F4
330
2
100
AcDbEntity
  8
PCB_OUTLINE
100
AcDbCircle
 10
24.87937874268149
 20
-1.211380322779231
 30
0.0
 40
0.01
  0
CIRCLE
  5
37F5
330
2
100
AcDbEntity
  8
PCB_OUTLINE
100
AcDbCircle
 10
24.87937874268149
 20
-1.261380322779229
 30
0.0
 40
0.01
  0
CIRCLE
  5
37F6
330
2
100
AcDbEntity
  8
PCB_OUTLINE
100
AcDbCircle
 10
24.87937874268149
 20
-1.311380322779228
 30
0.0
 40
0.01
  0
CIRCLE
  5
37F7
330
2
100
AcDbEntity
  8
PCB_OUTLINE
100
AcDbCircle
 10
24.87937874268149
 20
-1.511444045717396
 30
0.0
 40
0.01
  0
CIRCLE
  5
37F8
330
2
100
AcDbEntity
  8
PCB_OUTLINE
100
AcDbCircle
 10
24.87937874268149
 20
-1.561444045717395
 30
0.0
 40
0.01
  0
CIRCLE
  5
37F9
330
2
100
AcDbEntity
  8
PCB_OUTLINE
100
AcDbCircle
 10
24.87937874268149
 20
-1.611444045717396
 30
0.0
 40
0.01
  0
CIRCLE
  5
37FA
330
2
100
AcDbEntity
  8
PCB_OUTLINE
100
AcDbCircle
 10
24.87937874268149
 20
-1.661444045717393
 30
0.0
 40
0.01
  0
CIRCLE
  5
37FB
330
2
100
AcDbEntity
  8
PCB_OUTLINE
100
AcDbCircle
 10
24.87937874268149
 20
-1.711444045717396
 30
0.0
 40
0.01
  0
CIRCLE
  5
37FC
330
2
100
AcDbEntity
  8
PCB_OUTLINE
100
AcDbCircle
 10
24.87937874268149
 20
-1.761444045717396
 30
0.0
 40
0.01
  0
CIRCLE
  5
37FD
330
2
100
AcDbEntity
  8
PCB_OUTLINE
100
AcDbCircle
 10
24.92937874268148
 20
-1.111380322779228
 30
0.0
 40
0.01
  0
CIRCLE
  5
37FE
330
2
100
AcDbEntity
  8
PCB_OUTLINE
100
AcDbCircle
 10
24.92937874268148
 20
-1.16138032277923
 30
0.0
 40
0.01
  0
CIRCLE
  5
37FF
330
2
100
AcDbEntity
  8
PCB_OUTLINE
100
AcDbCircle
 10
24.92937874268148
 20
-1.211380322779231
 30
0.0
 40
0.01
  0
CIRCLE
  5
3800
330
2
100
AcDbEntity
  8
PCB_OUTLINE
100
AcDbCircle
 10
24.92937874268149
 20
-1.711444045717396
 30
0.0
 40
0.01
  0
CIRCLE
  5
3801
330
2
100
AcDbEntity
  8
PCB_OUTLINE
100
AcDbCircle
 10
24.92937874268149
 20
-1.761444045717396
 30
0.0
 40
0.01
  0
CIRCLE
  5
3802
330
2
100
AcDbEntity
  8
PCB_OUTLINE
100
AcDbCircle
 10
24.77937874268149
 20
-1.461380322779229
 30
0.0
 40
0.01
  0
CIRCLE
  5
3803
330
2
100
AcDbEntity
  8
PCB_OUTLINE
100
AcDbCircle
 10
24.77937874268149
 20
-1.411380322779228
 30
0.0
 40
0.01
  0
CIRCLE
  5
3804
330
2
100
AcDbEntity
  8
PCB_OUTLINE
100
AcDbCircle
 10
24.77937874268149
 20
-1.361380322779228
 30
0.0
 40
0.01
  0
CIRCLE
  5
3805
330
2
100
AcDbEntity
  8
PCB_OUTLINE
100
AcDbCircle
 10
24.82937874268149
 20
-1.461380322779229
 30
0.0
 40
0.01
  0
CIRCLE
  5
3806
330
2
100
AcDbEntity
  8
PCB_OUTLINE
100
AcDbCircle
 10
24.82937874268149
 20
-1.411380322779228
 30
0.0
 40
0.01
  0
CIRCLE
  5
3807
330
2
100
AcDbEntity
  8
PCB_OUTLINE
100
AcDbCircle
 10
24.82937874268149
 20
-1.361380322779228
 30
0.0
 40
0.01
  0
CIRCLE
  5
3808
330
2
100
AcDbEntity
  8
PCB_OUTLINE
100
AcDbCircle
 10
24.87937874268149
 20
-1.461380322779229
 30
0.0
 40
0.01
  0
CIRCLE
  5
3809
330
2
100
AcDbEntity
  8
PCB_OUTLINE
100
AcDbCircle
 10
24.87937874268149
 20
-1.411380322779228
 30
0.0
 40
0.01
  0
CIRCLE
  5
380A
330
2
100
AcDbEntity
  8
PCB_OUTLINE
100
AcDbCircle
 10
24.87937874268149
 20
-1.361380322779228
 30
0.0
 40
0.01
  0
CIRCLE
  5
380B
330
2
100
AcDbEntity
  8
PCB_OUTLINE
100
AcDbCircle
 10
24.77937874268149
 20
-1.811444045717395
 30
0.0
 40
0.01
  0
CIRCLE
  5
380C
330
2
100
AcDbEntity
  8
PCB_OUTLINE
100
AcDbCircle
 10
24.82937874268149
 20
-1.811444045717395
 30
0.0
 40
0.01
  0
CIRCLE
  5
380D
330
2
100
AcDbEntity
  8
PCB_OUTLINE
100
AcDbCircle
 10
24.87937874268149
 20
-1.811444045717395
 30
0.0
 40
0.01
  0
CIRCLE
  5
380E
330
2
100
AcDbEntity
  8
PCB_OUTLINE
100
AcDbCircle
 10
24.92937874268149
 20
-1.811444045717395
 30
0.0
 40
0.01
  0
CIRCLE
  5
380F
330
2
100
AcDbEntity
  8
PCB_OUTLINE
100
AcDbCircle
 10
24.77937874268149
 20
-1.061380322779228
 30
0.0
 40
0.01
  0
CIRCLE
  5
3810
330
2
100
AcDbEntity
  8
PCB_OUTLINE
100
AcDbCircle
 10
24.82937874268149
 20
-1.061380322779228
 30
0.0
 40
0.01
  0
CIRCLE
  5
3811
330
2
100
AcDbEntity
  8
PCB_OUTLINE
100
AcDbCircle
 10
24.87937874268149
 20
-1.061380322779228
 30
0.0
 40
0.01
  0
CIRCLE
  5
3812
330
2
100
AcDbEntity
  8
PCB_OUTLINE
100
AcDbCircle
 10
24.92937874268148
 20
-1.061380322779228
 30
0.0
 40
0.01
  0
CIRCLE
  5
3813
330
2
100
AcDbEntity
  8
PCB_OUTLINE
100
AcDbCircle
 10
24.77937874268149
 20
-1.011380322779228
 30
0.0
 40
0.01
  0
CIRCLE
  5
3814
330
2
100
AcDbEntity
  8
PCB_OUTLINE
100
AcDbCircle
 10
24.82937874268149
 20
-1.011380322779228
 30
0.0
 40
0.01
  0
CIRCLE
  5
3815
330
2
100
AcDbEntity
  8
PCB_OUTLINE
100
AcDbCircle
 10
24.87937874268149
 20
-1.011380322779228
 30
0.0
 40
0.01
  0
CIRCLE
  5
3816
330
2
100
AcDbEntity
  8
PCB_OUTLINE
100
AcDbCircle
 10
24.92937874268148
 20
-1.011380322779228
 30
0.0
 40
0.01
  0
CIRCLE
  5
3817
330
2
100
AcDbEntity
  8
PCB_OUTLINE
100
AcDbCircle
 10
24.77937874268149
 20
-0.9613803227792272
 30
0.0
 40
0.01
  0
CIRCLE
  5
3818
330
2
100
AcDbEntity
  8
PCB_OUTLINE
100
AcDbCircle
 10
24.82937874268149
 20
-0.9613803227792272
 30
0.0
 40
0.01
  0
CIRCLE
  5
3819
330
2
100
AcDbEntity
  8
PCB_OUTLINE
100
AcDbCircle
 10
24.87937874268149
 20
-0.9613803227792272
 30
0.0
 40
0.01
  0
CIRCLE
  5
381A
330
2
100
AcDbEntity
  8
PCB_OUTLINE
100
AcDbCircle
 10
24.92937874268148
 20
-0.9613803227792272
 30
0.0
 40
0.01
  0
CIRCLE
  5
381B
330
2
100
AcDbEntity
  8
PCB_OUTLINE
100
AcDbCircle
 10
24.77937874268149
 20
-1.861444045717393
 30
0.0
 40
0.01
  0
CIRCLE
  5
381C
330
2
100
AcDbEntity
  8
PCB_OUTLINE
100
AcDbCircle
 10
24.82937874268149
 20
-1.861444045717393
 30
0.0
 40
0.01
  0
CIRCLE
  5
381D
330
2
100
AcDbEntity
  8
PCB_OUTLINE
100
AcDbCircle
 10
24.87937874268149
 20
-1.861444045717393
 30
0.0
 40
0.01
  0
CIRCLE
  5
381E
330
2
100
AcDbEntity
  8
PCB_OUTLINE
100
AcDbCircle
 10
24.92937874268149
 20
-1.861444045717393
 30
0.0
 40
0.01
  0
CIRCLE
  5
381F
330
2
100
AcDbEntity
  8
PCB_OUTLINE
100
AcDbCircle
 10
24.77937874268149
 20
-1.911444045717393
 30
0.0
 40
0.01
  0
CIRCLE
  5
3820
330
2
100
AcDbEntity
  8
PCB_OUTLINE
100
AcDbCircle
 10
24.82937874268149
 20
-1.911444045717393
 30
0.0
 40
0.01
  0
CIRCLE
  5
3821
330
2
100
AcDbEntity
  8
PCB_OUTLINE
100
AcDbCircle
 10
24.87937874268149
 20
-1.911444045717393
 30
0.0
 40
0.01
  0
CIRCLE
  5
3822
330
2
100
AcDbEntity
  8
PCB_OUTLINE
100
AcDbCircle
 10
24.92937874268149
 20
-1.911444045717393
 30
0.0
 40
0.01
  0
CIRCLE
  5
3823
330
2
100
AcDbEntity
  8
PCB_OUTLINE
100
AcDbCircle
 10
24.5271287426815
 20
-0.9613803227792272
 30
0.0
 40
0.01
  0
CIRCLE
  5
3824
330
2
100
AcDbEntity
  8
PCB_OUTLINE
100
AcDbCircle
 10
24.02800130979015
 20
-0.9613803227792026
 30
0.0
 40
0.01
  0
CIRCLE
  5
3825
330
2
100
AcDbEntity
  8
PCB_OUTLINE
100
AcDbCircle
 10
23.97800130979016
 20
-0.9613803227792026
 30
0.0
 40
0.01
  0
CIRCLE
  5
3826
330
2
100
AcDbEntity
  8
PCB_OUTLINE
100
AcDbCircle
 10
23.92800130979015
 20
-0.9613803227792026
 30
0.0
 40
0.01
  0
CIRCLE
  5
3827
330
2
100
AcDbEntity
  8
PCB_OUTLINE
100
AcDbCircle
 10
23.87800130979016
 20
-0.9613803227792026
 30
0.0
 40
0.01
  0
CIRCLE
  5
3828
330
2
100
AcDbEntity
  8
PCB_OUTLINE
100
AcDbCircle
 10
23.82800130979016
 20
-0.9613803227792026
 30
0.0
 40
0.01
  0
CIRCLE
  5
382A
330
2
100
AcDbEntity
  8
PCB_OUTLINE
100
AcDbCircle
 10
24.07800130979014
 20
-1.161380322779205
 30
0.0
 40
0.01
  0
CIRCLE
  5
382B
330
2
100
AcDbEntity
  8
PCB_OUTLINE
100
AcDbCircle
 10
24.07800130979014
 20
-1.211380322779205
 30
0.0
 40
0.01
  0
CIRCLE
  5
382C
330
2
100
AcDbEntity
  8
PCB_OUTLINE
100
AcDbCircle
 10
24.07800130979014
 20
-1.261380322779205
 30
0.0
 40
0.01
  0
CIRCLE
  5
382D
330
2
100
AcDbEntity
  8
PCB_OUTLINE
100
AcDbCircle
 10
24.07800130979014
 20
-1.311380322779205
 30
0.0
 40
0.01
  0
CIRCLE
  5
382E
330
2
100
AcDbEntity
  8
PCB_OUTLINE
100
AcDbCircle
 10
24.07800130979014
 20
-1.361380322779204
 30
0.0
 40
0.01
  0
CIRCLE
  5
382F
330
2
100
AcDbEntity
  8
PCB_OUTLINE
100
AcDbCircle
 10
24.07800130979014
 20
-1.56144404571737
 30
0.0
 40
0.01
  0
CIRCLE
  5
3830
330
2
100
AcDbEntity
  8
PCB_OUTLINE
100
AcDbCircle
 10
24.07800130979014
 20
-1.61144404571737
 30
0.0
 40
0.01
  0
CIRCLE
  5
3831
330
2
100
AcDbEntity
  8
PCB_OUTLINE
100
AcDbCircle
 10
24.07800130979014
 20
-1.66144404571737
 30
0.0
 40
0.01
  0
CIRCLE
  5
3832
330
2
100
AcDbEntity
  8
PCB_OUTLINE
100
AcDbCircle
 10
24.07800130979014
 20
-1.71144404571737
 30
0.0
 40
0.01
  0
CIRCLE
  5
3833
330
2
100
AcDbEntity
  8
PCB_OUTLINE
100
AcDbCircle
 10
24.07800130979014
 20
-1.76144404571737
 30
0.0
 40
0.01
  0
CIRCLE
  5
3834
330
2
100
AcDbEntity
  8
PCB_OUTLINE
100
AcDbCircle
 10
24.07800130979014
 20
-1.81144404571737
 30
0.0
 40
0.01
  0
CIRCLE
  5
3835
330
2
100
AcDbEntity
  8
PCB_OUTLINE
100
AcDbCircle
 10
24.12800130979014
 20
-1.161380322779205
 30
0.0
 40
0.01
  0
CIRCLE
  5
3836
330
2
100
AcDbEntity
  8
PCB_OUTLINE
100
AcDbCircle
 10
24.12800130979014
 20
-1.211380322779205
 30
0.0
 40
0.01
  0
CIRCLE
  5
3837
330
2
100
AcDbEntity
  8
PCB_OUTLINE
100
AcDbCircle
 10
24.12800130979014
 20
-1.261380322779205
 30
0.0
 40
0.01
  0
CIRCLE
  5
3838
330
2
100
AcDbEntity
  8
PCB_OUTLINE
100
AcDbCircle
 10
24.12800130979014
 20
-1.311380322779205
 30
0.0
 40
0.01
  0
CIRCLE
  5
3839
330
2
100
AcDbEntity
  8
PCB_OUTLINE
100
AcDbCircle
 10
24.12800130979014
 20
-1.361380322779204
 30
0.0
 40
0.01
  0
CIRCLE
  5
383A
330
2
100
AcDbEntity
  8
PCB_OUTLINE
100
AcDbCircle
 10
24.12800130979014
 20
-1.56144404571737
 30
0.0
 40
0.01
  0
CIRCLE
  5
383B
330
2
100
AcDbEntity
  8
PCB_OUTLINE
100
AcDbCircle
 10
24.12800130979014
 20
-1.61144404571737
 30
0.0
 40
0.01
  0
CIRCLE
  5
383C
330
2
100
AcDbEntity
  8
PCB_OUTLINE
100
AcDbCircle
 10
24.12800130979014
 20
-1.66144404571737
 30
0.0
 40
0.01
  0
CIRCLE
  5
383D
330
2
100
AcDbEntity
  8
PCB_OUTLINE
100
AcDbCircle
 10
24.12800130979014
 20
-1.71144404571737
 30
0.0
 40
0.01
  0
CIRCLE
  5
383E
330
2
100
AcDbEntity
  8
PCB_OUTLINE
100
AcDbCircle
 10
24.12800130979014
 20
-1.76144404571737
 30
0.0
 40
0.01
  0
CIRCLE
  5
383F
330
2
100
AcDbEntity
  8
PCB_OUTLINE
100
AcDbCircle
 10
24.12800130979014
 20
-1.81144404571737
 30
0.0
 40
0.01
  0
CIRCLE
  5
3840
330
2
100
AcDbEntity
  8
PCB_OUTLINE
100
AcDbCircle
 10
24.17800130979014
 20
-1.161380322779205
 30
0.0
 40
0.01
  0
CIRCLE
  5
3841
330
2
100
AcDbEntity
  8
PCB_OUTLINE
100
AcDbCircle
 10
24.17800130979014
 20
-1.211380322779205
 30
0.0
 40
0.01
  0
CIRCLE
  5
3842
330
2
100
AcDbEntity
  8
PCB_OUTLINE
100
AcDbCircle
 10
24.17800130979014
 20
-1.261380322779205
 30
0.0
 40
0.01
  0
CIRCLE
  5
3843
330
2
100
AcDbEntity
  8
PCB_OUTLINE
100
AcDbCircle
 10
24.17800130979014
 20
-1.311380322779205
 30
0.0
 40
0.01
  0
CIRCLE
  5
3844
330
2
100
AcDbEntity
  8
PCB_OUTLINE
100
AcDbCircle
 10
24.17800130979014
 20
-1.361380322779204
 30
0.0
 40
0.01
  0
CIRCLE
  5
3845
330
2
100
AcDbEntity
  8
PCB_OUTLINE
100
AcDbCircle
 10
24.17800130979014
 20
-1.56144404571737
 30
0.0
 40
0.01
  0
CIRCLE
  5
3846
330
2
100
AcDbEntity
  8
PCB_OUTLINE
100
AcDbCircle
 10
24.17800130979014
 20
-1.61144404571737
 30
0.0
 40
0.01
  0
CIRCLE
  5
3847
330
2
100
AcDbEntity
  8
PCB_OUTLINE
100
AcDbCircle
 10
24.17800130979014
 20
-1.66144404571737
 30
0.0
 40
0.01
  0
CIRCLE
  5
3848
330
2
100
AcDbEntity
  8
PCB_OUTLINE
100
AcDbCircle
 10
24.17800130979014
 20
-1.71144404571737
 30
0.0
 40
0.01
  0
CIRCLE
  5
3849
330
2
100
AcDbEntity
  8
PCB_OUTLINE
100
AcDbCircle
 10
24.17800130979014
 20
-1.76144404571737
 30
0.0
 40
0.01
  0
CIRCLE
  5
384A
330
2
100
AcDbEntity
  8
PCB_OUTLINE
100
AcDbCircle
 10
24.17800130979014
 20
-1.81144404571737
 30
0.0
 40
0.01
  0
CIRCLE
  5
384B
330
2
100
AcDbEntity
  8
PCB_OUTLINE
100
AcDbCircle
 10
24.07800130979014
 20
-1.411380322779205
 30
0.0
 40
0.01
  0
CIRCLE
  5
384C
330
2
100
AcDbEntity
  8
PCB_OUTLINE
100
AcDbCircle
 10
24.12800130979014
 20
-1.411380322779205
 30
0.0
 40
0.01
  0
CIRCLE
  5
384D
330
2
100
AcDbEntity
  8
PCB_OUTLINE
100
AcDbCircle
 10
24.17800130979014
 20
-1.411380322779205
 30
0.0
 40
0.01
  0
CIRCLE
  5
384E
330
2
100
AcDbEntity
  8
PCB_OUTLINE
100
AcDbCircle
 10
24.07800130979014
 20
-1.511380322779205
 30
0.0
 40
0.01
  0
CIRCLE
  5
384F
330
2
100
AcDbEntity
  8
PCB_OUTLINE
100
AcDbCircle
 10
24.07800130979014
 20
-1.461380322779205
 30
0.0
 40
0.01
  0
CIRCLE
  5
3850
330
2
100
AcDbEntity
  8
PCB_OUTLINE
100
AcDbCircle
 10
24.12800130979014
 20
-1.511380322779205
 30
0.0
 40
0.01
  0
CIRCLE
  5
3851
330
2
100
AcDbEntity
  8
PCB_OUTLINE
100
AcDbCircle
 10
24.12800130979014
 20
-1.461380322779205
 30
0.0
 40
0.01
  0
CIRCLE
  5
3852
330
2
100
AcDbEntity
  8
PCB_OUTLINE
100
AcDbCircle
 10
24.17800130979014
 20
-1.511380322779205
 30
0.0
 40
0.01
  0
CIRCLE
  5
3853
330
2
100
AcDbEntity
  8
PCB_OUTLINE
100
AcDbCircle
 10
24.17800130979014
 20
-1.461380322779205
 30
0.0
 40
0.01
  0
CIRCLE
  5
3854
330
2
100
AcDbEntity
  8
PCB_OUTLINE
100
AcDbCircle
 10
24.07800130979014
 20
-1.86144404571737
 30
0.0
 40
0.01
  0
CIRCLE
  5
3855
330
2
100
AcDbEntity
  8
PCB_OUTLINE
100
AcDbCircle
 10
24.12800130979014
 20
-1.86144404571737
 30
0.0
 40
0.01
  0
CIRCLE
  5
3856
330
2
100
AcDbEntity
  8
PCB_OUTLINE
100
AcDbCircle
 10
24.17800130979014
 20
-1.86144404571737
 30
0.0
 40
0.01
  0
CIRCLE
  5
3857
330
2
100
AcDbEntity
  8
PCB_OUTLINE
100
AcDbCircle
 10
24.07800130979014
 20
-1.111380322779204
 30
0.0
 40
0.01
  0
CIRCLE
  5
3858
330
2
100
AcDbEntity
  8
PCB_OUTLINE
100
AcDbCircle
 10
24.12800130979014
 20
-1.111380322779204
 30
0.0
 40
0.01
  0
CIRCLE
  5
3859
330
2
100
AcDbEntity
  8
PCB_OUTLINE
100
AcDbCircle
 10
24.17800130979014
 20
-1.111380322779204
 30
0.0
 40
0.01
  0
CIRCLE
  5
385A
330
2
100
AcDbEntity
  8
PCB_OUTLINE
100
AcDbCircle
 10
24.07800130979014
 20
-1.061380322779204
 30
0.0
 40
0.01
  0
CIRCLE
  5
385B
330
2
100
AcDbEntity
  8
PCB_OUTLINE
100
AcDbCircle
 10
24.12800130979014
 20
-1.061380322779204
 30
0.0
 40
0.01
  0
CIRCLE
  5
385C
330
2
100
AcDbEntity
  8
PCB_OUTLINE
100
AcDbCircle
 10
24.17800130979014
 20
-1.061380322779204
 30
0.0
 40
0.01
  0
CIRCLE
  5
385D
330
2
100
AcDbEntity
  8
PCB_OUTLINE
100
AcDbCircle
 10
24.07800130979014
 20
-1.011380322779203
 30
0.0
 40
0.01
  0
CIRCLE
  5
385E
330
2
100
AcDbEntity
  8
PCB_OUTLINE
100
AcDbCircle
 10
24.12800130979014
 20
-1.011380322779203
 30
0.0
 40
0.01
  0
CIRCLE
  5
385F
330
2
100
AcDbEntity
  8
PCB_OUTLINE
100
AcDbCircle
 10
24.17800130979014
 20
-1.011380322779203
 30
0.0
 40
0.01
  0
CIRCLE
  5
3860
330
2
100
AcDbEntity
  8
PCB_OUTLINE
100
AcDbCircle
 10
24.07800130979014
 20
-1.91144404571737
 30
0.0
 40
0.01
  0
CIRCLE
  5
3861
330
2
100
AcDbEntity
  8
PCB_OUTLINE
100
AcDbCircle
 10
24.12800130979014
 20
-1.91144404571737
 30
0.0
 40
0.01
  0
CIRCLE
  5
3862
330
2
100
AcDbEntity
  8
PCB_OUTLINE
100
AcDbCircle
 10
24.17800130979014
 20
-1.91144404571737
 30
0.0
 40
0.01
  0
CIRCLE
  5
3863
330
2
100
AcDbEntity
  8
PCB_OUTLINE
100
AcDbCircle
 10
24.07800130979014
 20
-0.9613803227792026
 30
0.0
 40
0.01
  0
CIRCLE
  5
3864
330
2
100
AcDbEntity
  8
PCB_OUTLINE
100
AcDbCircle
 10
24.12800130979014
 20
-0.9613803227792026
 30
0.0
 40
0.01
  0
CIRCLE
  5
3865
330
2
100
AcDbEntity
  8
PCB_OUTLINE
100
AcDbCircle
 10
24.17800130979014
 20
-0.9613803227792026
 30
0.0
 40
0.01
  0
CIRCLE
  5
3866
330
2
100
AcDbEntity
  8
PCB_OUTLINE
100
AcDbCircle
 10
24.32800130979012
 20
-1.161380322779205
 30
0.0
 40
0.01
  0
CIRCLE
  5
3867
330
2
100
AcDbEntity
  8
PCB_OUTLINE
100
AcDbCircle
 10
24.32800130979012
 20
-1.211380322779205
 30
0.0
 40
0.01
  0
CIRCLE
  5
3868
330
2
100
AcDbEntity
  8
PCB_OUTLINE
100
AcDbCircle
 10
24.32800130979012
 20
-1.261380322779205
 30
0.0
 40
0.01
  0
CIRCLE
  5
3869
330
2
100
AcDbEntity
  8
PCB_OUTLINE
100
AcDbCircle
 10
24.32800130979012
 20
-1.311380322779205
 30
0.0
 40
0.01
  0
CIRCLE
  5
386A
330
2
100
AcDbEntity
  8
PCB_OUTLINE
100
AcDbCircle
 10
24.32800130979012
 20
-1.361380322779204
 30
0.0
 40
0.01
  0
CIRCLE
  5
386B
330
2
100
AcDbEntity
  8
PCB_OUTLINE
100
AcDbCircle
 10
24.32800130979013
 20
-1.56144404571737
 30
0.0
 40
0.01
  0
CIRCLE
  5
386C
330
2
100
AcDbEntity
  8
PCB_OUTLINE
100
AcDbCircle
 10
24.32800130979013
 20
-1.61144404571737
 30
0.0
 40
0.01
  0
CIRCLE
  5
386D
330
2
100
AcDbEntity
  8
PCB_OUTLINE
100
AcDbCircle
 10
24.32800130979013
 20
-1.66144404571737
 30
0.0
 40
0.01
  0
CIRCLE
  5
386E
330
2
100
AcDbEntity
  8
PCB_OUTLINE
100
AcDbCircle
 10
24.32800130979013
 20
-1.71144404571737
 30
0.0
 40
0.01
  0
CIRCLE
  5
386F
330
2
100
AcDbEntity
  8
PCB_OUTLINE
100
AcDbCircle
 10
24.32800130979013
 20
-1.76144404571737
 30
0.0
 40
0.01
  0
CIRCLE
  5
3870
330
2
100
AcDbEntity
  8
PCB_OUTLINE
100
AcDbCircle
 10
24.32800130979013
 20
-1.81144404571737
 30
0.0
 40
0.01
  0
CIRCLE
  5
3871
330
2
100
AcDbEntity
  8
PCB_OUTLINE
100
AcDbCircle
 10
24.37800130979012
 20
-1.161380322779205
 30
0.0
 40
0.01
  0
CIRCLE
  5
3872
330
2
100
AcDbEntity
  8
PCB_OUTLINE
100
AcDbCircle
 10
24.37800130979012
 20
-1.211380322779205
 30
0.0
 40
0.01
  0
CIRCLE
  5
3873
330
2
100
AcDbEntity
  8
PCB_OUTLINE
100
AcDbCircle
 10
24.37800130979012
 20
-1.261380322779205
 30
0.0
 40
0.01
  0
CIRCLE
  5
3874
330
2
100
AcDbEntity
  8
PCB_OUTLINE
100
AcDbCircle
 10
24.37800130979012
 20
-1.311380322779205
 30
0.0
 40
0.01
  0
CIRCLE
  5
3875
330
2
100
AcDbEntity
  8
PCB_OUTLINE
100
AcDbCircle
 10
24.37800130979012
 20
-1.361380322779204
 30
0.0
 40
0.01
  0
CIRCLE
  5
3876
330
2
100
AcDbEntity
  8
PCB_OUTLINE
100
AcDbCircle
 10
24.37800130979013
 20
-1.56144404571737
 30
0.0
 40
0.01
  0
CIRCLE
  5
3877
330
2
100
AcDbEntity
  8
PCB_OUTLINE
100
AcDbCircle
 10
24.37800130979013
 20
-1.61144404571737
 30
0.0
 40
0.01
  0
CIRCLE
  5
3878
330
2
100
AcDbEntity
  8
PCB_OUTLINE
100
AcDbCircle
 10
24.37800130979013
 20
-1.66144404571737
 30
0.0
 40
0.01
  0
CIRCLE
  5
3879
330
2
100
AcDbEntity
  8
PCB_OUTLINE
100
AcDbCircle
 10
24.37800130979013
 20
-1.71144404571737
 30
0.0
 40
0.01
  0
CIRCLE
  5
387A
330
2
100
AcDbEntity
  8
PCB_OUTLINE
100
AcDbCircle
 10
24.37800130979013
 20
-1.76144404571737
 30
0.0
 40
0.01
  0
CIRCLE
  5
387B
330
2
100
AcDbEntity
  8
PCB_OUTLINE
100
AcDbCircle
 10
24.37800130979013
 20
-1.81144404571737
 30
0.0
 40
0.01
  0
CIRCLE
  5
387C
330
2
100
AcDbEntity
  8
PCB_OUTLINE
100
AcDbCircle
 10
24.42800130979013
 20
-1.161380322779205
 30
0.0
 40
0.01
  0
CIRCLE
  5
387D
330
2
100
AcDbEntity
  8
PCB_OUTLINE
100
AcDbCircle
 10
24.42800130979013
 20
-1.211380322779205
 30
0.0
 40
0.01
  0
CIRCLE
  5
387E
330
2
100
AcDbEntity
  8
PCB_OUTLINE
100
AcDbCircle
 10
24.42800130979013
 20
-1.261380322779205
 30
0.0
 40
0.01
  0
CIRCLE
  5
387F
330
2
100
AcDbEntity
  8
PCB_OUTLINE
100
AcDbCircle
 10
24.42800130979013
 20
-1.311380322779205
 30
0.0
 40
0.01
  0
CIRCLE
  5
3880
330
2
100
AcDbEntity
  8
PCB_OUTLINE
100
AcDbCircle
 10
24.42800130979013
 20
-1.361380322779204
 30
0.0
 40
0.01
  0
CIRCLE
  5
3881
330
2
100
AcDbEntity
  8
PCB_OUTLINE
100
AcDbCircle
 10
24.42800130979013
 20
-1.56144404571737
 30
0.0
 40
0.01
  0
CIRCLE
  5
3882
330
2
100
AcDbEntity
  8
PCB_OUTLINE
100
AcDbCircle
 10
24.42800130979013
 20
-1.61144404571737
 30
0.0
 40
0.01
  0
CIRCLE
  5
3883
330
2
100
AcDbEntity
  8
PCB_OUTLINE
100
AcDbCircle
 10
24.42800130979013
 20
-1.66144404571737
 30
0.0
 40
0.01
  0
CIRCLE
  5
3884
330
2
100
AcDbEntity
  8
PCB_OUTLINE
100
AcDbCircle
 10
24.42800130979013
 20
-1.71144404571737
 30
0.0
 40
0.01
  0
CIRCLE
  5
3885
330
2
100
AcDbEntity
  8
PCB_OUTLINE
100
AcDbCircle
 10
24.42800130979013
 20
-1.76144404571737
 30
0.0
 40
0.01
  0
CIRCLE
  5
3886
330
2
100
AcDbEntity
  8
PCB_OUTLINE
100
AcDbCircle
 10
24.42800130979013
 20
-1.81144404571737
 30
0.0
 40
0.01
  0
CIRCLE
  5
3887
330
2
100
AcDbEntity
  8
PCB_OUTLINE
100
AcDbCircle
 10
24.32800130979012
 20
-1.411380322779205
 30
0.0
 40
0.01
  0
CIRCLE
  5
3888
330
2
100
AcDbEntity
  8
PCB_OUTLINE
100
AcDbCircle
 10
24.37800130979012
 20
-1.411380322779205
 30
0.0
 40
0.01
  0
CIRCLE
  5
3889
330
2
100
AcDbEntity
  8
PCB_OUTLINE
100
AcDbCircle
 10
24.42800130979013
 20
-1.411380322779205
 30
0.0
 40
0.01
  0
CIRCLE
  5
388A
330
2
100
AcDbEntity
  8
PCB_OUTLINE
100
AcDbCircle
 10
24.32800130979012
 20
-1.511380322779205
 30
0.0
 40
0.01
  0
CIRCLE
  5
388B
330
2
100
AcDbEntity
  8
PCB_OUTLINE
100
AcDbCircle
 10
24.32800130979012
 20
-1.461380322779205
 30
0.0
 40
0.01
  0
CIRCLE
  5
388C
330
2
100
AcDbEntity
  8
PCB_OUTLINE
100
AcDbCircle
 10
24.37800130979012
 20
-1.511380322779205
 30
0.0
 40
0.01
  0
CIRCLE
  5
388D
330
2
100
AcDbEntity
  8
PCB_OUTLINE
100
AcDbCircle
 10
24.37800130979012
 20
-1.461380322779205
 30
0.0
 40
0.01
  0
CIRCLE
  5
388E
330
2
100
AcDbEntity
  8
PCB_OUTLINE
100
AcDbCircle
 10
24.42800130979013
 20
-1.511380322779205
 30
0.0
 40
0.01
  0
CIRCLE
  5
388F
330
2
100
AcDbEntity
  8
PCB_OUTLINE
100
AcDbCircle
 10
24.42800130979013
 20
-1.461380322779205
 30
0.0
 40
0.01
  0
CIRCLE
  5
3890
330
2
100
AcDbEntity
  8
PCB_OUTLINE
100
AcDbCircle
 10
24.32800130979013
 20
-1.86144404571737
 30
0.0
 40
0.01
  0
CIRCLE
  5
3891
330
2
100
AcDbEntity
  8
PCB_OUTLINE
100
AcDbCircle
 10
24.37800130979013
 20
-1.86144404571737
 30
0.0
 40
0.01
  0
CIRCLE
  5
3892
330
2
100
AcDbEntity
  8
PCB_OUTLINE
100
AcDbCircle
 10
24.42800130979013
 20
-1.86144404571737
 30
0.0
 40
0.01
  0
CIRCLE
  5
3893
330
2
100
AcDbEntity
  8
PCB_OUTLINE
100
AcDbCircle
 10
24.32800130979012
 20
-1.111380322779204
 30
0.0
 40
0.01
  0
CIRCLE
  5
3894
330
2
100
AcDbEntity
  8
PCB_OUTLINE
100
AcDbCircle
 10
24.37800130979012
 20
-1.111380322779204
 30
0.0
 40
0.01
  0
CIRCLE
  5
3895
330
2
100
AcDbEntity
  8
PCB_OUTLINE
100
AcDbCircle
 10
24.42800130979013
 20
-1.111380322779204
 30
0.0
 40
0.01
  0
CIRCLE
  5
3896
330
2
100
AcDbEntity
  8
PCB_OUTLINE
100
AcDbCircle
 10
24.32800130979012
 20
-1.061380322779204
 30
0.0
 40
0.01
  0
CIRCLE
  5
3897
330
2
100
AcDbEntity
  8
PCB_OUTLINE
100
AcDbCircle
 10
24.37800130979012
 20
-1.061380322779204
 30
0.0
 40
0.01
  0
CIRCLE
  5
3898
330
2
100
AcDbEntity
  8
PCB_OUTLINE
100
AcDbCircle
 10
24.42800130979013
 20
-1.061380322779204
 30
0.0
 40
0.01
  0
CIRCLE
  5
3899
330
2
100
AcDbEntity
  8
PCB_OUTLINE
100
AcDbCircle
 10
24.32800130979012
 20
-1.011380322779203
 30
0.0
 40
0.01
  0
CIRCLE
  5
389A
330
2
100
AcDbEntity
  8
PCB_OUTLINE
100
AcDbCircle
 10
24.37800130979012
 20
-1.011380322779203
 30
0.0
 40
0.01
  0
CIRCLE
  5
389B
330
2
100
AcDbEntity
  8
PCB_OUTLINE
100
AcDbCircle
 10
24.42800130979013
 20
-1.011380322779203
 30
0.0
 40
0.01
  0
CIRCLE
  5
389C
330
2
100
AcDbEntity
  8
PCB_OUTLINE
100
AcDbCircle
 10
24.32800130979013
 20
-1.91144404571737
 30
0.0
 40
0.01
  0
CIRCLE
  5
389D
330
2
100
AcDbEntity
  8
PCB_OUTLINE
100
AcDbCircle
 10
24.37800130979013
 20
-1.91144404571737
 30
0.0
 40
0.01
  0
CIRCLE
  5
389E
330
2
100
AcDbEntity
  8
PCB_OUTLINE
100
AcDbCircle
 10
24.42800130979013
 20
-1.91144404571737
 30
0.0
 40
0.01
  0
CIRCLE
  5
389F
330
2
100
AcDbEntity
  8
PCB_OUTLINE
100
AcDbCircle
 10
24.32800130979012
 20
-0.9613803227792026
 30
0.0
 40
0.01
  0
CIRCLE
  5
38A0
330
2
100
AcDbEntity
  8
PCB_OUTLINE
100
AcDbCircle
 10
24.37800130979012
 20
-0.9613803227792026
 30
0.0
 40
0.01
  0
CIRCLE
  5
38A1
330
2
100
AcDbEntity
  8
PCB_OUTLINE
100
AcDbCircle
 10
24.42800130979013
 20
-0.9613803227792026
 30
0.0
 40
0.01
  0
CIRCLE
  5
38A2
330
2
100
AcDbEntity
  8
PCB_OUTLINE
100
AcDbCircle
 10
24.27800130979014
 20
-1.161380322779205
 30
0.0
 40
0.01
  0
CIRCLE
  5
38A3
330
2
100
AcDbEntity
  8
PCB_OUTLINE
100
AcDbCircle
 10
24.27800130979014
 20
-1.211380322779205
 30
0.0
 40
0.01
  0
CIRCLE
  5
38A4
330
2
100
AcDbEntity
  8
PCB_OUTLINE
100
AcDbCircle
 10
24.27800130979014
 20
-1.261380322779205
 30
0.0
 40
0.01
  0
CIRCLE
  5
38A5
330
2
100
AcDbEntity
  8
PCB_OUTLINE
100
AcDbCircle
 10
24.27800130979014
 20
-1.311380322779205
 30
0.0
 40
0.01
  0
CIRCLE
  5
38A6
330
2
100
AcDbEntity
  8
PCB_OUTLINE
100
AcDbCircle
 10
24.27800130979014
 20
-1.361380322779204
 30
0.0
 40
0.01
  0
CIRCLE
  5
38A7
330
2
100
AcDbEntity
  8
PCB_OUTLINE
100
AcDbCircle
 10
24.27800130979013
 20
-1.56144404571737
 30
0.0
 40
0.01
  0
CIRCLE
  5
38A8
330
2
100
AcDbEntity
  8
PCB_OUTLINE
100
AcDbCircle
 10
24.27800130979013
 20
-1.61144404571737
 30
0.0
 40
0.01
  0
CIRCLE
  5
38A9
330
2
100
AcDbEntity
  8
PCB_OUTLINE
100
AcDbCircle
 10
24.27800130979013
 20
-1.66144404571737
 30
0.0
 40
0.01
  0
CIRCLE
  5
38AA
330
2
100
AcDbEntity
  8
PCB_OUTLINE
100
AcDbCircle
 10
24.27800130979013
 20
-1.71144404571737
 30
0.0
 40
0.01
  0
CIRCLE
  5
38AB
330
2
100
AcDbEntity
  8
PCB_OUTLINE
100
AcDbCircle
 10
24.27800130979013
 20
-1.76144404571737
 30
0.0
 40
0.01
  0
CIRCLE
  5
38AC
330
2
100
AcDbEntity
  8
PCB_OUTLINE
100
AcDbCircle
 10
24.27800130979013
 20
-1.81144404571737
 30
0.0
 40
0.01
  0
CIRCLE
  5
38AD
330
2
100
AcDbEntity
  8
PCB_OUTLINE
100
AcDbCircle
 10
24.22800130979013
 20
-1.161380322779205
 30
0.0
 40
0.01
  0
CIRCLE
  5
38AE
330
2
100
AcDbEntity
  8
PCB_OUTLINE
100
AcDbCircle
 10
24.22800130979013
 20
-1.211380322779205
 30
0.0
 40
0.01
  0
CIRCLE
  5
38AF
330
2
100
AcDbEntity
  8
PCB_OUTLINE
100
AcDbCircle
 10
24.22800130979013
 20
-1.261380322779205
 30
0.0
 40
0.01
  0
CIRCLE
  5
38B0
330
2
100
AcDbEntity
  8
PCB_OUTLINE
100
AcDbCircle
 10
24.22800130979013
 20
-1.311380322779205
 30
0.0
 40
0.01
  0
CIRCLE
  5
38B1
330
2
100
AcDbEntity
  8
PCB_OUTLINE
100
AcDbCircle
 10
24.22800130979013
 20
-1.361380322779204
 30
0.0
 40
0.01
  0
CIRCLE
  5
38B2
330
2
100
AcDbEntity
  8
PCB_OUTLINE
100
AcDbCircle
 10
24.22800130979013
 20
-1.56144404571737
 30
0.0
 40
0.01
  0
CIRCLE
  5
38B3
330
2
100
AcDbEntity
  8
PCB_OUTLINE
100
AcDbCircle
 10
24.22800130979013
 20
-1.61144404571737
 30
0.0
 40
0.01
  0
CIRCLE
  5
38B4
330
2
100
AcDbEntity
  8
PCB_OUTLINE
100
AcDbCircle
 10
24.22800130979013
 20
-1.66144404571737
 30
0.0
 40
0.01
  0
CIRCLE
  5
38B5
330
2
100
AcDbEntity
  8
PCB_OUTLINE
100
AcDbCircle
 10
24.22800130979013
 20
-1.71144404571737
 30
0.0
 40
0.01
  0
CIRCLE
  5
38B6
330
2
100
AcDbEntity
  8
PCB_OUTLINE
100
AcDbCircle
 10
24.22800130979013
 20
-1.76144404571737
 30
0.0
 40
0.01
  0
CIRCLE
  5
38B7
330
2
100
AcDbEntity
  8
PCB_OUTLINE
100
AcDbCircle
 10
24.22800130979013
 20
-1.81144404571737
 30
0.0
 40
0.01
  0
CIRCLE
  5
38B8
330
2
100
AcDbEntity
  8
PCB_OUTLINE
100
AcDbCircle
 10
24.27800130979014
 20
-1.411380322779205
 30
0.0
 40
0.01
  0
CIRCLE
  5
38B9
330
2
100
AcDbEntity
  8
PCB_OUTLINE
100
AcDbCircle
 10
24.22800130979013
 20
-1.411380322779205
 30
0.0
 40
0.01
  0
CIRCLE
  5
38BA
330
2
100
AcDbEntity
  8
PCB_OUTLINE
100
AcDbCircle
 10
24.27800130979014
 20
-1.511380322779205
 30
0.0
 40
0.01
  0
CIRCLE
  5
38BB
330
2
100
AcDbEntity
  8
PCB_OUTLINE
100
AcDbCircle
 10
24.27800130979014
 20
-1.461380322779205
 30
0.0
 40
0.01
  0
CIRCLE
  5
38BC
330
2
100
AcDbEntity
  8
PCB_OUTLINE
100
AcDbCircle
 10
24.22800130979013
 20
-1.511380322779205
 30
0.0
 40
0.01
  0
CIRCLE
  5
38BD
330
2
100
AcDbEntity
  8
PCB_OUTLINE
100
AcDbCircle
 10
24.22800130979013
 20
-1.461380322779205
 30
0.0
 40
0.01
  0
CIRCLE
  5
38BE
330
2
100
AcDbEntity
  8
PCB_OUTLINE
100
AcDbCircle
 10
24.27800130979013
 20
-1.86144404571737
 30
0.0
 40
0.01
  0
CIRCLE
  5
38BF
330
2
100
AcDbEntity
  8
PCB_OUTLINE
100
AcDbCircle
 10
24.22800130979013
 20
-1.86144404571737
 30
0.0
 40
0.01
  0
CIRCLE
  5
38C0
330
2
100
AcDbEntity
  8
PCB_OUTLINE
100
AcDbCircle
 10
24.27800130979014
 20
-1.111380322779204
 30
0.0
 40
0.01
  0
CIRCLE
  5
38C1
330
2
100
AcDbEntity
  8
PCB_OUTLINE
100
AcDbCircle
 10
24.22800130979013
 20
-1.111380322779204
 30
0.0
 40
0.01
  0
CIRCLE
  5
38C2
330
2
100
AcDbEntity
  8
PCB_OUTLINE
100
AcDbCircle
 10
24.27800130979014
 20
-1.061380322779204
 30
0.0
 40
0.01
  0
CIRCLE
  5
38C3
330
2
100
AcDbEntity
  8
PCB_OUTLINE
100
AcDbCircle
 10
24.22800130979013
 20
-1.061380322779204
 30
0.0
 40
0.01
  0
CIRCLE
  5
38C4
330
2
100
AcDbEntity
  8
PCB_OUTLINE
100
AcDbCircle
 10
24.27800130979014
 20
-1.011380322779203
 30
0.0
 40
0.01
  0
CIRCLE
  5
38C5
330
2
100
AcDbEntity
  8
PCB_OUTLINE
100
AcDbCircle
 10
24.22800130979013
 20
-1.011380322779203
 30
0.0
 40
0.01
  0
CIRCLE
  5
38C6
330
2
100
AcDbEntity
  8
PCB_OUTLINE
100
AcDbCircle
 10
24.27800130979013
 20
-1.91144404571737
 30
0.0
 40
0.01
  0
CIRCLE
  5
38C7
330
2
100
AcDbEntity
  8
PCB_OUTLINE
100
AcDbCircle
 10
24.22800130979013
 20
-1.91144404571737
 30
0.0
 40
0.01
  0
CIRCLE
  5
38C8
330
2
100
AcDbEntity
  8
PCB_OUTLINE
100
AcDbCircle
 10
24.27800130979014
 20
-0.9613803227792026
 30
0.0
 40
0.01
  0
CIRCLE
  5
38C9
330
2
100
AcDbEntity
  8
PCB_OUTLINE
100
AcDbCircle
 10
24.22800130979013
 20
-0.9613803227792026
 30
0.0
 40
0.01
  0
CIRCLE
  5
38CA
330
2
100
AcDbEntity
  8
PCB_OUTLINE
100
AcDbCircle
 10
24.47800130979013
 20
-1.161380322779205
 30
0.0
 40
0.01
  0
CIRCLE
  5
38CB
330
2
100
AcDbEntity
  8
PCB_OUTLINE
100
AcDbCircle
 10
24.47800130979013
 20
-1.211380322779205
 30
0.0
 40
0.01
  0
CIRCLE
  5
38CC
330
2
100
AcDbEntity
  8
PCB_OUTLINE
100
AcDbCircle
 10
24.47800130979013
 20
-1.261380322779205
 30
0.0
 40
0.01
  0
CIRCLE
  5
38CD
330
2
100
AcDbEntity
  8
PCB_OUTLINE
100
AcDbCircle
 10
24.47800130979013
 20
-1.311380322779205
 30
0.0
 40
0.01
  0
CIRCLE
  5
38CE
330
2
100
AcDbEntity
  8
PCB_OUTLINE
100
AcDbCircle
 10
24.47800130979013
 20
-1.361380322779204
 30
0.0
 40
0.01
  0
CIRCLE
  5
38CF
330
2
100
AcDbEntity
  8
PCB_OUTLINE
100
AcDbCircle
 10
24.47800130979012
 20
-1.56144404571737
 30
0.0
 40
0.01
  0
CIRCLE
  5
38D0
330
2
100
AcDbEntity
  8
PCB_OUTLINE
100
AcDbCircle
 10
24.47800130979012
 20
-1.61144404571737
 30
0.0
 40
0.01
  0
CIRCLE
  5
38D1
330
2
100
AcDbEntity
  8
PCB_OUTLINE
100
AcDbCircle
 10
24.47800130979012
 20
-1.66144404571737
 30
0.0
 40
0.01
  0
CIRCLE
  5
38D2
330
2
100
AcDbEntity
  8
PCB_OUTLINE
100
AcDbCircle
 10
24.47800130979012
 20
-1.71144404571737
 30
0.0
 40
0.01
  0
CIRCLE
  5
38D3
330
2
100
AcDbEntity
  8
PCB_OUTLINE
100
AcDbCircle
 10
24.47800130979012
 20
-1.76144404571737
 30
0.0
 40
0.01
  0
CIRCLE
  5
38D4
330
2
100
AcDbEntity
  8
PCB_OUTLINE
100
AcDbCircle
 10
24.47800130979012
 20
-1.81144404571737
 30
0.0
 40
0.01
  0
CIRCLE
  5
38D5
330
2
100
AcDbEntity
  8
PCB_OUTLINE
100
AcDbCircle
 10
24.47800130979013
 20
-1.411380322779205
 30
0.0
 40
0.01
  0
CIRCLE
  5
38D6
330
2
100
AcDbEntity
  8
PCB_OUTLINE
100
AcDbCircle
 10
24.47800130979013
 20
-1.511380322779205
 30
0.0
 40
0.01
  0
CIRCLE
  5
38D7
330
2
100
AcDbEntity
  8
PCB_OUTLINE
100
AcDbCircle
 10
24.47800130979013
 20
-1.461380322779205
 30
0.0
 40
0.01
  0
CIRCLE
  5
38D8
330
2
100
AcDbEntity
  8
PCB_OUTLINE
100
AcDbCircle
 10
24.47800130979012
 20
-1.86144404571737
 30
0.0
 40
0.01
  0
CIRCLE
  5
38D9
330
2
100
AcDbEntity
  8
PCB_OUTLINE
100
AcDbCircle
 10
24.47800130979013
 20
-1.111380322779204
 30
0.0
 40
0.01
  0
CIRCLE
  5
38DA
330
2
100
AcDbEntity
  8
PCB_OUTLINE
100
AcDbCircle
 10
24.47800130979013
 20
-1.061380322779204
 30
0.0
 40
0.01
  0
CIRCLE
  5
38DB
330
2
100
AcDbEntity
  8
PCB_OUTLINE
100
AcDbCircle
 10
24.47800130979013
 20
-1.011380322779203
 30
0.0
 40
0.01
  0
CIRCLE
  5
38DC
330
2
100
AcDbEntity
  8
PCB_OUTLINE
100
AcDbCircle
 10
24.47800130979012
 20
-1.91144404571737
 30
0.0
 40
0.01
  0
CIRCLE
  5
38DD
330
2
100
AcDbEntity
  8
PCB_OUTLINE
100
AcDbCircle
 10
24.47800130979013
 20
-0.9613803227792026
 30
0.0
 40
0.01
  0
CIRCLE
  5
38DE
330
2
100
AcDbEntity
  8
PCB_OUTLINE
100
AcDbCircle
 10
24.92937874268148
 20
-1.261380322779229
 30
0.0
 40
0.01
  0
CIRCLE
  5
38DF
330
2
100
AcDbEntity
  8
PCB_OUTLINE
100
AcDbCircle
 10
24.92937874268148
 20
-1.311380322779228
 30
0.0
 40
0.01
  0
TEXT
  5
4582
330
2
100
AcDbEntity
  8
Text
100
AcDbText
 10
23.31330431944055
 20
-0.6516465993676352
 30
0.062
 40
0.06
  1
%%UTOP & BOTTOM ARTWORK SCALE 1:1
  7
ROMANS
 72
     1
 11
24.16430431944054
 21
-0.6516465993676352
 31
0.062
100
AcDbText
  0
TEXT
  5
4583
330
2
100
AcDbEntity
  8
Text
100
AcDbText
 10
23.13716146229769
 20
-0.831598403518087
 30
0.062
 40
0.06
  1
VIEW: LOOKING THRU FROM TOP TO BOTTOM
  7
ROMANS
 72
     1
 11
24.16430431944054
 21
-0.831598403518087
 31
0.062
100
AcDbText
  0
MTEXT
  5
4584
330
2
100
AcDbEntity
  8
Text
100
AcDbMText
 10
24.21418422224293
 20
-1.992525210360295
 30
0.0
 40
0.1
 41
2.0564
 71
     2
 72
     5
  1
Er=2.20, 2oz. Cu, Both Sides\P(.020" THK.)
  7
ARIAL
 73
     1
 44
1.0
1001
ACAD
1000
MTEXTBEGIN
1070
    73
1070
     1
1070
    44
1040
1.0
1070
    74
1070
     0
1000
MTEXTEND
  0
CIRCLE
  5
458D
330
2
100
AcDbEntity
  8
PCB_OUTLINE
100
AcDbCircle
 10
24.92937874268149
 20
-1.511444045717396
 30
0.0
 40
0.01
  0
CIRCLE
  5
458E
330
2
100
AcDbEntity
  8
PCB_OUTLINE
100
AcDbCircle
 10
24.92937874268149
 20
-1.561444045717395
 30
0.0
 40
0.01
  0
CIRCLE
  5
458F
330
2
100
AcDbEntity
  8
PCB_OUTLINE
100
AcDbCircle
 10
24.92937874268149
 20
-1.611444045717396
 30
0.0
 40
0.01
  0
CIRCLE
  5
4590
330
2
100
AcDbEntity
  8
PCB_OUTLINE
100
AcDbCircle
 10
24.92937874268149
 20
-1.661444045717393
 30
0.0
 40
0.01
  0
CIRCLE
  5
4591
330
2
100
AcDbEntity
  8
PCB_OUTLINE
100
AcDbCircle
 10
24.92937874268149
 20
-1.461380322779229
 30
0.0
 40
0.01
  0
CIRCLE
  5
4592
330
2
100
AcDbEntity
  8
PCB_OUTLINE
100
AcDbCircle
 10
24.92937874268149
 20
-1.411380322779228
 30
0.0
 40
0.01
  0
CIRCLE
  5
4593
330
2
100
AcDbEntity
  8
PCB_OUTLINE
100
AcDbCircle
 10
24.92937874268149
 20
-1.361380322779228
 30
0.0
 40
0.01
  0
INSERT
  5
466F
330
2
100
AcDbEntity
  8
PCB_BOT
100
AcDbBlockReference
  2
A$C2F001A0A
 10
23.73250130979015
 20
-1.55644404571737
 30
0.0
  0
ENDSEC
  0
SECTION
  2
OBJECTS
  0
DICTIONARY
  5
7
330
0
100
AcDbDictionary
281
     1
  3
ACAD_2007HEADERVARS_RT
350
4674
  3
ACAD_CIP_PREVIOUS_PRODUCT_INFO
350
44B0
  3
ACAD_COLOR
350
43
  3
ACAD_DETAILVIEWSTYLE
350
44A7
  3
ACAD_GROUP
350
30
  3
ACAD_LAYOUT
350
6
  3
ACAD_MATERIAL
350
13
  3
ACAD_MLEADERSTYLE
350
225
  3
ACAD_MLINESTYLE
350
31
  3
ACAD_PLOTSETTINGS
350
32
  3
ACAD_PLOTSTYLENAME
350
11
  3
ACAD_SCALELIST
350
44
  3
ACAD_SECTIONVIEWSTYLE
350
44A5
  3
ACAD_TABLESTYLE
350
45
  3
ACAD_VISUALSTYLE
350
29
  3
ACDB_RECOMPOSE_DATA
350
4672
  3
AcDbVariableDictionary
350
212
  3
AcmDictionary
350
1B9
  3
AMG
350
1AA
  3
AMGSNAPSETTINGS
350
265
  3
DWGPROPS
350
4673
  0
DICTIONARY
  5
2A
330
26
100
AcDbDictionary
280
     1
281
     1
  0
DICTIONARY
  5
1C
330
C
100
AcDbDictionary
280
     1
281
     1
  3
ACAD_LAYERFILTERS
360
43BD
  3
ACAD_LAYERSTATES
360
1D
  3
ACLYDICTIONARY
360
43BC
  0
DICTIONARY
  5
E
330
D
100
AcDbDictionary
280
     1
281
     1
  3
ADSK_XREC_LAYER_RECONCILED
360
F
  0
DICTIONARY
  5
95
330
94
100
AcDbDictionary
280
     1
281
     1
  3
ADSK_XREC_LAYER_RECONCILED
360
96
  0
DICTIONARY
  5
99
330
98
100
AcDbDictionary
280
     1
281
     1
  3
ADSK_XREC_LAYER_RECONCILED
360
9A
  0
DICTIONARY
  5
10D
330
10C
100
AcDbDictionary
280
     1
281
     1
  3
ADSK_XREC_LAYER_RECONCILED
360
10E
  0
DICTIONARY
  5
118
330
117
100
AcDbDictionary
280
     1
281
     1
  3
ADSK_XREC_LAYER_RECONCILED
360
119
  0
DICTIONARY
  5
109
330
108
100
AcDbDictionary
280
     1
281
     1
  3
ADSK_XREC_LAYER_RECONCILED
360
10A
  0
DICTIONARY
  5
C0
330
BF
100
AcDbDictionary
280
     1
281
     1
  3
ADSK_XREC_LAYER_RECONCILED
360
C1
  0
DICTIONARY
  5
70
330
6F
100
AcDbDictionary
280
     1
281
     1
  3
ADSK_XREC_LAYER_RECONCILED
360
71
  0
DICTIONARY
  5
32A5
330
2
100
AcDbDictionary
280
     1
281
     1
  3
ACAD_SORTENTS
360
32A6
  0
DICTIONARY
  5
466A
330
4627
100
AcDbDictionary
280
     1
281
     1
  3
ACAD_SORTENTS
360
466B
  0
DICTIONARY
  5
4674
102
{ACAD_REACTORS
330
7
102
}
330
7
100
AcDbDictionary
281
     1
  3
DIMARCSYM
350
4675
  3
DIMLTEX1
350
4677
  3
DIMLTEX2
350
4678
  3
DIMLTYPE
350
4676
  0
XRECORD
  5
44B0
102
{ACAD_REACTORS
330
7
102
}
330
7
100
AcDbXrecord
280
     1
300
AMECH_PP
300
2013
300
PDSP_F_S
  0
DICTIONARY
  5
43
102
{ACAD_REACTORS
330
7
102
}
330
7
100
AcDbDictionary
281
     1
  0
DICTIONARY
  5
44A7
102
{ACAD_REACTORS
330
7
102
}
330
7
100
AcDbDictionary
281
     1
  3
Imperial24
350
44A8
  0
DICTIONARY
  5
30
102
{ACAD_REACTORS
330
7
102
}
330
7
100
AcDbDictionary
281
     1
  0
DICTIONARY
  5
6
102
{ACAD_REACTORS
330
7
102
}
330
7
100
AcDbDictionary
281
     1
  3
Layout1
350
B
  3
Model
350
5
  0
DICTIONARY
  5
13
102
{ACAD_REACTORS
330
7
102
}
330
7
100
AcDbDictionary
281
     1
  3
ByBlock
350
3B
  3
ByLayer
350
33
  3
Global
350
12
  0
DICTIONARY
  5
225
102
{ACAD_REACTORS
330
7
102
}
330
7
100
AcDbDictionary
281
     1
  3
Standard
350
226
  0
DICTIONARY
  5
31
102
{ACAD_REACTORS
330
7
102
}
330
7
100
AcDbDictionary
281
     1
  3
Standard
350
46
  0
DICTIONARY
  5
32
102
{ACAD_REACTORS
330
7
102
}
330
7
100
AcDbDictionary
281
     1
  0
ACDBDICTIONARYWDFLT
  5
11
102
{ACAD_REACTORS
330
7
102
}
330
7
100
AcDbDictionary
281
     1
  3
Normal
350
10
100
AcDbDictionaryWithDefault
340
10
  0
DICTIONARY
  5
44
102
{ACAD_REACTORS
330
7
102
}
330
7
100
AcDbDictionary
281
     1
  3
A0
350
4B
  3
A1
350
4C
  3
A2
350
4D
  3
A3
350
4E
  3
A4
350
4F
  3
A5
350
50
  3
A6
350
51
  3
A7
350
52
  3
A8
350
53
  3
A9
350
54
  3
B0
350
55
  3
B1
350
56
  3
B2
350
57
  3
B3
350
58
  3
B4
350
59
  3
B5
350
5A
  3
B6
350
5B
  3
B7
350
5C
  3
B8
350
5D
  3
B9
350
5E
  3
C0
350
5F
  3
C1
350
60
  3
C2
350
61
  3
C3
350
62
  3
C4
350
63
  3
C5
350
64
  3
C6
350
65
  3
C7
350
66
  3
C8
350
67
  3
C9
350
68
  3
D0
350
69
  3
D1
350
6A
  3
D2
350
6B
  0
DICTIONARY
  5
44A5
102
{ACAD_REACTORS
330
7
102
}
330
7
100
AcDbDictionary
281
     1
  3
Imperial24
350
44A6
  0
DICTIONARY
  5
45
102
{ACAD_REACTORS
330
7
102
}
330
7
100
AcDbDictionary
281
     1
  3
Standard
350
47
  0
DICTIONARY
  5
29
102
{ACAD_REACTORS
330
7
102
}
330
7
100
AcDbDictionary
281
     1
  3
2dWireframe
350
28
  3
3D Hidden
350
21D
  3
3dWireframe
350
4A
  3
Basic
350
21C
  3
Brighten
350
220
  3
ColorChange
350
224
  3
Conceptual
350
21E
  3
Dim
350
21F
  3
EdgeColorOff
350
44A4
  3
Facepattern
350
223
  3
Flat
350
218
  3
FlatWithEdges
350
219
  3
Gouraud
350
21A
  3
GouraudWithEdges
350
21B
  3
Hidden
350
449C
  3
JitterOff
350
44A2
  3
Linepattern
350
222
  3
OverhangOff
350
44A3
  3
Realistic
350
49
  3
Shaded
350
44A1
  3
Shaded with edges
350
44A0
  3
Shades of Gray
350
449D
  3
Sketchy
350
449E
  3
Thicken
350
221
  3
Wireframe
350
449B
  3
X-Ray
350
449F
  0
XRECORD
  5
4672
102
{ACAD_REACTORS
330
7
102
}
330
7
100
AcDbXrecord
280
     1
 90
        1
330
47
  0
DICTIONARY
  5
212
102
{ACAD_REACTORS
330
7
102
}
330
7
100
AcDbDictionary
281
     1
  3
CANNOSCALE
350
215
  3
CMLEADERSTYLE
350
214
  3
CTABLESTYLE
350
213
  3
CVIEWDETAILSTYLE
350
44E2
  3
CVIEWSECTIONSTYLE
350
44E3
  3
DIMASSOC
350
2EC
  3
HIDETEXT
350
2EB
  3
INDEXCTL
350
2EA
  3
LIGHTINGUNITS
350
216
  3
MSLTSCALE
350
2E8
  3
SORTENTS
350
2E9
  3
XCLIPFRAME
350
4670
  0
DICTIONARY
  5
1B9
102
{ACAD_REACTORS
330
7
102
}
330
7
100
AcDbDictionary
281
     1
  3
AcmStdDictionary
350
1BA
  3
AMDTSECTSYM_ARROWCOLOR
350
25B
  0
DICTIONARY
  5
1AA
102
{ACAD_REACTORS
330
7
102
}
330
7
100
AcDbDictionary
281
     1
  0
DICTIONARY
  5
265
102
{ACAD_REACTORS
330
7
102
}
330
7
100
AcDbDictionary
281
     1
  0
XRECORD
  5
4673
102
{ACAD_REACTORS
330
7
102
}
330
7
100
AcDbXrecord
280
     1
  1
DWGPROPS COOKIE
  2

  3

  4

  6

  7

  8
scornell
  9

300
=
301
=
302
=
303
=
304
=
305
=
306
=
307
=
308
=
309
=
 40
0.2913159722222222
 41
2454494.837450614
 42
2456906.480927211
  1

 90
        0
  0
DICTIONARY
  5
43BD
102
{ACAD_REACTORS
330
1C
102
}
330
1C
100
AcDbDictionary
281
     1
  0
DICTIONARY
  5
1D
102
{ACAD_REACTORS
330
1C
102
}
330
1C
100
AcDbDictionary
281
     1
  0
DICTIONARY
  5
43BC
102
{ACAD_REACTORS
330
1C
102
}
330
1C
100
AcDbDictionary
281
     1
1001
ACAD
1000
<All
  0
XRECORD
  5
F
102
{ACAD_REACTORS
330
E
102
}
330
E
100
AcDbXrecord
280
     1
290
     1
  0
XRECORD
  5
96
102
{ACAD_REACTORS
330
95
102
}
330
95
100
AcDbXrecord
280
     1
290
     1
  0
XRECORD
  5
9A
102
{ACAD_REACTORS
330
99
102
}
330
99
100
AcDbXrecord
280
     1
290
     1
  0
XRECORD
  5
10E
102
{ACAD_REACTORS
330
10D
102
}
330
10D
100
AcDbXrecord
280
     1
290
     1
  0
XRECORD
  5
119
102
{ACAD_REACTORS
330
118
102
}
330
118
100
AcDbXrecord
280
     1
290
     1
  0
XRECORD
  5
10A
102
{ACAD_REACTORS
330
109
102
}
330
109
100
AcDbXrecord
280
     1
290
     1
  0
XRECORD
  5
C1
102
{ACAD_REACTORS
330
C0
102
}
330
C0
100
AcDbXrecord
280
     1
290
     1
  0
XRECORD
  5
71
102
{ACAD_REACTORS
330
70
102
}
330
70
100
AcDbXrecord
280
     1
290
     1
  0
SORTENTSTABLE
  5
32A6
102
{ACAD_REACTORS
330
32A5
102
}
330
32A5
100
AcDbSortentsTable
330
2
331
11E
  5
11E
331
128
  5
128
331
1E78
  5
1E78
331
125
  5
125
331
1E75
  5
1E75
331
120
  5
120
331
12F
  5
12F
331
1E70
  5
1E70
331
1E7F
  5
1E7F
331
12A
  5
12A
331
1E7A
  5
1E7A
331
127
  5
127
331
1E77
  5
1E77
331
122
  5
122
331
131
  5
131
331
1E72
  5
1E72
331
12C
  5
12C
331
1E7C
  5
1E7C
331
124
  5
124
331
1E74
  5
1E74
331
12E
  5
12E
331
1E7E
  5
1E7E
331
11F
  5
11F
331
129
  5
129
331
1E79
  5
1E79
331
107
  5
107
331
126
  5
126
331
1E76
  5
1E76
331
121
  5
121
331
130
  5
130
331
1E6F
  5
1E6F
331
1E71
  5
1E71
331
1E80
  5
1E80
331
12B
  5
12B
331
1E7B
  5
1E7B
331
123
  5
123
331
1E73
  5
1E73
331
12D
  5
12D
331
1E7D
  5
1E7D
  0
SORTENTSTABLE
  5
466B
102
{ACAD_REACTORS
330
466A
102
}
330
466A
100
AcDbSortentsTable
330
4627
  0
XRECORD
  5
4675
102
{ACAD_REACTORS
330
4674
102
}
330
4674
100
AcDbXrecord
280
     1
 70
     1
  0
XRECORD
  5
4677
102
{ACAD_REACTORS
330
4674
102
}
330
4674
100
AcDbXrecord
280
     1
340
22
  0
XRECORD
  5
4678
102
{ACAD_REACTORS
330
4674
102
}
330
4674
100
AcDbXrecord
280
     1
340
22
  0
XRECORD
  5
4676
102
{ACAD_REACTORS
330
4674
102
}
330
4674
100
AcDbXrecord
280
     1
340
22
  0
ACDBDETAILVIEWSTYLE
  5
44A8
102
{ACAD_REACTORS
330
44A7
102
}
330
44A7
100
AcDbModelDocViewStyle
 70
     0
  3
Imperial24
290
     0
100
AcDbDetailViewStyle
 70
     0
 71
     0
 90
        3
 71
     1
340
1F
 40
0.24
340
0
 40
0.24
300

 40
0.36
280
     3
 71
     2
340
1B
 90
       25
 71
     3
340
1F
 40
0.24
 90
        1
 40
0.75
 90
        1
300
%<\AcVar ViewType \f "%tc1">% %<\AcVar ViewDetailId>%\PSCALE %<\AcVar ViewScale \f "%sn">%
 71
     4
340
1B
 90
       25
340
1B
 90
       25
280
     0
  0
LAYOUT
  5
B
102
{ACAD_XDICTIONARY
360
467B
102
}
102
{ACAD_REACTORS
330
6
102
}
330
6
100
AcDbPlotSettings
  1

  2
C:\Program Files\AutoCAD 2002\plotters\DWF ePlot (optimized for plotting).pc3
  4

  6

 40
0.0
 41
0.0
 42
0.0
 43
0.0
 44
0.0
 45
0.0
 46
0.0
 47
0.0
 48
0.0
 49
0.0
140
0.0
141
0.0
142
1.0
143
1.0
 70
   688
 72
     0
 73
     0
 74
     5
  7
monochrome.ctb
 75
    16
147
1.0
148
0.0
149
0.0
100
AcDbLayout
  1
Layout1
 70
     1
 71
     1
 10
0.0
 20
0.0
 11
12.0
 21
9.0
 12
0.0
 22
0.0
 32
0.0
 14
1.000000000000000E+20
 24
1.000000000000000E+20
 34
1.000000000000000E+20
 15
-1.000000000000000E+20
 25
-1.000000000000000E+20
 35
-1.000000000000000E+20
146
0.0
 13
0.0
 23
0.0
 33
0.0
 16
1.0
 26
0.0
 36
0.0
 17
0.0
 27
1.0
 37
0.0
 76
     0
330
8
  0
LAYOUT
  5
5
102
{ACAD_XDICTIONARY
360
4679
102
}
102
{ACAD_REACTORS
330
6
102
}
330
6
100
AcDbPlotSettings
  1

  2
\\CTBDC\HP LJ P3005
  4
Letter
  6

 40
6.011333465576169
 41
4.233341693878172
 42
6.011322021484375
 43
4.23333740234375
 44
215.8999938964844
 45
279.3999938964844
 46
14.15804419307999
 47
0.0
 48
0.0
 49
0.0
140
0.0
141
0.0
142
1.0
143
0.7987771472915357
 70
 11956
 72
     0
 73
     1
 74
     1
  7
monochrome.ctb
 75
     0
147
1.251913632470287
148
-565.1964851139841
149
130.1031742909926
100
AcDbLayout
  1
Model
 70
     1
 71
     0
 10
0.0
 20
0.0
 11
12.0
 21
9.0
 12
0.0
 22
0.0
 32
0.0
 14
0.0
 24
0.0
 34
0.0
 15
0.0
 25
0.0
 35
0.0
146
0.0
 13
0.0
 23
0.0
 33
0.0
 16
1.0
 26
0.0
 36
0.0
 17
0.0
 27
1.0
 37
0.0
 76
     0
330
2
331
27
1001
ACAD_PSEXT
1000
\\CTBDC\HP LJ P3005
1000
HP LaserJet P3005 PCL 6
1000
Back Office
1000

1070
     0
  0
MATERIAL
  5
3B
102
{ACAD_XDICTIONARY
360
3C
102
}
102
{ACAD_REACTORS
330
13
102
}
330
13
100
AcDbMaterial
  1
ByBlock
 72
     0
 43
0.0208333333333333
 43
0.0
 43
0.0
 43
0.0
 43
0.0
 43
0.0208333333333333
 43
0.0
 43
0.0
 43
0.0
 43
0.0
 43
1.0
 43
0.0
 43
0.0
 43
0.0
 43
0.0
 43
1.0
 77
     0
 47
0.0208333333333333
 47
0.0
 47
0.0
 47
0.0
 47
0.0
 47
0.0208333333333333
 47
0.0
 47
0.0
 47
0.0
 47
0.0
 47
1.0
 47
0.0
 47
0.0
 47
0.0
 47
0.0
 47
1.0
171
     0
 49
0.0208333333333333
 49
0.0
 49
0.0
 49
0.0
 49
0.0
 49
0.0208333333333333
 49
0.0
 49
0.0
 49
0.0
 49
0.0
 49
1.0
 49
0.0
 49
0.0
 49
0.0
 49
0.0
 49
1.0
175
     0
142
0.0208333333333333
142
0.0
142
0.0
142
0.0
142
0.0
142
0.0208333333333333
142
0.0
142
0.0
142
0.0
142
0.0
142
1.0
142
0.0
142
0.0
142
0.0
142
0.0
142
1.0
179
     0
144
0.0208333333333333
144
0.0
144
0.0
144
0.0
144
0.0
144
0.0208333333333333
144
0.0
144
0.0
144
0.0
144
0.0
144
1.0
144
0.0
144
0.0
144
0.0
144
0.0
144
1.0
147
0.0208333333333333
147
0.0
147
0.0
147
0.0
147
0.0
147
0.0208333333333333
147
0.0
147
0.0
147
0.0
147
0.0
147
1.0
147
0.0
147
0.0
147
0.0
147
0.0
147
1.0
  0
MATERIAL
  5
33
102
{ACAD_XDICTIONARY
360
34
102
}
102
{ACAD_REACTORS
330
13
102
}
330
13
100
AcDbMaterial
  1
ByLayer
 72
     0
 43
0.0208333333333333
 43
0.0
 43
0.0
 43
0.0
 43
0.0
 43
0.0208333333333333
 43
0.0
 43
0.0
 43
0.0
 43
0.0
 43
1.0
 43
0.0
 43
0.0
 43
0.0
 43
0.0
 43
1.0
 77
     0
 47
0.0208333333333333
 47
0.0
 47
0.0
 47
0.0
 47
0.0
 47
0.0208333333333333
 47
0.0
 47
0.0
 47
0.0
 47
0.0
 47
1.0
 47
0.0
 47
0.0
 47
0.0
 47
0.0
 47
1.0
171
     0
 49
0.0208333333333333
 49
0.0
 49
0.0
 49
0.0
 49
0.0
 49
0.0208333333333333
 49
0.0
 49
0.0
 49
0.0
 49
0.0
 49
1.0
 49
0.0
 49
0.0
 49
0.0
 49
0.0
 49
1.0
175
     0
142
0.0208333333333333
142
0.0
142
0.0
142
0.0
142
0.0
142
0.0208333333333333
142
0.0
142
0.0
142
0.0
142
0.0
142
1.0
142
0.0
142
0.0
142
0.0
142
0.0
142
1.0
179
     0
144
0.0208333333333333
144
0.0
144
0.0
144
0.0
144
0.0
144
0.0208333333333333
144
0.0
144
0.0
144
0.0
144
0.0
144
1.0
144
0.0
144
0.0
144
0.0
144
0.0
144
1.0
147
0.0208333333333333
147
0.0
147
0.0
147
0.0
147
0.0
147
0.0208333333333333
147
0.0
147
0.0
147
0.0
147
0.0
147
1.0
147
0.0
147
0.0
147
0.0
147
0.0
147
1.0
  0
MATERIAL
  5
12
102
{ACAD_XDICTIONARY
360
14
102
}
102
{ACAD_REACTORS
330
13
102
}
330
13
100
AcDbMaterial
  1
Global
 72
     0
 43
0.0208333333333333
 43
0.0
 43
0.0
 43
0.0
 43
0.0
 43
0.0208333333333333
 43
0.0
 43
0.0
 43
0.0
 43
0.0
 43
1.0
 43
0.0
 43
0.0
 43
0.0
 43
0.0
 43
1.0
 77
     0
 47
0.0208333333333333
 47
0.0
 47
0.0
 47
0.0
 47
0.0
 47
0.0208333333333333
 47
0.0
 47
0.0
 47
0.0
 47
0.0
 47
1.0
 47
0.0
 47
0.0
 47
0.0
 47
0.0
 47
1.0
171
     0
 49
0.0208333333333333
 49
0.0
 49
0.0
 49
0.0
 49
0.0
 49
0.0208333333333333
 49
0.0
 49
0.0
 49
0.0
 49
0.0
 49
1.0
 49
0.0
 49
0.0
 49
0.0
 49
0.0
 49
1.0
175
     0
142
0.0208333333333333
142
0.0
142
0.0
142
0.0
142
0.0
142
0.0208333333333333
142
0.0
142
0.0
142
0.0
142
0.0
142
1.0
142
0.0
142
0.0
142
0.0
142
0.0
142
1.0
179
     0
144
0.0208333333333333
144
0.0
144
0.0
144
0.0
144
0.0
144
0.0208333333333333
144
0.0
144
0.0
144
0.0
144
0.0
144
1.0
144
0.0
144
0.0
144
0.0
144
0.0
144
1.0
147
0.0208333333333333
147
0.0
147
0.0
147
0.0
147
0.0
147
0.0208333333333333
147
0.0
147
0.0
147
0.0
147
0.0
147
1.0
147
0.0
147
0.0
147
0.0
147
0.0
147
1.0
  0
MLEADERSTYLE
  5
226
102
{ACAD_REACTORS
330
225
102
}
330
225
100
AcDbMLeaderStyle
170
     2
171
     1
172
     0
 90
        2
 40
0.0
 41
0.0
173
     1
 91
-1056964608
340
22
 92
       -2
290
     1
 42
0.09
291
     1
 43
0.36
  3
Standard
 44
0.18
300

342
1F
174
     1
178
     6
175
     1
176
     0
 93
-1056964608
 45
0.18
292
     0
297
     0
 46
0.18
 94
-1056964608
 47
1.0
 49
1.0
140
1.0
293
     1
141
0.0
294
     1
177
     0
142
1.0
295
     0
296
     0
143
0.125
1001
ACAD_MLEADERVER
1070
     2
  0
MLINESTYLE
  5
46
102
{ACAD_REACTORS
330
31
102
}
330
31
100
AcDbMlineStyle
  2
STANDARD
 70
     0
  3

 62
   256
 51
90.0
 52
90.0
 71
     2
 49
0.5
 62
   256
  6
BYLAYER
 49
-0.5
 62
   256
  6
BYLAYER
  0
ACDBPLACEHOLDER
  5
10
102
{ACAD_REACTORS
330
11
102
}
330
11
  0
SCALE
  5
4B
102
{ACAD_REACTORS
330
44
102
}
330
44
100
AcDbScale
 70
     0
300
1:1
140
1.0
141
1.0
290
     1
  0
SCALE
  5
4C
102
{ACAD_REACTORS
330
44
102
}
330
44
100
AcDbScale
 70
     0
300
1:2
140
1.0
141
2.0
290
     0
  0
SCALE
  5
4D
102
{ACAD_REACTORS
330
44
102
}
330
44
100
AcDbScale
 70
     0
300
1:4
140
1.0
141
4.0
290
     0
  0
SCALE
  5
4E
102
{ACAD_REACTORS
330
44
102
}
330
44
100
AcDbScale
 70
     0
300
1:5
140
1.0
141
5.0
290
     0
  0
SCALE
  5
4F
102
{ACAD_REACTORS
330
44
102
}
330
44
100
AcDbScale
 70
     0
300
1:8
140
1.0
141
8.0
290
     0
  0
SCALE
  5
50
102
{ACAD_REACTORS
330
44
102
}
330
44
100
AcDbScale
 70
     0
300
1:10
140
1.0
141
10.0
290
     0
  0
SCALE
  5
51
102
{ACAD_REACTORS
330
44
102
}
330
44
100
AcDbScale
 70
     0
300
1:16
140
1.0
141
16.0
290
     0
  0
SCALE
  5
52
102
{ACAD_REACTORS
330
44
102
}
330
44
100
AcDbScale
 70
     0
300
1:20
140
1.0
141
20.0
290
     0
  0
SCALE
  5
53
102
{ACAD_REACTORS
330
44
102
}
330
44
100
AcDbScale
 70
     0
300
1:30
140
1.0
141
30.0
290
     0
  0
SCALE
  5
54
102
{ACAD_REACTORS
330
44
102
}
330
44
100
AcDbScale
 70
     0
300
1:40
140
1.0
141
40.0
290
     0
  0
SCALE
  5
55
102
{ACAD_REACTORS
330
44
102
}
330
44
100
AcDbScale
 70
     0
300
1:50
140
1.0
141
50.0
290
     0
  0
SCALE
  5
56
102
{ACAD_REACTORS
330
44
102
}
330
44
100
AcDbScale
 70
     0
300
1:100
140
1.0
141
100.0
290
     0
  0
SCALE
  5
57
102
{ACAD_REACTORS
330
44
102
}
330
44
100
AcDbScale
 70
     0
300
2:1
140
2.0
141
1.0
290
     0
  0
SCALE
  5
58
102
{ACAD_REACTORS
330
44
102
}
330
44
100
AcDbScale
 70
     0
300
4:1
140
4.0
141
1.0
290
     0
  0
SCALE
  5
59
102
{ACAD_REACTORS
330
44
102
}
330
44
100
AcDbScale
 70
     0
300
8:1
140
8.0
141
1.0
290
     0
  0
SCALE
  5
5A
102
{ACAD_REACTORS
330
44
102
}
330
44
100
AcDbScale
 70
     0
300
10:1
140
10.0
141
1.0
290
     0
  0
SCALE
  5
5B
102
{ACAD_REACTORS
330
44
102
}
330
44
100
AcDbScale
 70
     0
300
100:1
140
100.0
141
1.0
290
     0
  0
SCALE
  5
5C
102
{ACAD_REACTORS
330
44
102
}
330
44
100
AcDbScale
 70
     0
300
1/128" = 1'-0"
140
0.0078125
141
12.0
290
     0
  0
SCALE
  5
5D
102
{ACAD_REACTORS
330
44
102
}
330
44
100
AcDbScale
 70
     0
300
1/64" = 1'-0"
140
0.015625
141
12.0
290
     0
  0
SCALE
  5
5E
102
{ACAD_REACTORS
330
44
102
}
330
44
100
AcDbScale
 70
     0
300
1/32" = 1'-0"
140
0.03125
141
12.0
290
     0
  0
SCALE
  5
5F
102
{ACAD_REACTORS
330
44
102
}
330
44
100
AcDbScale
 70
     0
300
1/16" = 1'-0"
140
0.0625
141
12.0
290
     0
  0
SCALE
  5
60
102
{ACAD_REACTORS
330
44
102
}
330
44
100
AcDbScale
 70
     0
300
3/32" = 1'-0"
140
0.09375
141
12.0
290
     0
  0
SCALE
  5
61
102
{ACAD_REACTORS
330
44
102
}
330
44
100
AcDbScale
 70
     0
300
1/8" = 1'-0"
140
0.125
141
12.0
290
     0
  0
SCALE
  5
62
102
{ACAD_REACTORS
330
44
102
}
330
44
100
AcDbScale
 70
     0
300
3/16" = 1'-0"
140
0.1875
141
12.0
290
     0
  0
SCALE
  5
63
102
{ACAD_REACTORS
330
44
102
}
330
44
100
AcDbScale
 70
     0
300
1/4" = 1'-0"
140
0.25
141
12.0
290
     0
  0
SCALE
  5
64
102
{ACAD_REACTORS
330
44
102
}
330
44
100
AcDbScale
 70
     0
300
3/8" = 1'-0"
140
0.375
141
12.0
290
     0
  0
SCALE
  5
65
102
{ACAD_REACTORS
330
44
102
}
330
44
100
AcDbScale
 70
     0
300
1/2" = 1'-0"
140
0.5
141
12.0
290
     0
  0
SCALE
  5
66
102
{ACAD_REACTORS
330
44
102
}
330
44
100
AcDbScale
 70
     0
300
3/4" = 1'-0"
140
0.75
141
12.0
290
     0
  0
SCALE
  5
67
102
{ACAD_REACTORS
330
44
102
}
330
44
100
AcDbScale
 70
     0
300
1" = 1'-0"
140
1.0
141
12.0
290
     0
  0
SCALE
  5
68
102
{ACAD_REACTORS
330
44
102
}
330
44
100
AcDbScale
 70
     0
300
1-1/2" = 1'-0"
140
1.5
141
12.0
290
     0
  0
SCALE
  5
69
102
{ACAD_REACTORS
330
44
102
}
330
44
100
AcDbScale
 70
     0
300
3" = 1'-0"
140
3.0
141
12.0
290
     0
  0
SCALE
  5
6A
102
{ACAD_REACTORS
330
44
102
}
330
44
100
AcDbScale
 70
     0
300
6" = 1'-0"
140
6.0
141
12.0
290
     0
  0
SCALE
  5
6B
102
{ACAD_REACTORS
330
44
102
}
330
44
100
AcDbScale
 70
     0
300
1'-0" = 1'-0"
140
12.0
141
12.0
290
     0
  0
ACDBSECTIONVIEWSTYLE
  5
44A6
102
{ACAD_REACTORS
330
44A5
102
}
330
44A5
100
AcDbModelDocViewStyle
 70
     0
  3
Imperial24
290
     0
100
AcDbSectionViewStyle
 70
     0
 71
     0
 90
       78
 71
     1
340
1F
 40
0.24
340
0
340
0
 40
0.24
300
I, O, Q, S, X, Z
 40
0.48
 90
        3
 40
0.18
 90
        1
 71
     2
340
1AD
 90
       25
340
1B
 90
       50
 40
0.24
 40
0.0
 40
0.24
 71
     3
340
1F
 40
0.24
 90
        1
 40
0.75
 90
        1
300
%<\AcVar ViewType \f "%tc1">% %<\AcVar ViewSectionStartId>%-%<\AcVar ViewSectionEndId>%\PSCALE %<\AcVar ViewScale \f "%sn">%
 71
     4
300
ANSI31
 40
1.0
 90
        0
290
     0
290
     0
 90
        6
 40
0.0
 40
1.570796326794896
 40
0.2617993877991494
 40
1.308996938995747
 40
-0.2617993877991494
 40
1.832595714594044
  0
TABLESTYLE
  5
47
102
{ACAD_XDICTIONARY
360
48
102
}
102
{ACAD_REACTORS
330
45
102
}
330
45
100
AcDbTableStyle
  3
Standard
 70
     0
 71
     0
 40
0.06
 41
0.06
280
     0
281
     0
  7
Standard
140
0.18
170
     2
 62
     0
 63
     7
283
     0
274
    -2
284
     1
 64
     0
275
    -2
285
     1
 65
     0
276
    -2
286
     1
 66
     0
277
    -2
287
     1
 67
     0
278
    -2
288
     1
 68
     0
279
    -2
289
     1
 69
     0
  7
Standard
140
0.25
170
     5
 62
     0
 63
     7
283
     0
274
    -2
284
     1
 64
     0
275
    -2
285
     1
 65
     0
276
    -2
286
     1
 66
     0
277
    -2
287
     1
 67
     0
278
    -2
288
     1
 68
     0
279
    -2
289
     1
 69
     0
  7
Standard
140
0.18
170
     5
 62
     0
 63
     7
283
     0
274
    -2
284
     1
 64
     0
275
    -2
285
     1
 65
     0
276
    -2
286
     1
 66
     0
277
    -2
287
     1
 67
     0
278
    -2
288
     1
 68
     0
279
    -2
289
     1
 69
     0
  0
VISUALSTYLE
  5
28
102
{ACAD_XDICTIONARY
360
467D
102
}
102
{ACAD_REACTORS
330
29
102
}
330
29
100
AcDbVisualStyle
  2

 70
     4
 71
     0
 72
     2
 73
     0
 90
        0
 40
-0.6
 41
-30.0
 62
     5
 63
     7
 74
     1
 91
        4
 64
     7
 65
   257
 75
     1
175
     1
 42
1.0
 92
        0
 66
   257
 43
1.0
 76
     1
 77
     6
 78
     2
 67
     7
 79
     5
170
     0
171
     0
290
     0
174
     0
 93
        1
 44
0.0
173
     0
291
     0
 45
0.0
1001
ACAD
1000
AcDbSavedByObjectVersion
1070
     0
  0
VISUALSTYLE
  5
21D
102
{ACAD_XDICTIONARY
360
468E
102
}
102
{ACAD_REACTORS
330
29
102
}
330
29
100
AcDbVisualStyle
  2

 70
     6
 71
     1
 72
     2
 73
     2
 90
        0
 40
-0.6
 41
-30.0
 62
     5
 63
     7
 74
     2
 91
        2
 64
     7
 65
   257
 75
     2
175
     1
 42
40.0
 92
        0
 66
   257
 43
1.0
 76
     1
 77
     6
 78
     2
 67
     7
 79
     3
170
     0
171
     0
290
     0
174
     0
 93
        1
 44
0.0
173
     0
291
     0
 45
0.0
1001
ACAD
1000
AcDbSavedByObjectVersion
1070
     0
  0
VISUALSTYLE
  5
4A
102
{ACAD_XDICTIONARY
360
4682
102
}
102
{ACAD_REACTORS
330
29
102
}
330
29
100
AcDbVisualStyle
  2

 70
     5
 71
     0
 72
     2
 73
     0
 90
        0
 40
-0.6
 41
-30.0
 62
     5
 63
     7
 74
     1
 91
        4
 64
     7
 65
   257
 75
     1
175
     1
 42
1.0
 92
        0
 66
   257
 43
1.0
 76
     1
 77
     6
 78
     2
 67
     7
 79
     5
170
     0
171
     0
290
     0
174
     0
 93
        1
 44
0.0
173
     0
291
     0
 45
0.0
1001
ACAD
1000
AcDbSavedByObjectVersion
1070
     0
  0
VISUALSTYLE
  5
21C
102
{ACAD_XDICTIONARY
360
468C
102
}
102
{ACAD_REACTORS
330
29
102
}
330
29
100
AcDbVisualStyle
  2

 70
     7
 71
     1
 72
     0
 73
     1
 90
        0
 40
-0.6
 41
-30.0
 62
     5
 63
     7
 74
     0
 91
        4
 64
     7
 65
   257
 75
     1
175
     1
 42
1.0
 92
        8
 66
     7
 43
1.0
 76
     1
 77
     6
 78
     2
 67
     7
 79
     5
170
     0
171
     0
290
     0
174
     0
 93
        1
 44
0.0
173
     0
291
     1
 45
0.0
1001
ACAD
1000
AcDbSavedByObjectVersion
1070
     0
  0
VISUALSTYLE
  5
220
102
{ACAD_XDICTIONARY
360
4694
102
}
102
{ACAD_REACTORS
330
29
102
}
330
29
100
AcDbVisualStyle
  2

 70
    12
 71
     2
 72
     2
 73
     0
 90
        0
 40
-0.6
 41
-30.0
 62
     5
 63
     7
 74
     1
 91
        4
 64
     7
 65
   257
 75
     1
175
     1
 42
1.0
 92
        8
 66
     7
 43
1.0
 76
     1
 77
     6
 78
     2
 67
     7
 79
     5
170
     0
171
     0
290
     0
174
     0
 93
        1
 44
50.0
173
     0
291
     1
 45
0.0
1001
ACAD
1000
AcDbSavedByObjectVersion
1070
     0
  0
VISUALSTYLE
  5
224
102
{ACAD_XDICTIONARY
360
469C
102
}
102
{ACAD_REACTORS
330
29
102
}
330
29
100
AcDbVisualStyle
  2

 70
    16
 71
     2
 72
     2
 73
     3
 90
        0
 40
-0.6
 41
-30.0
 62
     5
 63
     8
 74
     1
 91
        4
 64
     7
 65
   257
 75
     1
175
     1
 42
1.0
 92
        8
 66
     8
 43
1.0
 76
     1
 77
     6
 78
     2
 67
     7
 79
     5
170
     0
171
     0
290
     0
174
     0
 93
        1
 44
0.0
173
     0
291
     1
 45
0.0
1001
ACAD
1000
AcDbSavedByObjectVersion
1070
     0
  0
VISUALSTYLE
  5
21E
102
{ACAD_XDICTIONARY
360
4690
102
}
102
{ACAD_REACTORS
330
29
102
}
330
29
100
AcDbVisualStyle
  2

 70
     9
 71
     3
 72
     2
 73
     0
 90
        0
 40
-0.6
 41
-30.0
 62
     5
 63
     7
 74
     2
 91
        2
 64
     7
 65
   257
 75
     1
175
     1
 42
40.0
 92
        8
 66
     7
 43
1.0
 76
     1
 77
     6
 78
     2
 67
     7
 79
     3
170
     0
171
     0
290
     0
174
     0
 93
        1
 44
0.0
173
     0
291
     0
 45
0.0
1001
ACAD
1000
AcDbSavedByObjectVersion
1070
     0
  0
VISUALSTYLE
  5
21F
102
{ACAD_XDICTIONARY
360
4692
102
}
102
{ACAD_REACTORS
330
29
102
}
330
29
100
AcDbVisualStyle
  2

 70
    11
 71
     2
 72
     2
 73
     0
 90
        0
 40
-0.6
 41
-30.0
 62
     5
 63
     7
 74
     1
 91
        4
 64
     7
 65
   257
 75
     1
175
     1
 42
1.0
 92
        8
 66
     7
 43
1.0
 76
     1
 77
     6
 78
     2
 67
     7
 79
     5
170
     0
171
     0
290
     0
174
     0
 93
        1
 44
-50.0
173
     0
291
     1
 45
0.0
1001
ACAD
1000
AcDbSavedByObjectVersion
1070
     0
  0
VISUALSTYLE
  5
44A4
102
{ACAD_XDICTIONARY
360
46B0
102
}
102
{ACAD_REACTORS
330
29
102
}
330
29
100
AcDbVisualStyle
  2

 70
    22
 71
     2
 72
     2
 73
     0
 90
        0
 40
-0.6
 41
-30.0
 62
     5
 63
     7
 74
     1
 91
        4
 64
     7
 65
   257
 75
     1
175
     1
 42
1.0
 92
        8
 66
     7
 43
1.0
 76
     1
 77
     6
 78
     2
 67
     7
 79
     5
170
     0
171
     0
290
     0
174
     0
 93
        1
 44
0.0
173
     0
291
     1
 45
0.0
1001
ACAD
1000
AcDbSavedByObjectVersion
1070
     0
  0
VISUALSTYLE
  5
223
102
{ACAD_XDICTIONARY
360
469A
102
}
102
{ACAD_REACTORS
330
29
102
}
330
29
100
AcDbVisualStyle
  2

 70
    15
 71
     2
 72
     2
 73
     0
 90
        0
 40
-0.6
 41
-30.0
 62
     5
 63
     7
 74
     1
 91
        4
 64
     7
 65
   257
 75
     1
175
     1
 42
1.0
 92
        8
 66
     7
 43
1.0
 76
     1
 77
     6
 78
     2
 67
     7
 79
     5
170
     0
171
     0
290
     0
174
     0
 93
        1
 44
0.0
173
     0
291
     1
 45
0.0
1001
ACAD
1000
AcDbSavedByObjectVersion
1070
     0
  0
VISUALSTYLE
  5
218
102
{ACAD_XDICTIONARY
360
4684
102
}
102
{ACAD_REACTORS
330
29
102
}
330
29
100
AcDbVisualStyle
  2

 70
     0
 71
     2
 72
     1
 73
     1
 90
        2
 40
-0.6
 41
30.0
 62
     5
 63
     7
 74
     0
 91
        4
 64
     7
 65
   257
 75
     1
175
     1
 42
1.0
 92
        8
 66
     7
 43
1.0
 76
     1
 77
     6
 78
     2
 67
     7
 79
     5
170
     0
171
     0
290
     0
174
     0
 93
       13
 44
0.0
173
     0
291
     1
 45
0.0
1001
ACAD
1000
AcDbSavedByObjectVersion
1070
     0
  0
VISUALSTYLE
  5
219
102
{ACAD_XDICTIONARY
360
4686
102
}
102
{ACAD_REACTORS
330
29
102
}
330
29
100
AcDbVisualStyle
  2

 70
     1
 71
     2
 72
     1
 73
     1
 90
        2
 40
-0.6
 41
30.0
 62
     5
 63
     7
 74
     1
 91
        4
 64
     7
 65
   257
 75
     1
175
     1
 42
1.0
 92
        0
 66
   257
 43
1.0
 76
     1
 77
     6
 78
     2
 67
     7
 79
     5
170
     0
171
     0
290
     0
174
     0
 93
       13
 44
0.0
173
     0
291
     1
 45
0.0
1001
ACAD
1000
AcDbSavedByObjectVersion
1070
     0
  0
VISUALSTYLE
  5
21A
102
{ACAD_XDICTIONARY
360
4688
102
}
102
{ACAD_REACTORS
330
29
102
}
330
29
100
AcDbVisualStyle
  2

 70
     2
 71
     2
 72
     2
 73
     1
 90
        2
 40
-0.6
 41
30.0
 62
     5
 63
     7
 74
     0
 91
        4
 64
     7
 65
   257
 75
     1
175
     1
 42
1.0
 92
        0
 66
     7
 43
1.0
 76
     1
 77
     6
 78
     2
 67
     7
 79
     5
170
     0
171
     0
290
     0
174
     0
 93
       13
 44
0.0
173
     0
291
     1
 45
0.0
1001
ACAD
1000
AcDbSavedByObjectVersion
1070
     0
  0
VISUALSTYLE
  5
21B
102
{ACAD_XDICTIONARY
360
468A
102
}
102
{ACAD_REACTORS
330
29
102
}
330
29
100
AcDbVisualStyle
  2

 70
     3
 71
     2
 72
     2
 73
     1
 90
        2
 40
-0.6
 41
30.0
 62
     5
 63
     7
 74
     1
 91
        4
 64
     7
 65
   257
 75
     1
175
     1
 42
1.0
 92
        0
 66
   257
 43
1.0
 76
     1
 77
     6
 78
     2
 67
     7
 79
     5
170
     0
171
     0
290
     0
174
     0
 93
       13
 44
0.0
173
     0
291
     1
 45
0.0
1001
ACAD
1000
AcDbSavedByObjectVersion
1070
     0
  0
VISUALSTYLE
  5
449C
102
{ACAD_XDICTIONARY
360
46A0
102
}
102
{ACAD_REACTORS
330
29
102
}
330
29
100
AcDbVisualStyle
  2

 70
     6
 71
     1
 72
     2
 73
     2
 90
        0
 40
-0.6
 41
-30.0
 62
     5
 63
     7
 74
     2
 91
        2
 64
     7
 65
   257
 75
     2
175
     1
 42
40.0
 92
        0
 66
   257
 43
1.0
 76
     1
 77
     6
 78
     2
 67
     7
 79
     3
170
     0
171
     0
290
     0
174
     0
 93
        1
 44
0.0
173
     0
291
     0
 45
0.0
1001
ACAD
1000
AcDbSavedByObjectVersion
1070
     0
  0
VISUALSTYLE
  5
44A2
102
{ACAD_XDICTIONARY
360
46AC
102
}
102
{ACAD_REACTORS
330
29
102
}
330
29
100
AcDbVisualStyle
  2

 70
    20
 71
     2
 72
     2
 73
     0
 90
        0
 40
-0.6
 41
-30.0
 62
     5
 63
     7
 74
     1
 91
        4
 64
     7
 65
   257
 75
     1
175
     1
 42
1.0
 92
       10
 66
     7
 43
1.0
 76
     1
 77
     6
 78
     2
 67
     7
 79
     5
170
     0
171
     0
290
     0
174
     0
 93
        1
 44
0.0
173
     0
291
     1
 45
0.0
1001
ACAD
1000
AcDbSavedByObjectVersion
1070
     0
  0
VISUALSTYLE
  5
222
102
{ACAD_XDICTIONARY
360
4698
102
}
102
{ACAD_REACTORS
330
29
102
}
330
29
100
AcDbVisualStyle
  2

 70
    14
 71
     2
 72
     2
 73
     0
 90
        0
 40
-0.6
 41
-30.0
 62
     5
 63
     7
 74
     1
 91
        4
 64
     7
 65
   257
 75
     7
175
     7
 42
1.0
 92
        8
 66
     7
 43
1.0
 76
     1
 77
     6
 78
     2
 67
     7
 79
     5
170
     0
171
     0
290
     0
174
     0
 93
        1
 44
0.0
173
     0
291
     1
 45
0.0
1001
ACAD
1000
AcDbSavedByObjectVersion
1070
     0
  0
VISUALSTYLE
  5
44A3
102
{ACAD_XDICTIONARY
360
46AE
102
}
102
{ACAD_REACTORS
330
29
102
}
330
29
100
AcDbVisualStyle
  2

 70
    21
 71
     2
 72
     2
 73
     0
 90
        0
 40
-0.6
 41
-30.0
 62
     5
 63
     7
 74
     1
 91
        4
 64
     7
 65
   257
 75
     1
175
     1
 42
1.0
 92
        9
 66
     7
 43
1.0
 76
     1
 77
     6
 78
     2
 67
     7
 79
     5
170
     0
171
     0
290
     0
174
     0
 93
        1
 44
0.0
173
     0
291
     1
 45
0.0
1001
ACAD
1000
AcDbSavedByObjectVersion
1070
     0
  0
VISUALSTYLE
  5
49
102
{ACAD_XDICTIONARY
360
4680
102
}
102
{ACAD_REACTORS
330
29
102
}
330
29
100
AcDbVisualStyle
  2

 70
     8
 71
     2
 72
     2
 73
     0
 90
        0
 40
-0.6
 41
-30.0
 62
     5
 63
     7
 74
     1
 91
        0
 64
     7
 65
   257
 75
     1
175
     1
 42
1.0
 92
        8
 66
     8
 43
1.0
 76
     1
 77
     6
 78
     2
 67
     7
 79
     5
170
     0
171
     0
290
     0
174
     0
 93
       13
 44
0.0
173
     0
291
     0
 45
0.0
1001
ACAD
1000
AcDbSavedByObjectVersion
1070
     0
  0
VISUALSTYLE
  5
44A1
102
{ACAD_XDICTIONARY
360
46AA
102
}
102
{ACAD_REACTORS
330
29
102
}
330
29
100
AcDbVisualStyle
  2

 70
    27
 71
     2
 72
     2
 73
     1
 90
        2
 40
-0.6
 41
30.0
 62
     5
 63
     7
 74
     0
 91
        4
 64
     7
 65
   257
 75
     1
175
     1
 42
1.0
 92
        8
 66
   257
 43
1.0
 76
     1
 77
     6
 78
     2
 67
     8
 79
     3
170
     0
171
     0
290
     0
174
     0
 93
        5
 44
0.0
173
     0
291
     0
 45
0.0
1001
ACAD
1000
AcDbSavedByObjectVersion
1070
     0
  0
VISUALSTYLE
  5
44A0
102
{ACAD_XDICTIONARY
360
46A8
102
}
102
{ACAD_REACTORS
330
29
102
}
330
29
100
AcDbVisualStyle
  2

 70
    26
 71
     2
 72
     2
 73
     1
 90
        2
 40
-0.6
 41
30.0
 62
     5
 63
     7
 74
     1
 91
       10
 64
     7
 65
   257
 75
     2
175
     1
 42
1.0
 92
        8
 66
   257
 43
1.0
 76
     1
 77
     6
 78
     2
 67
     7
 79
     3
170
     0
171
     0
290
     0
174
     0
 93
        5
 44
0.0
173
     0
291
     0
 45
0.0
1001
ACAD
1000
AcDbSavedByObjectVersion
1070
     0
  0
VISUALSTYLE
  5
449D
102
{ACAD_XDICTIONARY
360
46A2
102
}
102
{ACAD_REACTORS
330
29
102
}
330
29
100
AcDbVisualStyle
  2

 70
    23
 71
     2
 72
     2
 73
     3
 90
        0
 40
-0.6
 41
-30.0
 62
     5
 63
     7
 74
     2
 91
        2
 64
     7
 65
     7
 75
     1
175
     1
 42
40.0
 92
        8
 66
     7
 43
1.0
 76
     1
 77
     6
 78
     2
 67
     7
 79
     3
170
     0
171
     0
290
     0
174
     0
 93
        1
 44
0.0
173
     0
291
     0
 45
0.0
1001
ACAD
1000
AcDbSavedByObjectVersion
1070
     0
  0
VISUALSTYLE
  5
449E
102
{ACAD_XDICTIONARY
360
46A4
102
}
102
{ACAD_REACTORS
330
29
102
}
330
29
100
AcDbVisualStyle
  2

 70
    24
 71
     1
 72
     2
 73
     2
 90
        0
 40
-0.6
 41
-30.0
 62
     5
 63
     7
 74
     2
 91
        2
 64
     7
 65
     7
 75
     1
175
     1
 42
40.0
 92
       11
 66
     7
 43
1.0
 76
     1
 77
     6
 78
     2
 67
     7
 79
     6
170
     0
171
     0
290
     0
174
     0
 93
        1
 44
0.0
173
     0
291
     0
 45
0.0
1001
ACAD
1000
AcDbSavedByObjectVersion
1070
     0
  0
VISUALSTYLE
  5
221
102
{ACAD_XDICTIONARY
360
4696
102
}
102
{ACAD_REACTORS
330
29
102
}
330
29
100
AcDbVisualStyle
  2

 70
    13
 71
     2
 72
     2
 73
     0
 90
        0
 40
-0.6
 41
-30.0
 62
     5
 63
     7
 74
     1
 91
        4
 64
     7
 65
   257
 75
     1
175
     1
 42
1.0
 92
       12
 66
     7
 43
1.0
 76
     1
 77
     6
 78
     2
 67
     7
 79
     5
170
     0
171
     0
290
     0
174
     0
 93
        1
 44
0.0
173
     0
291
     1
 45
0.0
1001
ACAD
1000
AcDbSavedByObjectVersion
1070
     0
  0
VISUALSTYLE
  5
449B
102
{ACAD_XDICTIONARY
360
469E
102
}
102
{ACAD_REACTORS
330
29
102
}
330
29
100
AcDbVisualStyle
  2

 70
     5
 71
     0
 72
     2
 73
     0
 90
        0
 40
-0.6
 41
-30.0
 62
     5
 63
     7
 74
     1
 91
        4
 64
     7
 65
   257
 75
     1
175
     1
 42
1.0
 92
        0
 66
   257
 43
1.0
 76
     1
 77
     6
 78
     2
 67
     7
 79
     3
170
     0
171
     0
290
     0
174
     0
 93
        1
 44
0.0
173
     0
291
     0
 45
0.0
1001
ACAD
1000
AcDbSavedByObjectVersion
1070
     0
  0
VISUALSTYLE
  5
449F
102
{ACAD_XDICTIONARY
360
46A6
102
}
102
{ACAD_REACTORS
330
29
102
}
330
29
100
AcDbVisualStyle
  2

 70
    25
 71
     2
 72
     2
 73
     1
 90
        1
 40
0.5
 41
-30.0
 62
     5
 63
     7
 74
     1
 91
        0
 64
     7
 65
   257
 75
     1
175
     1
 42
1.0
 92
        8
 66
     7
 43
1.0
 76
     1
 77
     6
 78
     2
 67
     7
 79
     3
170
     0
171
     0
290
     0
174
     0
 93
       13
 44
0.0
173
     0
291
     0
 45
0.0
1001
ACAD
1000
AcDbSavedByObjectVersion
1070
     0
  0
DICTIONARYVAR
  5
215
102
{ACAD_REACTORS
330
212
102
}
330
212
100
DictionaryVariables
280
     0
  1
1:1
  0
DICTIONARYVAR
  5
214
102
{ACAD_REACTORS
330
212
102
}
330
212
100
DictionaryVariables
280
     0
  1
STANDARD
  0
DICTIONARYVAR
  5
213
102
{ACAD_REACTORS
330
212
102
}
330
212
100
DictionaryVariables
280
     0
  1
STANDARD
  0
DICTIONARYVAR
  5
44E2
102
{ACAD_REACTORS
330
212
102
}
330
212
100
DictionaryVariables
280
     0
  1
Imperial24
  0
DICTIONARYVAR
  5
44E3
102
{ACAD_REACTORS
330
212
102
}
330
212
100
DictionaryVariables
280
     0
  1
Imperial24
  0
DICTIONARYVAR
  5
2EC
102
{ACAD_REACTORS
330
212
102
}
330
212
100
DictionaryVariables
280
     0
  1
2
  0
DICTIONARYVAR
  5
2EB
102
{ACAD_REACTORS
330
212
102
}
330
212
100
DictionaryVariables
280
     0
  1
1
  0
DICTIONARYVAR
  5
2EA
102
{ACAD_REACTORS
330
212
102
}
330
212
100
DictionaryVariables
280
     0
  1
0
  0
DICTIONARYVAR
  5
216
102
{ACAD_REACTORS
330
212
102
}
330
212
100
DictionaryVariables
280
     0
  1
0
  0
DICTIONARYVAR
  5
2E8
102
{ACAD_REACTORS
330
212
102
}
330
212
100
DictionaryVariables
280
     0
  1
1
  0
DICTIONARYVAR
  5
2E9
102
{ACAD_REACTORS
330
212
102
}
330
212
100
DictionaryVariables
280
     0
  1
127
  0
DICTIONARYVAR
  5
4670
102
{ACAD_REACTORS
330
212
102
}
330
212
100
DictionaryVariables
280
     0
  1
2
  0
DICTIONARY
  5
1BA
102
{ACAD_REACTORS
330
1B9
102
}
330
1B9
100
AcDbDictionary
281
     1
  0
XRECORD
  5
25B
102
{ACAD_REACTORS
330
1B9
102
}
330
1B9
100
AcDbXrecord
280
     1
 90
-1023410169
  0
DICTIONARY
  5
467B
330
B
100
AcDbDictionary
280
     1
281
     1
  3
ACAD_XREC_ROUNDTRIP
360
467C
  0
DICTIONARY
  5
4679
330
5
100
AcDbDictionary
280
     1
281
     1
  3
ACAD_XREC_ROUNDTRIP
360
467A
  0
DICTIONARY
  5
3C
330
3B
100
AcDbDictionary
280
     1
281
     1
  3
ACAD_XREC_ROUNDTRIP
360
44F5
  3
BUMPTILE
360
3D
  3
DIFFUSETILE
360
3E
  3
OPACITYTILE
360
3F
  3
REFLECTIONTILE
360
40
  3
REFRACTIONTILE
360
41
  3
SPECULARTILE
360
42
  0
DICTIONARY
  5
34
330
33
100
AcDbDictionary
280
     1
281
     1
  3
ACAD_XREC_ROUNDTRIP
360
44F4
  3
BUMPTILE
360
35
  3
DIFFUSETILE
360
36
  3
OPACITYTILE
360
37
  3
REFLECTIONTILE
360
38
  3
REFRACTIONTILE
360
39
  3
SPECULARTILE
360
3A
  0
DICTIONARY
  5
14
330
12
100
AcDbDictionary
280
     1
281
     1
  3
ACAD_XREC_ROUNDTRIP
360
44F1
  3
BUMPTILE
360
15
  3
DIFFUSETILE
360
16
  3
OPACITYTILE
360
17
  3
REFLECTIONTILE
360
18
  3
REFRACTIONTILE
360
19
  3
SPECULARTILE
360
1A
  0
DICTIONARY
  5
48
330
47
100
AcDbDictionary
280
     1
281
     1
  3
ACAD_ROUNDTRIP_2008_TABLESTYLE_CELLSTYLEMAP
360
4671
  3
ACAD_XREC_ROUNDTRIP
360
467F
  0
DICTIONARY
  5
467D
330
28
100
AcDbDictionary
280
     1
281
     1
  3
ACAD_XREC_ROUNDTRIP
360
467E
  0
DICTIONARY
  5
468E
330
21D
100
AcDbDictionary
280
     1
281
     1
  3
ACAD_XREC_ROUNDTRIP
360
468F
  0
DICTIONARY
  5
4682
330
4A
100
AcDbDictionary
280
     1
281
     1
  3
ACAD_XREC_ROUNDTRIP
360
4683
  0
DICTIONARY
  5
468C
330
21C
100
AcDbDictionary
280
     1
281
     1
  3
ACAD_XREC_ROUNDTRIP
360
468D
  0
DICTIONARY
  5
4694
330
220
100
AcDbDictionary
280
     1
281
     1
  3
ACAD_XREC_ROUNDTRIP
360
4695
  0
DICTIONARY
  5
469C
330
224
100
AcDbDictionary
280
     1
281
     1
  3
ACAD_XREC_ROUNDTRIP
360
469D
  0
DICTIONARY
  5
4690
330
21E
100
AcDbDictionary
280
     1
281
     1
  3
ACAD_XREC_ROUNDTRIP
360
4691
  0
DICTIONARY
  5
4692
330
21F
100
AcDbDictionary
280
     1
281
     1
  3
ACAD_XREC_ROUNDTRIP
360
4693
  0
DICTIONARY
  5
46B0
330
44A4
100
AcDbDictionary
280
     1
281
     1
  3
ACAD_XREC_ROUNDTRIP
360
46B1
  0
DICTIONARY
  5
469A
330
223
100
AcDbDictionary
280
     1
281
     1
  3
ACAD_XREC_ROUNDTRIP
360
469B
  0
DICTIONARY
  5
4684
330
218
100
AcDbDictionary
280
     1
281
     1
  3
ACAD_XREC_ROUNDTRIP
360
4685
  0
DICTIONARY
  5
4686
330
219
100
AcDbDictionary
280
     1
281
     1
  3
ACAD_XREC_ROUNDTRIP
360
4687
  0
DICTIONARY
  5
4688
330
21A
100
AcDbDictionary
280
     1
281
     1
  3
ACAD_XREC_ROUNDTRIP
360
4689
  0
DICTIONARY
  5
468A
330
21B
100
AcDbDictionary
280
     1
281
     1
  3
ACAD_XREC_ROUNDTRIP
360
468B
  0
DICTIONARY
  5
46A0
330
449C
100
AcDbDictionary
280
     1
281
     1
  3
ACAD_XREC_ROUNDTRIP
360
46A1
  0
DICTIONARY
  5
46AC
330
44A2
100
AcDbDictionary
280
     1
281
     1
  3
ACAD_XREC_ROUNDTRIP
360
46AD
  0
DICTIONARY
  5
4698
330
222
100
AcDbDictionary
280
     1
281
     1
  3
ACAD_XREC_ROUNDTRIP
360
4699
  0
DICTIONARY
  5
46AE
330
44A3
100
AcDbDictionary
280
     1
281
     1
  3
ACAD_XREC_ROUNDTRIP
360
46AF
  0
DICTIONARY
  5
4680
330
49
100
AcDbDictionary
280
     1
281
     1
  3
ACAD_XREC_ROUNDTRIP
360
4681
  0
DICTIONARY
  5
46AA
330
44A1
100
AcDbDictionary
280
     1
281
     1
  3
ACAD_XREC_ROUNDTRIP
360
46AB
  0
DICTIONARY
  5
46A8
330
44A0
100
AcDbDictionary
280
     1
281
     1
  3
ACAD_XREC_ROUNDTRIP
360
46A9
  0
DICTIONARY
  5
46A2
330
449D
100
AcDbDictionary
280
     1
281
     1
  3
ACAD_XREC_ROUNDTRIP
360
46A3
  0
DICTIONARY
  5
46A4
330
449E
100
AcDbDictionary
280
     1
281
     1
  3
ACAD_XREC_ROUNDTRIP
360
46A5
  0
DICTIONARY
  5
4696
330
221
100
AcDbDictionary
280
     1
281
     1
  3
ACAD_XREC_ROUNDTRIP
360
4697
  0
DICTIONARY
  5
469E
330
449B
100
AcDbDictionary
280
     1
281
     1
  3
ACAD_XREC_ROUNDTRIP
360
469F
  0
DICTIONARY
  5
46A6
330
449F
100
AcDbDictionary
280
     1
281
     1
  3
ACAD_XREC_ROUNDTRIP
360
46A7
  0
XRECORD
  5
467C
102
{ACAD_REACTORS
330
467B
102
}
330
467B
100
AcDbXrecord
280
     1
102
SHADEPLOT
 70
     0
102
SHADEPLOTRESLEVEL
 70
     2
102
SHADEPLOTCUSTOMDPI
 70
   300
  0
XRECORD
  5
467A
102
{ACAD_REACTORS
330
4679
102
}
330
4679
100
AcDbXrecord
280
     1
102
SHADEPLOT
 70
     0
102
SHADEPLOTRESLEVEL
 70
     2
102
SHADEPLOTCUSTOMDPI
 70
   300
  0
XRECORD
  5
44F5
102
{ACAD_REACTORS
330
3C
102
}
330
3C
100
AcDbXrecord
280
     1
102
MATERIAL
148
0.0
149
0.0
149
0.0
 93
        0
 94
      127
282
     0
 72
     0
 77
     0
171
     0
175
     0
179
     0
273
     0
  0
XRECORD
  5
3D
102
{ACAD_REACTORS
330
3C
102
}
330
3C
100
AcDbXrecord
280
     1
270
     1
271
     1
  0
XRECORD
  5
3E
102
{ACAD_REACTORS
330
3C
102
}
330
3C
100
AcDbXrecord
280
     1
270
     1
271
     1
  0
XRECORD
  5
3F
102
{ACAD_REACTORS
330
3C
102
}
330
3C
100
AcDbXrecord
280
     1
270
     1
271
     1
  0
XRECORD
  5
40
102
{ACAD_REACTORS
330
3C
102
}
330
3C
100
AcDbXrecord
280
     1
270
     1
271
     1
  0
XRECORD
  5
41
102
{ACAD_REACTORS
330
3C
102
}
330
3C
100
AcDbXrecord
280
     1
270
     1
271
     1
  0
XRECORD
  5
42
102
{ACAD_REACTORS
330
3C
102
}
330
3C
100
AcDbXrecord
280
     1
270
     1
271
     1
  0
XRECORD
  5
44F4
102
{ACAD_REACTORS
330
34
102
}
330
34
100
AcDbXrecord
280
     1
102
MATERIAL
148
0.0
149
0.0
149
0.0
 93
        0
 94
      127
282
     0
 72
     0
 77
     0
171
     0
175
     0
179
     0
273
     0
  0
XRECORD
  5
35
102
{ACAD_REACTORS
330
34
102
}
330
34
100
AcDbXrecord
280
     1
270
     1
271
     1
  0
XRECORD
  5
36
102
{ACAD_REACTORS
330
34
102
}
330
34
100
AcDbXrecord
280
     1
270
     1
271
     1
  0
XRECORD
  5
37
102
{ACAD_REACTORS
330
34
102
}
330
34
100
AcDbXrecord
280
     1
270
     1
271
     1
  0
XRECORD
  5
38
102
{ACAD_REACTORS
330
34
102
}
330
34
100
AcDbXrecord
280
     1
270
     1
271
     1
  0
XRECORD
  5
39
102
{ACAD_REACTORS
330
34
102
}
330
34
100
AcDbXrecord
280
     1
270
     1
271
     1
  0
XRECORD
  5
3A
102
{ACAD_REACTORS
330
34
102
}
330
34
100
AcDbXrecord
280
     1
270
     1
271
     1
  0
XRECORD
  5
44F1
102
{ACAD_REACTORS
330
14
102
}
330
14
100
AcDbXrecord
280
     1
102
MATERIAL
148
0.0
149
0.0
149
0.0
 93
        0
 94
      127
282
     0
 72
     0
 77
     0
171
     0
175
     0
179
     0
273
     0
  0
XRECORD
  5
15
102
{ACAD_REACTORS
330
14
102
}
330
14
100
AcDbXrecord
280
     1
270
     1
271
     1
  0
XRECORD
  5
16
102
{ACAD_REACTORS
330
14
102
}
330
14
100
AcDbXrecord
280
     1
270
     1
271
     1
  0
XRECORD
  5
17
102
{ACAD_REACTORS
330
14
102
}
330
14
100
AcDbXrecord
280
     1
270
     1
271
     1
  0
XRECORD
  5
18
102
{ACAD_REACTORS
330
14
102
}
330
14
100
AcDbXrecord
280
     1
270
     1
271
     1
  0
XRECORD
  5
19
102
{ACAD_REACTORS
330
14
102
}
330
14
100
AcDbXrecord
280
     1
270
     1
271
     1
  0
XRECORD
  5
1A
102
{ACAD_REACTORS
330
14
102
}
330
14
100
AcDbXrecord
280
     1
270
     1
271
     1
  0
CELLSTYLEMAP
  5
4671
102
{ACAD_REACTORS
330
48
102
}
330
48
100
AcDbCellStyleMap
 90
        3
300
CELLSTYLE
  1
TABLEFORMAT_BEGIN
 90
        5
170
     1
 91
        0
 92
    32768
 62
   257
 93
        1
300
CONTENTFORMAT
  1
CONTENTFORMAT_BEGIN
 90
        0
 91
        0
 92
      512
 93
        0
300

 40
0.0
140
1.0
 94
        5
 62
     0
340
1F
144
0.25
309
CONTENTFORMAT_END
171
     1
301
MARGIN
  1
CELLMARGIN_BEGIN
 40
0.06
 40
0.06
 40
0.06
 40
0.06
 40
0.18
 40
0.18
309
CELLMARGIN_END
 94
        6
 95
        1
302
GRIDFORMAT
  1
GRIDFORMAT_BEGIN
 90
        0
 91
        1
 62
     0
 92
       -2
340
0
 93
        0
 40
0.045
309
GRIDFORMAT_END
 95
        2
302
GRIDFORMAT
  1
GRIDFORMAT_BEGIN
 90
        0
 91
        1
 62
     0
 92
       -2
340
0
 93
        0
 40
0.045
309
GRIDFORMAT_END
 95
        4
302
GRIDFORMAT
  1
GRIDFORMAT_BEGIN
 90
        0
 91
        1
 62
     0
 92
       -2
340
0
 93
        0
 40
0.045
309
GRIDFORMAT_END
 95
        8
302
GRIDFORMAT
  1
GRIDFORMAT_BEGIN
 90
        0
 91
        1
 62
     0
 92
       -2
340
0
 93
        0
 40
0.045
309
GRIDFORMAT_END
 95
       16
302
GRIDFORMAT
  1
GRIDFORMAT_BEGIN
 90
        0
 91
        1
 62
     0
 92
       -2
340
0
 93
        0
 40
0.045
309
GRIDFORMAT_END
 95
       32
302
GRIDFORMAT
  1
GRIDFORMAT_BEGIN
 90
        0
 91
        1
 62
     0
 92
       -2
340
0
 93
        0
 40
0.045
309
GRIDFORMAT_END
309
TABLEFORMAT_END
  1
CELLSTYLE_BEGIN
 90
        1
 91
        1
300
_TITLE
309
CELLSTYLE_END
300
CELLSTYLE
  1
TABLEFORMAT_BEGIN
 90
        5
170
     1
 91
        0
 92
        0
 62
   257
 93
        1
300
CONTENTFORMAT
  1
CONTENTFORMAT_BEGIN
 90
        0
 91
        0
 92
      512
 93
        0
300

 40
0.0
140
1.0
 94
        5
 62
     0
340
1F
144
0.18
309
CONTENTFORMAT_END
171
     1
301
MARGIN
  1
CELLMARGIN_BEGIN
 40
0.06
 40
0.06
 40
0.06
 40
0.06
 40
0.18
 40
0.18
309
CELLMARGIN_END
 94
        6
 95
        1
302
GRIDFORMAT
  1
GRIDFORMAT_BEGIN
 90
        0
 91
        1
 62
     0
 92
       -2
340
0
 93
        0
 40
0.045
309
GRIDFORMAT_END
 95
        2
302
GRIDFORMAT
  1
GRIDFORMAT_BEGIN
 90
        0
 91
        1
 62
     0
 92
       -2
340
0
 93
        0
 40
0.045
309
GRIDFORMAT_END
 95
        4
302
GRIDFORMAT
  1
GRIDFORMAT_BEGIN
 90
        0
 91
        1
 62
     0
 92
       -2
340
0
 93
        0
 40
0.045
309
GRIDFORMAT_END
 95
        8
302
GRIDFORMAT
  1
GRIDFORMAT_BEGIN
 90
        0
 91
        1
 62
     0
 92
       -2
340
0
 93
        0
 40
0.045
309
GRIDFORMAT_END
 95
       16
302
GRIDFORMAT
  1
GRIDFORMAT_BEGIN
 90
        0
 91
        1
 62
     0
 92
       -2
340
0
 93
        0
 40
0.045
309
GRIDFORMAT_END
 95
       32
302
GRIDFORMAT
  1
GRIDFORMAT_BEGIN
 90
        0
 91
        1
 62
     0
 92
       -2
340
0
 93
        0
 40
0.045
309
GRIDFORMAT_END
309
TABLEFORMAT_END
  1
CELLSTYLE_BEGIN
 90
        2
 91
        1
300
_HEADER
309
CELLSTYLE_END
300
CELLSTYLE
  1
TABLEFORMAT_BEGIN
 90
        5
170
     1
 91
        0
 92
        0
 62
   257
 93
        1
300
CONTENTFORMAT
  1
CONTENTFORMAT_BEGIN
 90
        0
 91
        0
 92
      512
 93
        0
300

 40
0.0
140
1.0
 94
        2
 62
     0
340
1F
144
0.18
309
CONTENTFORMAT_END
171
     1
301
MARGIN
  1
CELLMARGIN_BEGIN
 40
0.06
 40
0.06
 40
0.06
 40
0.06
 40
0.18
 40
0.18
309
CELLMARGIN_END
 94
        6
 95
        1
302
GRIDFORMAT
  1
GRIDFORMAT_BEGIN
 90
        0
 91
        1
 62
     0
 92
       -2
340
0
 93
        0
 40
0.045
309
GRIDFORMAT_END
 95
        2
302
GRIDFORMAT
  1
GRIDFORMAT_BEGIN
 90
        0
 91
        1
 62
     0
 92
       -2
340
0
 93
        0
 40
0.045
309
GRIDFORMAT_END
 95
        4
302
GRIDFORMAT
  1
GRIDFORMAT_BEGIN
 90
        0
 91
        1
 62
     0
 92
       -2
340
0
 93
        0
 40
0.045
309
GRIDFORMAT_END
 95
        8
302
GRIDFORMAT
  1
GRIDFORMAT_BEGIN
 90
        0
 91
        1
 62
     0
 92
       -2
340
0
 93
        0
 40
0.045
309
GRIDFORMAT_END
 95
       16
302
GRIDFORMAT
  1
GRIDFORMAT_BEGIN
 90
        0
 91
        1
 62
     0
 92
       -2
340
0
 93
        0
 40
0.045
309
GRIDFORMAT_END
 95
       32
302
GRIDFORMAT
  1
GRIDFORMAT_BEGIN
 90
        0
 91
        1
 62
     0
 92
       -2
340
0
 93
        0
 40
0.045
309
GRIDFORMAT_END
309
TABLEFORMAT_END
  1
CELLSTYLE_BEGIN
 90
        3
 91
        2
300
_DATA
309
CELLSTYLE_END
  0
XRECORD
  5
467F
102
{ACAD_REACTORS
330
48
102
}
330
48
100
AcDbXrecord
280
     1
102
ACAD_ROUNDTRIP_PRE2007_TABLESTYLE
 90
      512
 91
        0
  1

 92
      512
 93
        0
  2

 94
      512
 95
        0
  3

  0
XRECORD
  5
467E
102
{ACAD_REACTORS
330
467D
102
}
330
467D
100
AcDbXrecord
280
     1
102
RTVSPost2010Prop28
280
     1
102
RTVSPost2010PropOp28
 70
     1
102
RTVSPost2010Prop29
280
     1
102
RTVSPost2010PropOp29
 70
     1
102
RTVSPost2010Prop30
280
     0
102
RTVSPost2010PropOp30
 70
     1
102
RTVSPost2010Prop31
280
     0
102
RTVSPost2010PropOp31
 70
     1
102
RTVSPost2010Prop32
280
     0
102
RTVSPost2010PropOp32
 70
     1
102
RTVSPost2010Prop33
280
     0
102
RTVSPost2010PropOp33
 70
     1
102
RTVSPost2010Prop34
280
     0
102
RTVSPost2010PropOp34
 70
     1
102
RTVSPost2010Prop35
280
     0
102
RTVSPost2010PropOp35
 70
     1
102
RTVSPost2010Prop36
280
     0
102
RTVSPost2010PropOp36
 70
     1
102
RTVSPost2010Prop37
 90
       50
102
RTVSPost2010PropOp37
 70
     1
102
RTVSPost2010Prop38
140
0.0
102
RTVSPost2010PropOp38
 70
     1
102
RTVSPost2010Prop39
140
1.0
102
RTVSPost2010PropOp39
 70
     1
102
RTVSPost2010Prop40
 90
        0
102
RTVSPost2010PropOp40
 70
     1
102
RTVSPost2010Prop41ColorIndex
 90
       18
102
RTVSPost2010Prop41ColorRGB
 90
        0
102
RTVSPost2010PropOp41
 70
     1
102
RTVSPost2010Prop42
 90
       50
102
RTVSPost2010PropOp42
 70
     1
102
RTVSPost2010Prop43
 90
        3
102
RTVSPost2010PropOp43
 70
     1
102
RTVSPost2010Prop44ColorIndex
 90
        5
102
RTVSPost2010Prop44ColorRGB
 90
      255
102
RTVSPost2010PropOp44
 70
     1
102
RTVSPost2010Prop45
280
     0
102
RTVSPost2010PropOp45
 70
     1
102
RTVSPost2010Prop46
 90
       50
102
RTVSPost2010PropOp46
 70
     1
102
RTVSPost2010Prop47
 90
       50
102
RTVSPost2010PropOp47
 70
     1
102
RTVSPost2010Prop48
 90
       50
102
RTVSPost2010PropOp48
 70
     1
102
RTVSPost2010Prop49
280
     0
102
RTVSPost2010PropOp49
 70
     1
102
RTVSPost2010Prop50
 90
       50
102
RTVSPost2010PropOp50
 70
     1
102
RTVSPost2010Prop51ColorIndex
 90
      256
102
RTVSPost2010Prop51ColorRGB
 90
-16777216
102
RTVSPost2010PropOp51
 70
     0
102
RTVSPost2010Prop52
140
1.0
102
RTVSPost2010PropOp52
 70
     0
102
RTVSPost2010Prop53
 90
        2
102
RTVSPost2010PropOp53
 70
     1
102
RTVSPost2010Prop54
  1
strokes_ogs.tif
102
RTVSPost2010PropOp54
 70
     1
102
RTVSPost2010Prop55
280
     0
102
RTVSPost2010PropOp55
 70
     1
102
RTVSPost2010Prop56
140
1.0
102
RTVSPost2010PropOp56
 70
     1
102
RTVSPost2010Prop57
140
1.0
102
RTVSPost2010PropOp57
 70
     1
102
RTVSPropertyOp0
 70
     1
102
RTVSPropertyOp1
 70
     1
102
RTVSPropertyOp2
 70
     1
102
RTVSPropertyOp3
 70
     1
102
RTVSPropertyOp4
 70
     1
102
RTVSPropertyOp5
 70
     1
102
RTVSPropertyOp6
 70
     1
102
RTVSPropertyOp7
 70
     1
102
RTVSPropertyOp8
 70
     1
102
RTVSPropertyOp9
 70
     1
102
RTVSPropertyOp10
 70
     1
102
RTVSPropertyOp11
 70
     1
102
RTVSPropertyOp12
 70
     1
102
RTVSPropertyOp13
 70
     1
102
RTVSPropertyOp14
 70
     1
102
RTVSPropertyOp15
 70
     1
102
RTVSPropertyOp16
 70
     1
102
RTVSPropertyOp17
 70
     1
102
RTVSPropertyOp18
 70
     1
102
RTVSPropertyOp19
 70
     1
102
RTVSPropertyOp20
 70
     1
102
RTVSPropertyOp21
 70
     1
102
RTVSPropertyOp22
 70
     1
102
RTVSPropertyOp23
 70
     1
102
RTVSPropertyOp24
 70
     1
102
RTVSPropertyOp25
 70
     1
102
RTVSPropertyOp26
 70
     1
102
RTVSPropertyOp27
 70
     1
102
RTVSPropertyOp28
 70
     1
102
RTVSPropertyOp29
 70
     1
102
RTVSPropertyOp30
 70
     1
102
RTVSPropertyOp31
 70
     1
102
RTVSPropertyOp32
 70
     1
102
RTVSPropertyOp33
 70
     1
102
RTVSPropertyOp34
 70
     1
102
RTVSPropertyOp35
 70
     1
102
RTVSPropertyOp36
 70
     1
102
RTVSPropertyOp37
 70
     1
102
RTVSPropertyOp38
 70
     1
102
RTVSPropertyOp39
 70
     1
102
RTVSPropertyOp40
 70
     1
102
RTVSPropertyOp41
 70
     1
102
RTVSPropertyOp42
 70
     1
102
RTVSPropertyOp43
 70
     1
102
RTVSPropertyOp44
 70
     1
102
RTVSPropertyOp45
 70
     1
102
RTVSPropertyOp46
 70
     1
102
RTVSPropertyOp47
 70
     1
102
RTVSPropertyOp48
 70
     1
102
RTVSPropertyOp49
 70
     1
102
RTVSPropertyOp50
 70
     1
102
RTVSPropertyOp51
 70
     0
102
RTVSPropertyOp52
 70
     0
102
RTVSPropertyOp53
 70
     1
102
RTVSPropertyOp54
 70
     1
102
RTVSPropertyOp55
 70
     1
102
RTVSPropertyOp56
 70
     1
102
RTVSPropertyOp57
 70
     1
102
RTVSPropertyOp58
 70
     1
102
RTVSPropertyOp59
 70
     1
102
RTVSPropertyOp60
 70
     1
102
RTVSPropertyOp61
 70
     1
102
RTVSPropertyOp62
 70
     1
  0
XRECORD
  5
468F
102
{ACAD_REACTORS
330
468E
102
}
330
468E
100
AcDbXrecord
280
     1
102
RTVSPost2010Prop28
280
     0
102
RTVSPost2010PropOp28
 70
     1
102
RTVSPost2010Prop29
280
     1
102
RTVSPost2010PropOp29
 70
     1
102
RTVSPost2010Prop30
280
     1
102
RTVSPost2010PropOp30
 70
     1
102
RTVSPost2010Prop31
280
     0
102
RTVSPost2010PropOp31
 70
     1
102
RTVSPost2010Prop32
280
     0
102
RTVSPost2010PropOp32
 70
     1
102
RTVSPost2010Prop33
280
     0
102
RTVSPost2010PropOp33
 70
     1
102
RTVSPost2010Prop34
280
     0
102
RTVSPost2010PropOp34
 70
     1
102
RTVSPost2010Prop35
280
     0
102
RTVSPost2010PropOp35
 70
     1
102
RTVSPost2010Prop36
280
     0
102
RTVSPost2010PropOp36
 70
     1
102
RTVSPost2010Prop37
 90
       50
102
RTVSPost2010PropOp37
 70
     1
102
RTVSPost2010Prop38
140
0.0
102
RTVSPost2010PropOp38
 70
     1
102
RTVSPost2010Prop39
140
1.0
102
RTVSPost2010PropOp39
 70
     1
102
RTVSPost2010Prop40
 90
        0
102
RTVSPost2010PropOp40
 70
     1
102
RTVSPost2010Prop41ColorIndex
 90
       18
102
RTVSPost2010Prop41ColorRGB
 90
        0
102
RTVSPost2010PropOp41
 70
     1
102
RTVSPost2010Prop42
 90
       50
102
RTVSPost2010PropOp42
 70
     1
102
RTVSPost2010Prop43
 90
        3
102
RTVSPost2010PropOp43
 70
     1
102
RTVSPost2010Prop44ColorIndex
 90
        5
102
RTVSPost2010Prop44ColorRGB
 90
      255
102
RTVSPost2010PropOp44
 70
     1
102
RTVSPost2010Prop45
280
     0
102
RTVSPost2010PropOp45
 70
     1
102
RTVSPost2010Prop46
 90
       50
102
RTVSPost2010PropOp46
 70
     1
102
RTVSPost2010Prop47
 90
       50
102
RTVSPost2010PropOp47
 70
     1
102
RTVSPost2010Prop48
 90
       50
102
RTVSPost2010PropOp48
 70
     1
102
RTVSPost2010Prop49
280
     0
102
RTVSPost2010PropOp49
 70
     1
102
RTVSPost2010Prop50
 90
       50
102
RTVSPost2010PropOp50
 70
     1
102
RTVSPost2010Prop51ColorIndex
 90
      256
102
RTVSPost2010Prop51ColorRGB
 90
-16777216
102
RTVSPost2010PropOp51
 70
     0
102
RTVSPost2010Prop52
140
1.0
102
RTVSPost2010PropOp52
 70
     0
102
RTVSPost2010Prop53
 90
        2
102
RTVSPost2010PropOp53
 70
     1
102
RTVSPost2010Prop54
  1
strokes_ogs.tif
102
RTVSPost2010PropOp54
 70
     1
102
RTVSPost2010Prop55
280
     0
102
RTVSPost2010PropOp55
 70
     1
102
RTVSPost2010Prop56
140
1.0
102
RTVSPost2010PropOp56
 70
     1
102
RTVSPost2010Prop57
140
1.0
102
RTVSPost2010PropOp57
 70
     1
102
RTVSPropertyOp0
 70
     1
102
RTVSPropertyOp1
 70
     1
102
RTVSPropertyOp2
 70
     1
102
RTVSPropertyOp3
 70
     1
102
RTVSPropertyOp4
 70
     1
102
RTVSPropertyOp5
 70
     1
102
RTVSPropertyOp6
 70
     1
102
RTVSPropertyOp7
 70
     1
102
RTVSPropertyOp8
 70
     1
102
RTVSPropertyOp9
 70
     1
102
RTVSPropertyOp10
 70
     1
102
RTVSPropertyOp11
 70
     1
102
RTVSPropertyOp12
 70
     1
102
RTVSPropertyOp13
 70
     1
102
RTVSPropertyOp14
 70
     1
102
RTVSPropertyOp15
 70
     1
102
RTVSPropertyOp16
 70
     1
102
RTVSPropertyOp17
 70
     1
102
RTVSPropertyOp18
 70
     1
102
RTVSPropertyOp19
 70
     1
102
RTVSPropertyOp20
 70
     1
102
RTVSPropertyOp21
 70
     1
102
RTVSPropertyOp22
 70
     1
102
RTVSPropertyOp23
 70
     1
102
RTVSPropertyOp24
 70
     1
102
RTVSPropertyOp25
 70
     1
102
RTVSPropertyOp26
 70
     1
102
RTVSPropertyOp27
 70
     1
102
RTVSPropertyOp28
 70
     1
102
RTVSPropertyOp29
 70
     1
102
RTVSPropertyOp30
 70
     1
102
RTVSPropertyOp31
 70
     1
102
RTVSPropertyOp32
 70
     1
102
RTVSPropertyOp33
 70
     1
102
RTVSPropertyOp34
 70
     1
102
RTVSPropertyOp35
 70
     1
102
RTVSPropertyOp36
 70
     1
102
RTVSPropertyOp37
 70
     1
102
RTVSPropertyOp38
 70
     1
102
RTVSPropertyOp39
 70
     1
102
RTVSPropertyOp40
 70
     1
102
RTVSPropertyOp41
 70
     1
102
RTVSPropertyOp42
 70
     1
102
RTVSPropertyOp43
 70
     1
102
RTVSPropertyOp44
 70
     1
102
RTVSPropertyOp45
 70
     1
102
RTVSPropertyOp46
 70
     1
102
RTVSPropertyOp47
 70
     1
102
RTVSPropertyOp48
 70
     1
102
RTVSPropertyOp49
 70
     1
102
RTVSPropertyOp50
 70
     1
102
RTVSPropertyOp51
 70
     0
102
RTVSPropertyOp52
 70
     0
102
RTVSPropertyOp53
 70
     1
102
RTVSPropertyOp54
 70
     1
102
RTVSPropertyOp55
 70
     1
102
RTVSPropertyOp56
 70
     1
102
RTVSPropertyOp57
 70
     1
102
RTVSPropertyOp58
 70
     1
102
RTVSPropertyOp59
 70
     1
102
RTVSPropertyOp60
 70
     1
102
RTVSPropertyOp61
 70
     1
102
RTVSPropertyOp62
 70
     1
  0
XRECORD
  5
4683
102
{ACAD_REACTORS
330
4682
102
}
330
4682
100
AcDbXrecord
280
     1
102
RTVSPost2010Prop28
280
     0
102
RTVSPost2010PropOp28
 70
     1
102
RTVSPost2010Prop29
280
     1
102
RTVSPost2010PropOp29
 70
     1
102
RTVSPost2010Prop30
280
     1
102
RTVSPost2010PropOp30
 70
     1
102
RTVSPost2010Prop31
280
     0
102
RTVSPost2010PropOp31
 70
     1
102
RTVSPost2010Prop32
280
     0
102
RTVSPost2010PropOp32
 70
     1
102
RTVSPost2010Prop33
280
     0
102
RTVSPost2010PropOp33
 70
     1
102
RTVSPost2010Prop34
280
     0
102
RTVSPost2010PropOp34
 70
     1
102
RTVSPost2010Prop35
280
     0
102
RTVSPost2010PropOp35
 70
     1
102
RTVSPost2010Prop36
280
     0
102
RTVSPost2010PropOp36
 70
     1
102
RTVSPost2010Prop37
 90
       50
102
RTVSPost2010PropOp37
 70
     1
102
RTVSPost2010Prop38
140
0.0
102
RTVSPost2010PropOp38
 70
     1
102
RTVSPost2010Prop39
140
1.0
102
RTVSPost2010PropOp39
 70
     1
102
RTVSPost2010Prop40
 90
        0
102
RTVSPost2010PropOp40
 70
     1
102
RTVSPost2010Prop41ColorIndex
 90
       18
102
RTVSPost2010Prop41ColorRGB
 90
        0
102
RTVSPost2010PropOp41
 70
     1
102
RTVSPost2010Prop42
 90
       50
102
RTVSPost2010PropOp42
 70
     1
102
RTVSPost2010Prop43
 90
        3
102
RTVSPost2010PropOp43
 70
     1
102
RTVSPost2010Prop44ColorIndex
 90
        5
102
RTVSPost2010Prop44ColorRGB
 90
      255
102
RTVSPost2010PropOp44
 70
     1
102
RTVSPost2010Prop45
280
     0
102
RTVSPost2010PropOp45
 70
     1
102
RTVSPost2010Prop46
 90
       50
102
RTVSPost2010PropOp46
 70
     1
102
RTVSPost2010Prop47
 90
       50
102
RTVSPost2010PropOp47
 70
     1
102
RTVSPost2010Prop48
 90
       50
102
RTVSPost2010PropOp48
 70
     1
102
RTVSPost2010Prop49
280
     0
102
RTVSPost2010PropOp49
 70
     1
102
RTVSPost2010Prop50
 90
       50
102
RTVSPost2010PropOp50
 70
     1
102
RTVSPost2010Prop51ColorIndex
 90
      256
102
RTVSPost2010Prop51ColorRGB
 90
-16777216
102
RTVSPost2010PropOp51
 70
     0
102
RTVSPost2010Prop52
140
1.0
102
RTVSPost2010PropOp52
 70
     0
102
RTVSPost2010Prop53
 90
        2
102
RTVSPost2010PropOp53
 70
     1
102
RTVSPost2010Prop54
  1
strokes_ogs.tif
102
RTVSPost2010PropOp54
 70
     1
102
RTVSPost2010Prop55
280
     0
102
RTVSPost2010PropOp55
 70
     1
102
RTVSPost2010Prop56
140
1.0
102
RTVSPost2010PropOp56
 70
     1
102
RTVSPost2010Prop57
140
1.0
102
RTVSPost2010PropOp57
 70
     1
102
RTVSPropertyOp0
 70
     1
102
RTVSPropertyOp1
 70
     1
102
RTVSPropertyOp2
 70
     1
102
RTVSPropertyOp3
 70
     1
102
RTVSPropertyOp4
 70
     1
102
RTVSPropertyOp5
 70
     1
102
RTVSPropertyOp6
 70
     1
102
RTVSPropertyOp7
 70
     1
102
RTVSPropertyOp8
 70
     1
102
RTVSPropertyOp9
 70
     1
102
RTVSPropertyOp10
 70
     1
102
RTVSPropertyOp11
 70
     1
102
RTVSPropertyOp12
 70
     1
102
RTVSPropertyOp13
 70
     1
102
RTVSPropertyOp14
 70
     1
102
RTVSPropertyOp15
 70
     1
102
RTVSPropertyOp16
 70
     1
102
RTVSPropertyOp17
 70
     1
102
RTVSPropertyOp18
 70
     1
102
RTVSPropertyOp19
 70
     1
102
RTVSPropertyOp20
 70
     1
102
RTVSPropertyOp21
 70
     1
102
RTVSPropertyOp22
 70
     1
102
RTVSPropertyOp23
 70
     1
102
RTVSPropertyOp24
 70
     1
102
RTVSPropertyOp25
 70
     1
102
RTVSPropertyOp26
 70
     1
102
RTVSPropertyOp27
 70
     1
102
RTVSPropertyOp28
 70
     1
102
RTVSPropertyOp29
 70
     1
102
RTVSPropertyOp30
 70
     1
102
RTVSPropertyOp31
 70
     1
102
RTVSPropertyOp32
 70
     1
102
RTVSPropertyOp33
 70
     1
102
RTVSPropertyOp34
 70
     1
102
RTVSPropertyOp35
 70
     1
102
RTVSPropertyOp36
 70
     1
102
RTVSPropertyOp37
 70
     1
102
RTVSPropertyOp38
 70
     1
102
RTVSPropertyOp39
 70
     1
102
RTVSPropertyOp40
 70
     1
102
RTVSPropertyOp41
 70
     1
102
RTVSPropertyOp42
 70
     1
102
RTVSPropertyOp43
 70
     1
102
RTVSPropertyOp44
 70
     1
102
RTVSPropertyOp45
 70
     1
102
RTVSPropertyOp46
 70
     1
102
RTVSPropertyOp47
 70
     1
102
RTVSPropertyOp48
 70
     1
102
RTVSPropertyOp49
 70
     1
102
RTVSPropertyOp50
 70
     1
102
RTVSPropertyOp51
 70
     0
102
RTVSPropertyOp52
 70
     0
102
RTVSPropertyOp53
 70
     1
102
RTVSPropertyOp54
 70
     1
102
RTVSPropertyOp55
 70
     1
102
RTVSPropertyOp56
 70
     1
102
RTVSPropertyOp57
 70
     1
102
RTVSPropertyOp58
 70
     1
102
RTVSPropertyOp59
 70
     1
102
RTVSPropertyOp60
 70
     1
102
RTVSPropertyOp61
 70
     1
102
RTVSPropertyOp62
 70
     1
  0
XRECORD
  5
468D
102
{ACAD_REACTORS
330
468C
102
}
330
468C
100
AcDbXrecord
280
     1
102
RTVSPost2010Prop28
280
     0
102
RTVSPost2010PropOp28
 70
     1
102
RTVSPost2010Prop29
280
     1
102
RTVSPost2010PropOp29
 70
     1
102
RTVSPost2010Prop30
280
     1
102
RTVSPost2010PropOp30
 70
     1
102
RTVSPost2010Prop31
280
     0
102
RTVSPost2010PropOp31
 70
     1
102
RTVSPost2010Prop32
280
     0
102
RTVSPost2010PropOp32
 70
     1
102
RTVSPost2010Prop33
280
     0
102
RTVSPost2010PropOp33
 70
     1
102
RTVSPost2010Prop34
280
     0
102
RTVSPost2010PropOp34
 70
     1
102
RTVSPost2010Prop35
280
     0
102
RTVSPost2010PropOp35
 70
     1
102
RTVSPost2010Prop36
280
     0
102
RTVSPost2010PropOp36
 70
     1
102
RTVSPost2010Prop37
 90
       50
102
RTVSPost2010PropOp37
 70
     1
102
RTVSPost2010Prop38
140
0.0
102
RTVSPost2010PropOp38
 70
     1
102
RTVSPost2010Prop39
140
1.0
102
RTVSPost2010PropOp39
 70
     1
102
RTVSPost2010Prop40
 90
        0
102
RTVSPost2010PropOp40
 70
     1
102
RTVSPost2010Prop41ColorIndex
 90
       18
102
RTVSPost2010Prop41ColorRGB
 90
        0
102
RTVSPost2010PropOp41
 70
     1
102
RTVSPost2010Prop42
 90
       50
102
RTVSPost2010PropOp42
 70
     1
102
RTVSPost2010Prop43
 90
        3
102
RTVSPost2010PropOp43
 70
     1
102
RTVSPost2010Prop44ColorIndex
 90
        5
102
RTVSPost2010Prop44ColorRGB
 90
      255
102
RTVSPost2010PropOp44
 70
     1
102
RTVSPost2010Prop45
280
     0
102
RTVSPost2010PropOp45
 70
     1
102
RTVSPost2010Prop46
 90
       50
102
RTVSPost2010PropOp46
 70
     1
102
RTVSPost2010Prop47
 90
       50
102
RTVSPost2010PropOp47
 70
     1
102
RTVSPost2010Prop48
 90
       50
102
RTVSPost2010PropOp48
 70
     1
102
RTVSPost2010Prop49
280
     0
102
RTVSPost2010PropOp49
 70
     1
102
RTVSPost2010Prop50
 90
       50
102
RTVSPost2010PropOp50
 70
     1
102
RTVSPost2010Prop51ColorIndex
 90
      256
102
RTVSPost2010Prop51ColorRGB
 90
-16777216
102
RTVSPost2010PropOp51
 70
     0
102
RTVSPost2010Prop52
140
1.0
102
RTVSPost2010PropOp52
 70
     0
102
RTVSPost2010Prop53
 90
        2
102
RTVSPost2010PropOp53
 70
     1
102
RTVSPost2010Prop54
  1
strokes_ogs.tif
102
RTVSPost2010PropOp54
 70
     1
102
RTVSPost2010Prop55
280
     0
102
RTVSPost2010PropOp55
 70
     1
102
RTVSPost2010Prop56
140
1.0
102
RTVSPost2010PropOp56
 70
     1
102
RTVSPost2010Prop57
140
1.0
102
RTVSPost2010PropOp57
 70
     1
102
RTVSPropertyOp0
 70
     1
102
RTVSPropertyOp1
 70
     1
102
RTVSPropertyOp2
 70
     1
102
RTVSPropertyOp3
 70
     1
102
RTVSPropertyOp4
 70
     1
102
RTVSPropertyOp5
 70
     1
102
RTVSPropertyOp6
 70
     1
102
RTVSPropertyOp7
 70
     1
102
RTVSPropertyOp8
 70
     1
102
RTVSPropertyOp9
 70
     1
102
RTVSPropertyOp10
 70
     1
102
RTVSPropertyOp11
 70
     1
102
RTVSPropertyOp12
 70
     1
102
RTVSPropertyOp13
 70
     1
102
RTVSPropertyOp14
 70
     1
102
RTVSPropertyOp15
 70
     1
102
RTVSPropertyOp16
 70
     1
102
RTVSPropertyOp17
 70
     1
102
RTVSPropertyOp18
 70
     1
102
RTVSPropertyOp19
 70
     1
102
RTVSPropertyOp20
 70
     1
102
RTVSPropertyOp21
 70
     1
102
RTVSPropertyOp22
 70
     1
102
RTVSPropertyOp23
 70
     1
102
RTVSPropertyOp24
 70
     1
102
RTVSPropertyOp25
 70
     1
102
RTVSPropertyOp26
 70
     1
102
RTVSPropertyOp27
 70
     1
102
RTVSPropertyOp28
 70
     1
102
RTVSPropertyOp29
 70
     1
102
RTVSPropertyOp30
 70
     1
102
RTVSPropertyOp31
 70
     1
102
RTVSPropertyOp32
 70
     1
102
RTVSPropertyOp33
 70
     1
102
RTVSPropertyOp34
 70
     1
102
RTVSPropertyOp35
 70
     1
102
RTVSPropertyOp36
 70
     1
102
RTVSPropertyOp37
 70
     1
102
RTVSPropertyOp38
 70
     1
102
RTVSPropertyOp39
 70
     1
102
RTVSPropertyOp40
 70
     1
102
RTVSPropertyOp41
 70
     1
102
RTVSPropertyOp42
 70
     1
102
RTVSPropertyOp43
 70
     1
102
RTVSPropertyOp44
 70
     1
102
RTVSPropertyOp45
 70
     1
102
RTVSPropertyOp46
 70
     1
102
RTVSPropertyOp47
 70
     1
102
RTVSPropertyOp48
 70
     1
102
RTVSPropertyOp49
 70
     1
102
RTVSPropertyOp50
 70
     1
102
RTVSPropertyOp51
 70
     0
102
RTVSPropertyOp52
 70
     0
102
RTVSPropertyOp53
 70
     1
102
RTVSPropertyOp54
 70
     1
102
RTVSPropertyOp55
 70
     1
102
RTVSPropertyOp56
 70
     1
102
RTVSPropertyOp57
 70
     1
102
RTVSPropertyOp58
 70
     1
102
RTVSPropertyOp59
 70
     1
102
RTVSPropertyOp60
 70
     1
102
RTVSPropertyOp61
 70
     1
102
RTVSPropertyOp62
 70
     1
  0
XRECORD
  5
4695
102
{ACAD_REACTORS
330
4694
102
}
330
4694
100
AcDbXrecord
280
     1
102
RTVSPost2010Prop28
280
     0
102
RTVSPost2010PropOp28
 70
     1
102
RTVSPost2010Prop29
280
     1
102
RTVSPost2010PropOp29
 70
     1
102
RTVSPost2010Prop30
280
     1
102
RTVSPost2010PropOp30
 70
     1
102
RTVSPost2010Prop31
280
     0
102
RTVSPost2010PropOp31
 70
     1
102
RTVSPost2010Prop32
280
     0
102
RTVSPost2010PropOp32
 70
     1
102
RTVSPost2010Prop33
280
     0
102
RTVSPost2010PropOp33
 70
     1
102
RTVSPost2010Prop34
280
     0
102
RTVSPost2010PropOp34
 70
     1
102
RTVSPost2010Prop35
280
     0
102
RTVSPost2010PropOp35
 70
     1
102
RTVSPost2010Prop36
280
     0
102
RTVSPost2010PropOp36
 70
     1
102
RTVSPost2010Prop37
 90
       50
102
RTVSPost2010PropOp37
 70
     1
102
RTVSPost2010Prop38
140
0.0
102
RTVSPost2010PropOp38
 70
     1
102
RTVSPost2010Prop39
140
1.0
102
RTVSPost2010PropOp39
 70
     1
102
RTVSPost2010Prop40
 90
        0
102
RTVSPost2010PropOp40
 70
     1
102
RTVSPost2010Prop41ColorIndex
 90
       18
102
RTVSPost2010Prop41ColorRGB
 90
        0
102
RTVSPost2010PropOp41
 70
     1
102
RTVSPost2010Prop42
 90
       50
102
RTVSPost2010PropOp42
 70
     1
102
RTVSPost2010Prop43
 90
        3
102
RTVSPost2010PropOp43
 70
     1
102
RTVSPost2010Prop44ColorIndex
 90
        5
102
RTVSPost2010Prop44ColorRGB
 90
      255
102
RTVSPost2010PropOp44
 70
     1
102
RTVSPost2010Prop45
280
     0
102
RTVSPost2010PropOp45
 70
     1
102
RTVSPost2010Prop46
 90
       50
102
RTVSPost2010PropOp46
 70
     1
102
RTVSPost2010Prop47
 90
       50
102
RTVSPost2010PropOp47
 70
     1
102
RTVSPost2010Prop48
 90
       50
102
RTVSPost2010PropOp48
 70
     1
102
RTVSPost2010Prop49
280
     0
102
RTVSPost2010PropOp49
 70
     1
102
RTVSPost2010Prop50
 90
       50
102
RTVSPost2010PropOp50
 70
     1
102
RTVSPost2010Prop51ColorIndex
 90
      256
102
RTVSPost2010Prop51ColorRGB
 90
-16777216
102
RTVSPost2010PropOp51
 70
     0
102
RTVSPost2010Prop52
140
1.0
102
RTVSPost2010PropOp52
 70
     0
102
RTVSPost2010Prop53
 90
        2
102
RTVSPost2010PropOp53
 70
     1
102
RTVSPost2010Prop54
  1
strokes_ogs.tif
102
RTVSPost2010PropOp54
 70
     1
102
RTVSPost2010Prop55
280
     0
102
RTVSPost2010PropOp55
 70
     1
102
RTVSPost2010Prop56
140
1.0
102
RTVSPost2010PropOp56
 70
     1
102
RTVSPost2010Prop57
140
1.0
102
RTVSPost2010PropOp57
 70
     1
102
RTVSPropertyOp0
 70
     1
102
RTVSPropertyOp1
 70
     1
102
RTVSPropertyOp2
 70
     1
102
RTVSPropertyOp3
 70
     1
102
RTVSPropertyOp4
 70
     1
102
RTVSPropertyOp5
 70
     1
102
RTVSPropertyOp6
 70
     1
102
RTVSPropertyOp7
 70
     1
102
RTVSPropertyOp8
 70
     1
102
RTVSPropertyOp9
 70
     1
102
RTVSPropertyOp10
 70
     1
102
RTVSPropertyOp11
 70
     1
102
RTVSPropertyOp12
 70
     1
102
RTVSPropertyOp13
 70
     1
102
RTVSPropertyOp14
 70
     1
102
RTVSPropertyOp15
 70
     1
102
RTVSPropertyOp16
 70
     1
102
RTVSPropertyOp17
 70
     1
102
RTVSPropertyOp18
 70
     1
102
RTVSPropertyOp19
 70
     1
102
RTVSPropertyOp20
 70
     1
102
RTVSPropertyOp21
 70
     1
102
RTVSPropertyOp22
 70
     1
102
RTVSPropertyOp23
 70
     1
102
RTVSPropertyOp24
 70
     1
102
RTVSPropertyOp25
 70
     1
102
RTVSPropertyOp26
 70
     1
102
RTVSPropertyOp27
 70
     1
102
RTVSPropertyOp28
 70
     1
102
RTVSPropertyOp29
 70
     1
102
RTVSPropertyOp30
 70
     1
102
RTVSPropertyOp31
 70
     1
102
RTVSPropertyOp32
 70
     1
102
RTVSPropertyOp33
 70
     1
102
RTVSPropertyOp34
 70
     1
102
RTVSPropertyOp35
 70
     1
102
RTVSPropertyOp36
 70
     1
102
RTVSPropertyOp37
 70
     1
102
RTVSPropertyOp38
 70
     1
102
RTVSPropertyOp39
 70
     1
102
RTVSPropertyOp40
 70
     1
102
RTVSPropertyOp41
 70
     1
102
RTVSPropertyOp42
 70
     1
102
RTVSPropertyOp43
 70
     1
102
RTVSPropertyOp44
 70
     1
102
RTVSPropertyOp45
 70
     1
102
RTVSPropertyOp46
 70
     1
102
RTVSPropertyOp47
 70
     1
102
RTVSPropertyOp48
 70
     1
102
RTVSPropertyOp49
 70
     1
102
RTVSPropertyOp50
 70
     1
102
RTVSPropertyOp51
 70
     0
102
RTVSPropertyOp52
 70
     0
102
RTVSPropertyOp53
 70
     1
102
RTVSPropertyOp54
 70
     1
102
RTVSPropertyOp55
 70
     1
102
RTVSPropertyOp56
 70
     1
102
RTVSPropertyOp57
 70
     1
102
RTVSPropertyOp58
 70
     1
102
RTVSPropertyOp59
 70
     1
102
RTVSPropertyOp60
 70
     1
102
RTVSPropertyOp61
 70
     1
102
RTVSPropertyOp62
 70
     1
  0
XRECORD
  5
469D
102
{ACAD_REACTORS
330
469C
102
}
330
469C
100
AcDbXrecord
280
     1
102
RTVSPost2010Prop28
280
     0
102
RTVSPost2010PropOp28
 70
     1
102
RTVSPost2010Prop29
280
     1
102
RTVSPost2010PropOp29
 70
     1
102
RTVSPost2010Prop30
280
     1
102
RTVSPost2010PropOp30
 70
     1
102
RTVSPost2010Prop31
280
     0
102
RTVSPost2010PropOp31
 70
     1
102
RTVSPost2010Prop32
280
     0
102
RTVSPost2010PropOp32
 70
     1
102
RTVSPost2010Prop33
280
     0
102
RTVSPost2010PropOp33
 70
     1
102
RTVSPost2010Prop34
280
     0
102
RTVSPost2010PropOp34
 70
     1
102
RTVSPost2010Prop35
280
     0
102
RTVSPost2010PropOp35
 70
     1
102
RTVSPost2010Prop36
280
     0
102
RTVSPost2010PropOp36
 70
     1
102
RTVSPost2010Prop37
 90
       50
102
RTVSPost2010PropOp37
 70
     1
102
RTVSPost2010Prop38
140
0.0
102
RTVSPost2010PropOp38
 70
     1
102
RTVSPost2010Prop39
140
1.0
102
RTVSPost2010PropOp39
 70
     1
102
RTVSPost2010Prop40
 90
        0
102
RTVSPost2010PropOp40
 70
     1
102
RTVSPost2010Prop41ColorIndex
 90
       18
102
RTVSPost2010Prop41ColorRGB
 90
        0
102
RTVSPost2010PropOp41
 70
     1
102
RTVSPost2010Prop42
 90
       50
102
RTVSPost2010PropOp42
 70
     1
102
RTVSPost2010Prop43
 90
        3
102
RTVSPost2010PropOp43
 70
     1
102
RTVSPost2010Prop44ColorIndex
 90
        5
102
RTVSPost2010Prop44ColorRGB
 90
      255
102
RTVSPost2010PropOp44
 70
     1
102
RTVSPost2010Prop45
280
     0
102
RTVSPost2010PropOp45
 70
     1
102
RTVSPost2010Prop46
 90
       50
102
RTVSPost2010PropOp46
 70
     1
102
RTVSPost2010Prop47
 90
       50
102
RTVSPost2010PropOp47
 70
     1
102
RTVSPost2010Prop48
 90
       50
102
RTVSPost2010PropOp48
 70
     1
102
RTVSPost2010Prop49
280
     0
102
RTVSPost2010PropOp49
 70
     1
102
RTVSPost2010Prop50
 90
       50
102
RTVSPost2010PropOp50
 70
     1
102
RTVSPost2010Prop51ColorIndex
 90
      256
102
RTVSPost2010Prop51ColorRGB
 90
-16777216
102
RTVSPost2010PropOp51
 70
     0
102
RTVSPost2010Prop52
140
1.0
102
RTVSPost2010PropOp52
 70
     0
102
RTVSPost2010Prop53
 90
        2
102
RTVSPost2010PropOp53
 70
     1
102
RTVSPost2010Prop54
  1
strokes_ogs.tif
102
RTVSPost2010PropOp54
 70
     1
102
RTVSPost2010Prop55
280
     0
102
RTVSPost2010PropOp55
 70
     1
102
RTVSPost2010Prop56
140
1.0
102
RTVSPost2010PropOp56
 70
     1
102
RTVSPost2010Prop57
140
1.0
102
RTVSPost2010PropOp57
 70
     1
102
RTVSPropertyOp0
 70
     1
102
RTVSPropertyOp1
 70
     1
102
RTVSPropertyOp2
 70
     1
102
RTVSPropertyOp3
 70
     1
102
RTVSPropertyOp4
 70
     1
102
RTVSPropertyOp5
 70
     1
102
RTVSPropertyOp6
 70
     1
102
RTVSPropertyOp7
 70
     1
102
RTVSPropertyOp8
 70
     1
102
RTVSPropertyOp9
 70
     1
102
RTVSPropertyOp10
 70
     1
102
RTVSPropertyOp11
 70
     1
102
RTVSPropertyOp12
 70
     1
102
RTVSPropertyOp13
 70
     1
102
RTVSPropertyOp14
 70
     1
102
RTVSPropertyOp15
 70
     1
102
RTVSPropertyOp16
 70
     1
102
RTVSPropertyOp17
 70
     1
102
RTVSPropertyOp18
 70
     1
102
RTVSPropertyOp19
 70
     1
102
RTVSPropertyOp20
 70
     1
102
RTVSPropertyOp21
 70
     1
102
RTVSPropertyOp22
 70
     1
102
RTVSPropertyOp23
 70
     1
102
RTVSPropertyOp24
 70
     1
102
RTVSPropertyOp25
 70
     1
102
RTVSPropertyOp26
 70
     1
102
RTVSPropertyOp27
 70
     1
102
RTVSPropertyOp28
 70
     1
102
RTVSPropertyOp29
 70
     1
102
RTVSPropertyOp30
 70
     1
102
RTVSPropertyOp31
 70
     1
102
RTVSPropertyOp32
 70
     1
102
RTVSPropertyOp33
 70
     1
102
RTVSPropertyOp34
 70
     1
102
RTVSPropertyOp35
 70
     1
102
RTVSPropertyOp36
 70
     1
102
RTVSPropertyOp37
 70
     1
102
RTVSPropertyOp38
 70
     1
102
RTVSPropertyOp39
 70
     1
102
RTVSPropertyOp40
 70
     1
102
RTVSPropertyOp41
 70
     1
102
RTVSPropertyOp42
 70
     1
102
RTVSPropertyOp43
 70
     1
102
RTVSPropertyOp44
 70
     1
102
RTVSPropertyOp45
 70
     1
102
RTVSPropertyOp46
 70
     1
102
RTVSPropertyOp47
 70
     1
102
RTVSPropertyOp48
 70
     1
102
RTVSPropertyOp49
 70
     1
102
RTVSPropertyOp50
 70
     1
102
RTVSPropertyOp51
 70
     0
102
RTVSPropertyOp52
 70
     0
102
RTVSPropertyOp53
 70
     1
102
RTVSPropertyOp54
 70
     1
102
RTVSPropertyOp55
 70
     1
102
RTVSPropertyOp56
 70
     1
102
RTVSPropertyOp57
 70
     1
102
RTVSPropertyOp58
 70
     1
102
RTVSPropertyOp59
 70
     1
102
RTVSPropertyOp60
 70
     1
102
RTVSPropertyOp61
 70
     1
102
RTVSPropertyOp62
 70
     1
  0
XRECORD
  5
4691
102
{ACAD_REACTORS
330
4690
102
}
330
4690
100
AcDbXrecord
280
     1
102
RTVSPost2010Prop28
280
     0
102
RTVSPost2010PropOp28
 70
     1
102
RTVSPost2010Prop29
280
     1
102
RTVSPost2010PropOp29
 70
     1
102
RTVSPost2010Prop30
280
     1
102
RTVSPost2010PropOp30
 70
     1
102
RTVSPost2010Prop31
280
     0
102
RTVSPost2010PropOp31
 70
     1
102
RTVSPost2010Prop32
280
     0
102
RTVSPost2010PropOp32
 70
     1
102
RTVSPost2010Prop33
280
     0
102
RTVSPost2010PropOp33
 70
     1
102
RTVSPost2010Prop34
280
     0
102
RTVSPost2010PropOp34
 70
     1
102
RTVSPost2010Prop35
280
     0
102
RTVSPost2010PropOp35
 70
     1
102
RTVSPost2010Prop36
280
     0
102
RTVSPost2010PropOp36
 70
     1
102
RTVSPost2010Prop37
 90
       50
102
RTVSPost2010PropOp37
 70
     1
102
RTVSPost2010Prop38
140
0.0
102
RTVSPost2010PropOp38
 70
     1
102
RTVSPost2010Prop39
140
1.0
102
RTVSPost2010PropOp39
 70
     1
102
RTVSPost2010Prop40
 90
        0
102
RTVSPost2010PropOp40
 70
     1
102
RTVSPost2010Prop41ColorIndex
 90
       18
102
RTVSPost2010Prop41ColorRGB
 90
        0
102
RTVSPost2010PropOp41
 70
     1
102
RTVSPost2010Prop42
 90
       50
102
RTVSPost2010PropOp42
 70
     1
102
RTVSPost2010Prop43
 90
        3
102
RTVSPost2010PropOp43
 70
     1
102
RTVSPost2010Prop44ColorIndex
 90
        5
102
RTVSPost2010Prop44ColorRGB
 90
      255
102
RTVSPost2010PropOp44
 70
     1
102
RTVSPost2010Prop45
280
     0
102
RTVSPost2010PropOp45
 70
     1
102
RTVSPost2010Prop46
 90
       50
102
RTVSPost2010PropOp46
 70
     1
102
RTVSPost2010Prop47
 90
       50
102
RTVSPost2010PropOp47
 70
     1
102
RTVSPost2010Prop48
 90
       50
102
RTVSPost2010PropOp48
 70
     1
102
RTVSPost2010Prop49
280
     0
102
RTVSPost2010PropOp49
 70
     1
102
RTVSPost2010Prop50
 90
       50
102
RTVSPost2010PropOp50
 70
     1
102
RTVSPost2010Prop51ColorIndex
 90
      256
102
RTVSPost2010Prop51ColorRGB
 90
-16777216
102
RTVSPost2010PropOp51
 70
     0
102
RTVSPost2010Prop52
140
1.0
102
RTVSPost2010PropOp52
 70
     0
102
RTVSPost2010Prop53
 90
        2
102
RTVSPost2010PropOp53
 70
     1
102
RTVSPost2010Prop54
  1
strokes_ogs.tif
102
RTVSPost2010PropOp54
 70
     1
102
RTVSPost2010Prop55
280
     0
102
RTVSPost2010PropOp55
 70
     1
102
RTVSPost2010Prop56
140
1.0
102
RTVSPost2010PropOp56
 70
     1
102
RTVSPost2010Prop57
140
1.0
102
RTVSPost2010PropOp57
 70
     1
102
RTVSPropertyOp0
 70
     1
102
RTVSPropertyOp1
 70
     1
102
RTVSPropertyOp2
 70
     1
102
RTVSPropertyOp3
 70
     1
102
RTVSPropertyOp4
 70
     1
102
RTVSPropertyOp5
 70
     1
102
RTVSPropertyOp6
 70
     1
102
RTVSPropertyOp7
 70
     1
102
RTVSPropertyOp8
 70
     1
102
RTVSPropertyOp9
 70
     1
102
RTVSPropertyOp10
 70
     1
102
RTVSPropertyOp11
 70
     1
102
RTVSPropertyOp12
 70
     1
102
RTVSPropertyOp13
 70
     1
102
RTVSPropertyOp14
 70
     1
102
RTVSPropertyOp15
 70
     1
102
RTVSPropertyOp16
 70
     1
102
RTVSPropertyOp17
 70
     1
102
RTVSPropertyOp18
 70
     1
102
RTVSPropertyOp19
 70
     1
102
RTVSPropertyOp20
 70
     1
102
RTVSPropertyOp21
 70
     1
102
RTVSPropertyOp22
 70
     1
102
RTVSPropertyOp23
 70
     1
102
RTVSPropertyOp24
 70
     1
102
RTVSPropertyOp25
 70
     1
102
RTVSPropertyOp26
 70
     1
102
RTVSPropertyOp27
 70
     1
102
RTVSPropertyOp28
 70
     1
102
RTVSPropertyOp29
 70
     1
102
RTVSPropertyOp30
 70
     1
102
RTVSPropertyOp31
 70
     1
102
RTVSPropertyOp32
 70
     1
102
RTVSPropertyOp33
 70
     1
102
RTVSPropertyOp34
 70
     1
102
RTVSPropertyOp35
 70
     1
102
RTVSPropertyOp36
 70
     1
102
RTVSPropertyOp37
 70
     1
102
RTVSPropertyOp38
 70
     1
102
RTVSPropertyOp39
 70
     1
102
RTVSPropertyOp40
 70
     1
102
RTVSPropertyOp41
 70
     1
102
RTVSPropertyOp42
 70
     1
102
RTVSPropertyOp43
 70
     1
102
RTVSPropertyOp44
 70
     1
102
RTVSPropertyOp45
 70
     1
102
RTVSPropertyOp46
 70
     1
102
RTVSPropertyOp47
 70
     1
102
RTVSPropertyOp48
 70
     1
102
RTVSPropertyOp49
 70
     1
102
RTVSPropertyOp50
 70
     1
102
RTVSPropertyOp51
 70
     0
102
RTVSPropertyOp52
 70
     0
102
RTVSPropertyOp53
 70
     1
102
RTVSPropertyOp54
 70
     1
102
RTVSPropertyOp55
 70
     1
102
RTVSPropertyOp56
 70
     1
102
RTVSPropertyOp57
 70
     1
102
RTVSPropertyOp58
 70
     1
102
RTVSPropertyOp59
 70
     1
102
RTVSPropertyOp60
 70
     1
102
RTVSPropertyOp61
 70
     1
102
RTVSPropertyOp62
 70
     1
  0
XRECORD
  5
4693
102
{ACAD_REACTORS
330
4692
102
}
330
4692
100
AcDbXrecord
280
     1
102
RTVSPost2010Prop28
280
     0
102
RTVSPost2010PropOp28
 70
     1
102
RTVSPost2010Prop29
280
     1
102
RTVSPost2010PropOp29
 70
     1
102
RTVSPost2010Prop30
280
     1
102
RTVSPost2010PropOp30
 70
     1
102
RTVSPost2010Prop31
280
     0
102
RTVSPost2010PropOp31
 70
     1
102
RTVSPost2010Prop32
280
     0
102
RTVSPost2010PropOp32
 70
     1
102
RTVSPost2010Prop33
280
     0
102
RTVSPost2010PropOp33
 70
     1
102
RTVSPost2010Prop34
280
     0
102
RTVSPost2010PropOp34
 70
     1
102
RTVSPost2010Prop35
280
     0
102
RTVSPost2010PropOp35
 70
     1
102
RTVSPost2010Prop36
280
     0
102
RTVSPost2010PropOp36
 70
     1
102
RTVSPost2010Prop37
 90
       50
102
RTVSPost2010PropOp37
 70
     1
102
RTVSPost2010Prop38
140
0.0
102
RTVSPost2010PropOp38
 70
     1
102
RTVSPost2010Prop39
140
1.0
102
RTVSPost2010PropOp39
 70
     1
102
RTVSPost2010Prop40
 90
        0
102
RTVSPost2010PropOp40
 70
     1
102
RTVSPost2010Prop41ColorIndex
 90
       18
102
RTVSPost2010Prop41ColorRGB
 90
        0
102
RTVSPost2010PropOp41
 70
     1
102
RTVSPost2010Prop42
 90
       50
102
RTVSPost2010PropOp42
 70
     1
102
RTVSPost2010Prop43
 90
        3
102
RTVSPost2010PropOp43
 70
     1
102
RTVSPost2010Prop44ColorIndex
 90
        5
102
RTVSPost2010Prop44ColorRGB
 90
      255
102
RTVSPost2010PropOp44
 70
     1
102
RTVSPost2010Prop45
280
     0
102
RTVSPost2010PropOp45
 70
     1
102
RTVSPost2010Prop46
 90
       50
102
RTVSPost2010PropOp46
 70
     1
102
RTVSPost2010Prop47
 90
       50
102
RTVSPost2010PropOp47
 70
     1
102
RTVSPost2010Prop48
 90
       50
102
RTVSPost2010PropOp48
 70
     1
102
RTVSPost2010Prop49
280
     0
102
RTVSPost2010PropOp49
 70
     1
102
RTVSPost2010Prop50
 90
       50
102
RTVSPost2010PropOp50
 70
     1
102
RTVSPost2010Prop51ColorIndex
 90
      256
102
RTVSPost2010Prop51ColorRGB
 90
-16777216
102
RTVSPost2010PropOp51
 70
     0
102
RTVSPost2010Prop52
140
1.0
102
RTVSPost2010PropOp52
 70
     0
102
RTVSPost2010Prop53
 90
        2
102
RTVSPost2010PropOp53
 70
     1
102
RTVSPost2010Prop54
  1
strokes_ogs.tif
102
RTVSPost2010PropOp54
 70
     1
102
RTVSPost2010Prop55
280
     0
102
RTVSPost2010PropOp55
 70
     1
102
RTVSPost2010Prop56
140
1.0
102
RTVSPost2010PropOp56
 70
     1
102
RTVSPost2010Prop57
140
1.0
102
RTVSPost2010PropOp57
 70
     1
102
RTVSPropertyOp0
 70
     1
102
RTVSPropertyOp1
 70
     1
102
RTVSPropertyOp2
 70
     1
102
RTVSPropertyOp3
 70
     1
102
RTVSPropertyOp4
 70
     1
102
RTVSPropertyOp5
 70
     1
102
RTVSPropertyOp6
 70
     1
102
RTVSPropertyOp7
 70
     1
102
RTVSPropertyOp8
 70
     1
102
RTVSPropertyOp9
 70
     1
102
RTVSPropertyOp10
 70
     1
102
RTVSPropertyOp11
 70
     1
102
RTVSPropertyOp12
 70
     1
102
RTVSPropertyOp13
 70
     1
102
RTVSPropertyOp14
 70
     1
102
RTVSPropertyOp15
 70
     1
102
RTVSPropertyOp16
 70
     1
102
RTVSPropertyOp17
 70
     1
102
RTVSPropertyOp18
 70
     1
102
RTVSPropertyOp19
 70
     1
102
RTVSPropertyOp20
 70
     1
102
RTVSPropertyOp21
 70
     1
102
RTVSPropertyOp22
 70
     1
102
RTVSPropertyOp23
 70
     1
102
RTVSPropertyOp24
 70
     1
102
RTVSPropertyOp25
 70
     1
102
RTVSPropertyOp26
 70
     1
102
RTVSPropertyOp27
 70
     1
102
RTVSPropertyOp28
 70
     1
102
RTVSPropertyOp29
 70
     1
102
RTVSPropertyOp30
 70
     1
102
RTVSPropertyOp31
 70
     1
102
RTVSPropertyOp32
 70
     1
102
RTVSPropertyOp33
 70
     1
102
RTVSPropertyOp34
 70
     1
102
RTVSPropertyOp35
 70
     1
102
RTVSPropertyOp36
 70
     1
102
RTVSPropertyOp37
 70
     1
102
RTVSPropertyOp38
 70
     1
102
RTVSPropertyOp39
 70
     1
102
RTVSPropertyOp40
 70
     1
102
RTVSPropertyOp41
 70
     1
102
RTVSPropertyOp42
 70
     1
102
RTVSPropertyOp43
 70
     1
102
RTVSPropertyOp44
 70
     1
102
RTVSPropertyOp45
 70
     1
102
RTVSPropertyOp46
 70
     1
102
RTVSPropertyOp47
 70
     1
102
RTVSPropertyOp48
 70
     1
102
RTVSPropertyOp49
 70
     1
102
RTVSPropertyOp50
 70
     1
102
RTVSPropertyOp51
 70
     0
102
RTVSPropertyOp52
 70
     0
102
RTVSPropertyOp53
 70
     1
102
RTVSPropertyOp54
 70
     1
102
RTVSPropertyOp55
 70
     1
102
RTVSPropertyOp56
 70
     1
102
RTVSPropertyOp57
 70
     1
102
RTVSPropertyOp58
 70
     1
102
RTVSPropertyOp59
 70
     1
102
RTVSPropertyOp60
 70
     1
102
RTVSPropertyOp61
 70
     1
102
RTVSPropertyOp62
 70
     1
  0
XRECORD
  5
46B1
102
{ACAD_REACTORS
330
46B0
102
}
330
46B0
100
AcDbXrecord
280
     1
102
RTVSPost2010Prop28
280
     0
102
RTVSPost2010PropOp28
 70
     0
102
RTVSPost2010Prop29
280
     1
102
RTVSPost2010PropOp29
 70
     0
102
RTVSPost2010Prop30
280
     1
102
RTVSPost2010PropOp30
 70
     0
102
RTVSPost2010Prop31
280
     0
102
RTVSPost2010PropOp31
 70
     0
102
RTVSPost2010Prop32
280
     0
102
RTVSPost2010PropOp32
 70
     0
102
RTVSPost2010Prop33
280
     0
102
RTVSPost2010PropOp33
 70
     0
102
RTVSPost2010Prop34
280
     0
102
RTVSPost2010PropOp34
 70
     0
102
RTVSPost2010Prop35
280
     0
102
RTVSPost2010PropOp35
 70
     0
102
RTVSPost2010Prop36
280
     0
102
RTVSPost2010PropOp36
 70
     0
102
RTVSPost2010Prop37
 90
       50
102
RTVSPost2010PropOp37
 70
     0
102
RTVSPost2010Prop38
140
0.0
102
RTVSPost2010PropOp38
 70
     0
102
RTVSPost2010Prop39
140
1.0
102
RTVSPost2010PropOp39
 70
     0
102
RTVSPost2010Prop40
 90
        0
102
RTVSPost2010PropOp40
 70
     0
102
RTVSPost2010Prop41ColorIndex
 90
       18
102
RTVSPost2010Prop41ColorRGB
 90
        0
102
RTVSPost2010PropOp41
 70
     0
102
RTVSPost2010Prop42
 90
       50
102
RTVSPost2010PropOp42
 70
     0
102
RTVSPost2010Prop43
 90
        3
102
RTVSPost2010PropOp43
 70
     0
102
RTVSPost2010Prop44ColorIndex
 90
        5
102
RTVSPost2010Prop44ColorRGB
 90
      255
102
RTVSPost2010PropOp44
 70
     0
102
RTVSPost2010Prop45
280
     0
102
RTVSPost2010PropOp45
 70
     0
102
RTVSPost2010Prop46
 90
       50
102
RTVSPost2010PropOp46
 70
     0
102
RTVSPost2010Prop47
 90
       50
102
RTVSPost2010PropOp47
 70
     0
102
RTVSPost2010Prop48
 90
       50
102
RTVSPost2010PropOp48
 70
     0
102
RTVSPost2010Prop49
280
     0
102
RTVSPost2010PropOp49
 70
     0
102
RTVSPost2010Prop50
 90
       50
102
RTVSPost2010PropOp50
 70
     0
102
RTVSPost2010Prop51ColorIndex
 90
      256
102
RTVSPost2010Prop51ColorRGB
 90
-16777216
102
RTVSPost2010PropOp51
 70
     0
102
RTVSPost2010Prop52
140
1.0
102
RTVSPost2010PropOp52
 70
     0
102
RTVSPost2010Prop53
 90
        2
102
RTVSPost2010PropOp53
 70
     0
102
RTVSPost2010Prop54
  1
strokes_ogs.tif
102
RTVSPost2010PropOp54
 70
     0
102
RTVSPost2010Prop55
280
     0
102
RTVSPost2010PropOp55
 70
     0
102
RTVSPost2010Prop56
140
1.0
102
RTVSPost2010PropOp56
 70
     0
102
RTVSPost2010Prop57
140
1.0
102
RTVSPost2010PropOp57
 70
     0
102
RTVSPropertyOp0
 70
     0
102
RTVSPropertyOp1
 70
     0
102
RTVSPropertyOp2
 70
     0
102
RTVSPropertyOp3
 70
     0
102
RTVSPropertyOp4
 70
     0
102
RTVSPropertyOp5
 70
     0
102
RTVSPropertyOp6
 70
     0
102
RTVSPropertyOp7
 70
     0
102
RTVSPropertyOp8
 70
     0
102
RTVSPropertyOp9
 70
     0
102
RTVSPropertyOp10
 70
     0
102
RTVSPropertyOp11
 70
     0
102
RTVSPropertyOp12
 70
     0
102
RTVSPropertyOp13
 70
     0
102
RTVSPropertyOp14
 70
     2
102
RTVSPropertyOp15
 70
     0
102
RTVSPropertyOp16
 70
     0
102
RTVSPropertyOp17
 70
     0
102
RTVSPropertyOp18
 70
     0
102
RTVSPropertyOp19
 70
     0
102
RTVSPropertyOp20
 70
     0
102
RTVSPropertyOp21
 70
     0
102
RTVSPropertyOp22
 70
     0
102
RTVSPropertyOp23
 70
     0
102
RTVSPropertyOp24
 70
     0
102
RTVSPropertyOp25
 70
     0
102
RTVSPropertyOp26
 70
     0
102
RTVSPropertyOp27
 70
     0
102
RTVSPropertyOp28
 70
     0
102
RTVSPropertyOp29
 70
     0
102
RTVSPropertyOp30
 70
     0
102
RTVSPropertyOp31
 70
     0
102
RTVSPropertyOp32
 70
     0
102
RTVSPropertyOp33
 70
     0
102
RTVSPropertyOp34
 70
     0
102
RTVSPropertyOp35
 70
     0
102
RTVSPropertyOp36
 70
     0
102
RTVSPropertyOp37
 70
     0
102
RTVSPropertyOp38
 70
     0
102
RTVSPropertyOp39
 70
     0
102
RTVSPropertyOp40
 70
     0
102
RTVSPropertyOp41
 70
     0
102
RTVSPropertyOp42
 70
     0
102
RTVSPropertyOp43
 70
     0
102
RTVSPropertyOp44
 70
     0
102
RTVSPropertyOp45
 70
     0
102
RTVSPropertyOp46
 70
     0
102
RTVSPropertyOp47
 70
     0
102
RTVSPropertyOp48
 70
     0
102
RTVSPropertyOp49
 70
     0
102
RTVSPropertyOp50
 70
     0
102
RTVSPropertyOp51
 70
     0
102
RTVSPropertyOp52
 70
     0
102
RTVSPropertyOp53
 70
     0
102
RTVSPropertyOp54
 70
     0
102
RTVSPropertyOp55
 70
     0
102
RTVSPropertyOp56
 70
     0
102
RTVSPropertyOp57
 70
     0
102
RTVSPropertyOp58
 70
     0
102
RTVSPropertyOp59
 70
     0
102
RTVSPropertyOp60
 70
     0
102
RTVSPropertyOp61
 70
     0
102
RTVSPropertyOp62
 70
     0
  0
XRECORD
  5
469B
102
{ACAD_REACTORS
330
469A
102
}
330
469A
100
AcDbXrecord
280
     1
102
RTVSPost2010Prop28
280
     0
102
RTVSPost2010PropOp28
 70
     1
102
RTVSPost2010Prop29
280
     1
102
RTVSPost2010PropOp29
 70
     1
102
RTVSPost2010Prop30
280
     1
102
RTVSPost2010PropOp30
 70
     1
102
RTVSPost2010Prop31
280
     0
102
RTVSPost2010PropOp31
 70
     1
102
RTVSPost2010Prop32
280
     0
102
RTVSPost2010PropOp32
 70
     1
102
RTVSPost2010Prop33
280
     0
102
RTVSPost2010PropOp33
 70
     1
102
RTVSPost2010Prop34
280
     0
102
RTVSPost2010PropOp34
 70
     1
102
RTVSPost2010Prop35
280
     0
102
RTVSPost2010PropOp35
 70
     1
102
RTVSPost2010Prop36
280
     0
102
RTVSPost2010PropOp36
 70
     1
102
RTVSPost2010Prop37
 90
       50
102
RTVSPost2010PropOp37
 70
     1
102
RTVSPost2010Prop38
140
0.0
102
RTVSPost2010PropOp38
 70
     1
102
RTVSPost2010Prop39
140
1.0
102
RTVSPost2010PropOp39
 70
     1
102
RTVSPost2010Prop40
 90
        0
102
RTVSPost2010PropOp40
 70
     1
102
RTVSPost2010Prop41ColorIndex
 90
       18
102
RTVSPost2010Prop41ColorRGB
 90
        0
102
RTVSPost2010PropOp41
 70
     1
102
RTVSPost2010Prop42
 90
       50
102
RTVSPost2010PropOp42
 70
     1
102
RTVSPost2010Prop43
 90
        3
102
RTVSPost2010PropOp43
 70
     1
102
RTVSPost2010Prop44ColorIndex
 90
        5
102
RTVSPost2010Prop44ColorRGB
 90
      255
102
RTVSPost2010PropOp44
 70
     1
102
RTVSPost2010Prop45
280
     0
102
RTVSPost2010PropOp45
 70
     1
102
RTVSPost2010Prop46
 90
       50
102
RTVSPost2010PropOp46
 70
     1
102
RTVSPost2010Prop47
 90
       50
102
RTVSPost2010PropOp47
 70
     1
102
RTVSPost2010Prop48
 90
       50
102
RTVSPost2010PropOp48
 70
     1
102
RTVSPost2010Prop49
280
     0
102
RTVSPost2010PropOp49
 70
     1
102
RTVSPost2010Prop50
 90
       50
102
RTVSPost2010PropOp50
 70
     1
102
RTVSPost2010Prop51ColorIndex
 90
      256
102
RTVSPost2010Prop51ColorRGB
 90
-16777216
102
RTVSPost2010PropOp51
 70
     0
102
RTVSPost2010Prop52
140
1.0
102
RTVSPost2010PropOp52
 70
     0
102
RTVSPost2010Prop53
 90
        2
102
RTVSPost2010PropOp53
 70
     1
102
RTVSPost2010Prop54
  1
strokes_ogs.tif
102
RTVSPost2010PropOp54
 70
     1
102
RTVSPost2010Prop55
280
     0
102
RTVSPost2010PropOp55
 70
     1
102
RTVSPost2010Prop56
140
1.0
102
RTVSPost2010PropOp56
 70
     1
102
RTVSPost2010Prop57
140
1.0
102
RTVSPost2010PropOp57
 70
     1
102
RTVSPropertyOp0
 70
     1
102
RTVSPropertyOp1
 70
     1
102
RTVSPropertyOp2
 70
     1
102
RTVSPropertyOp3
 70
     1
102
RTVSPropertyOp4
 70
     1
102
RTVSPropertyOp5
 70
     1
102
RTVSPropertyOp6
 70
     1
102
RTVSPropertyOp7
 70
     1
102
RTVSPropertyOp8
 70
     1
102
RTVSPropertyOp9
 70
     1
102
RTVSPropertyOp10
 70
     1
102
RTVSPropertyOp11
 70
     1
102
RTVSPropertyOp12
 70
     1
102
RTVSPropertyOp13
 70
     1
102
RTVSPropertyOp14
 70
     1
102
RTVSPropertyOp15
 70
     1
102
RTVSPropertyOp16
 70
     1
102
RTVSPropertyOp17
 70
     1
102
RTVSPropertyOp18
 70
     1
102
RTVSPropertyOp19
 70
     1
102
RTVSPropertyOp20
 70
     1
102
RTVSPropertyOp21
 70
     1
102
RTVSPropertyOp22
 70
     1
102
RTVSPropertyOp23
 70
     1
102
RTVSPropertyOp24
 70
     1
102
RTVSPropertyOp25
 70
     1
102
RTVSPropertyOp26
 70
     1
102
RTVSPropertyOp27
 70
     1
102
RTVSPropertyOp28
 70
     1
102
RTVSPropertyOp29
 70
     1
102
RTVSPropertyOp30
 70
     1
102
RTVSPropertyOp31
 70
     1
102
RTVSPropertyOp32
 70
     1
102
RTVSPropertyOp33
 70
     1
102
RTVSPropertyOp34
 70
     1
102
RTVSPropertyOp35
 70
     1
102
RTVSPropertyOp36
 70
     1
102
RTVSPropertyOp37
 70
     1
102
RTVSPropertyOp38
 70
     1
102
RTVSPropertyOp39
 70
     1
102
RTVSPropertyOp40
 70
     1
102
RTVSPropertyOp41
 70
     1
102
RTVSPropertyOp42
 70
     1
102
RTVSPropertyOp43
 70
     1
102
RTVSPropertyOp44
 70
     1
102
RTVSPropertyOp45
 70
     1
102
RTVSPropertyOp46
 70
     1
102
RTVSPropertyOp47
 70
     1
102
RTVSPropertyOp48
 70
     1
102
RTVSPropertyOp49
 70
     1
102
RTVSPropertyOp50
 70
     1
102
RTVSPropertyOp51
 70
     0
102
RTVSPropertyOp52
 70
     0
102
RTVSPropertyOp53
 70
     1
102
RTVSPropertyOp54
 70
     1
102
RTVSPropertyOp55
 70
     1
102
RTVSPropertyOp56
 70
     1
102
RTVSPropertyOp57
 70
     1
102
RTVSPropertyOp58
 70
     1
102
RTVSPropertyOp59
 70
     1
102
RTVSPropertyOp60
 70
     1
102
RTVSPropertyOp61
 70
     1
102
RTVSPropertyOp62
 70
     1
  0
XRECORD
  5
4685
102
{ACAD_REACTORS
330
4684
102
}
330
4684
100
AcDbXrecord
280
     1
102
RTVSPost2010Prop28
280
     0
102
RTVSPost2010PropOp28
 70
     1
102
RTVSPost2010Prop29
280
     1
102
RTVSPost2010PropOp29
 70
     1
102
RTVSPost2010Prop30
280
     1
102
RTVSPost2010PropOp30
 70
     1
102
RTVSPost2010Prop31
280
     0
102
RTVSPost2010PropOp31
 70
     1
102
RTVSPost2010Prop32
280
     0
102
RTVSPost2010PropOp32
 70
     1
102
RTVSPost2010Prop33
280
     0
102
RTVSPost2010PropOp33
 70
     1
102
RTVSPost2010Prop34
280
     0
102
RTVSPost2010PropOp34
 70
     1
102
RTVSPost2010Prop35
280
     0
102
RTVSPost2010PropOp35
 70
     1
102
RTVSPost2010Prop36
280
     0
102
RTVSPost2010PropOp36
 70
     1
102
RTVSPost2010Prop37
 90
       50
102
RTVSPost2010PropOp37
 70
     1
102
RTVSPost2010Prop38
140
0.0
102
RTVSPost2010PropOp38
 70
     1
102
RTVSPost2010Prop39
140
1.0
102
RTVSPost2010PropOp39
 70
     1
102
RTVSPost2010Prop40
 90
        0
102
RTVSPost2010PropOp40
 70
     1
102
RTVSPost2010Prop41ColorIndex
 90
       18
102
RTVSPost2010Prop41ColorRGB
 90
        0
102
RTVSPost2010PropOp41
 70
     1
102
RTVSPost2010Prop42
 90
       50
102
RTVSPost2010PropOp42
 70
     1
102
RTVSPost2010Prop43
 90
        3
102
RTVSPost2010PropOp43
 70
     1
102
RTVSPost2010Prop44ColorIndex
 90
        5
102
RTVSPost2010Prop44ColorRGB
 90
      255
102
RTVSPost2010PropOp44
 70
     1
102
RTVSPost2010Prop45
280
     0
102
RTVSPost2010PropOp45
 70
     1
102
RTVSPost2010Prop46
 90
       50
102
RTVSPost2010PropOp46
 70
     1
102
RTVSPost2010Prop47
 90
       50
102
RTVSPost2010PropOp47
 70
     1
102
RTVSPost2010Prop48
 90
       50
102
RTVSPost2010PropOp48
 70
     1
102
RTVSPost2010Prop49
280
     0
102
RTVSPost2010PropOp49
 70
     1
102
RTVSPost2010Prop50
 90
       50
102
RTVSPost2010PropOp50
 70
     1
102
RTVSPost2010Prop51ColorIndex
 90
      256
102
RTVSPost2010Prop51ColorRGB
 90
-16777216
102
RTVSPost2010PropOp51
 70
     0
102
RTVSPost2010Prop52
140
1.0
102
RTVSPost2010PropOp52
 70
     0
102
RTVSPost2010Prop53
 90
        2
102
RTVSPost2010PropOp53
 70
     1
102
RTVSPost2010Prop54
  1
strokes_ogs.tif
102
RTVSPost2010PropOp54
 70
     1
102
RTVSPost2010Prop55
280
     0
102
RTVSPost2010PropOp55
 70
     1
102
RTVSPost2010Prop56
140
1.0
102
RTVSPost2010PropOp56
 70
     1
102
RTVSPost2010Prop57
140
1.0
102
RTVSPost2010PropOp57
 70
     1
102
RTVSPropertyOp0
 70
     1
102
RTVSPropertyOp1
 70
     1
102
RTVSPropertyOp2
 70
     1
102
RTVSPropertyOp3
 70
     1
102
RTVSPropertyOp4
 70
     1
102
RTVSPropertyOp5
 70
     1
102
RTVSPropertyOp6
 70
     1
102
RTVSPropertyOp7
 70
     1
102
RTVSPropertyOp8
 70
     1
102
RTVSPropertyOp9
 70
     1
102
RTVSPropertyOp10
 70
     1
102
RTVSPropertyOp11
 70
     1
102
RTVSPropertyOp12
 70
     1
102
RTVSPropertyOp13
 70
     1
102
RTVSPropertyOp14
 70
     1
102
RTVSPropertyOp15
 70
     1
102
RTVSPropertyOp16
 70
     1
102
RTVSPropertyOp17
 70
     1
102
RTVSPropertyOp18
 70
     1
102
RTVSPropertyOp19
 70
     1
102
RTVSPropertyOp20
 70
     1
102
RTVSPropertyOp21
 70
     1
102
RTVSPropertyOp22
 70
     1
102
RTVSPropertyOp23
 70
     1
102
RTVSPropertyOp24
 70
     1
102
RTVSPropertyOp25
 70
     1
102
RTVSPropertyOp26
 70
     1
102
RTVSPropertyOp27
 70
     1
102
RTVSPropertyOp28
 70
     1
102
RTVSPropertyOp29
 70
     1
102
RTVSPropertyOp30
 70
     1
102
RTVSPropertyOp31
 70
     1
102
RTVSPropertyOp32
 70
     1
102
RTVSPropertyOp33
 70
     1
102
RTVSPropertyOp34
 70
     1
102
RTVSPropertyOp35
 70
     1
102
RTVSPropertyOp36
 70
     1
102
RTVSPropertyOp37
 70
     1
102
RTVSPropertyOp38
 70
     1
102
RTVSPropertyOp39
 70
     1
102
RTVSPropertyOp40
 70
     1
102
RTVSPropertyOp41
 70
     1
102
RTVSPropertyOp42
 70
     1
102
RTVSPropertyOp43
 70
     1
102
RTVSPropertyOp44
 70
     1
102
RTVSPropertyOp45
 70
     1
102
RTVSPropertyOp46
 70
     1
102
RTVSPropertyOp47
 70
     1
102
RTVSPropertyOp48
 70
     1
102
RTVSPropertyOp49
 70
     1
102
RTVSPropertyOp50
 70
     1
102
RTVSPropertyOp51
 70
     0
102
RTVSPropertyOp52
 70
     0
102
RTVSPropertyOp53
 70
     1
102
RTVSPropertyOp54
 70
     1
102
RTVSPropertyOp55
 70
     1
102
RTVSPropertyOp56
 70
     1
102
RTVSPropertyOp57
 70
     1
102
RTVSPropertyOp58
 70
     1
102
RTVSPropertyOp59
 70
     1
102
RTVSPropertyOp60
 70
     1
102
RTVSPropertyOp61
 70
     1
102
RTVSPropertyOp62
 70
     1
  0
XRECORD
  5
4687
102
{ACAD_REACTORS
330
4686
102
}
330
4686
100
AcDbXrecord
280
     1
102
RTVSPost2010Prop28
280
     0
102
RTVSPost2010PropOp28
 70
     1
102
RTVSPost2010Prop29
280
     1
102
RTVSPost2010PropOp29
 70
     1
102
RTVSPost2010Prop30
280
     1
102
RTVSPost2010PropOp30
 70
     1
102
RTVSPost2010Prop31
280
     0
102
RTVSPost2010PropOp31
 70
     1
102
RTVSPost2010Prop32
280
     0
102
RTVSPost2010PropOp32
 70
     1
102
RTVSPost2010Prop33
280
     0
102
RTVSPost2010PropOp33
 70
     1
102
RTVSPost2010Prop34
280
     0
102
RTVSPost2010PropOp34
 70
     1
102
RTVSPost2010Prop35
280
     0
102
RTVSPost2010PropOp35
 70
     1
102
RTVSPost2010Prop36
280
     0
102
RTVSPost2010PropOp36
 70
     1
102
RTVSPost2010Prop37
 90
       50
102
RTVSPost2010PropOp37
 70
     1
102
RTVSPost2010Prop38
140
0.0
102
RTVSPost2010PropOp38
 70
     1
102
RTVSPost2010Prop39
140
1.0
102
RTVSPost2010PropOp39
 70
     1
102
RTVSPost2010Prop40
 90
        0
102
RTVSPost2010PropOp40
 70
     1
102
RTVSPost2010Prop41ColorIndex
 90
       18
102
RTVSPost2010Prop41ColorRGB
 90
        0
102
RTVSPost2010PropOp41
 70
     1
102
RTVSPost2010Prop42
 90
       50
102
RTVSPost2010PropOp42
 70
     1
102
RTVSPost2010Prop43
 90
        3
102
RTVSPost2010PropOp43
 70
     1
102
RTVSPost2010Prop44ColorIndex
 90
        5
102
RTVSPost2010Prop44ColorRGB
 90
      255
102
RTVSPost2010PropOp44
 70
     1
102
RTVSPost2010Prop45
280
     0
102
RTVSPost2010PropOp45
 70
     1
102
RTVSPost2010Prop46
 90
       50
102
RTVSPost2010PropOp46
 70
     1
102
RTVSPost2010Prop47
 90
       50
102
RTVSPost2010PropOp47
 70
     1
102
RTVSPost2010Prop48
 90
       50
102
RTVSPost2010PropOp48
 70
     1
102
RTVSPost2010Prop49
280
     0
102
RTVSPost2010PropOp49
 70
     1
102
RTVSPost2010Prop50
 90
       50
102
RTVSPost2010PropOp50
 70
     1
102
RTVSPost2010Prop51ColorIndex
 90
      256
102
RTVSPost2010Prop51ColorRGB
 90
-16777216
102
RTVSPost2010PropOp51
 70
     0
102
RTVSPost2010Prop52
140
1.0
102
RTVSPost2010PropOp52
 70
     0
102
RTVSPost2010Prop53
 90
        2
102
RTVSPost2010PropOp53
 70
     1
102
RTVSPost2010Prop54
  1
strokes_ogs.tif
102
RTVSPost2010PropOp54
 70
     1
102
RTVSPost2010Prop55
280
     0
102
RTVSPost2010PropOp55
 70
     1
102
RTVSPost2010Prop56
140
1.0
102
RTVSPost2010PropOp56
 70
     1
102
RTVSPost2010Prop57
140
1.0
102
RTVSPost2010PropOp57
 70
     1
102
RTVSPropertyOp0
 70
     1
102
RTVSPropertyOp1
 70
     1
102
RTVSPropertyOp2
 70
     1
102
RTVSPropertyOp3
 70
     1
102
RTVSPropertyOp4
 70
     1
102
RTVSPropertyOp5
 70
     1
102
RTVSPropertyOp6
 70
     1
102
RTVSPropertyOp7
 70
     1
102
RTVSPropertyOp8
 70
     1
102
RTVSPropertyOp9
 70
     1
102
RTVSPropertyOp10
 70
     1
102
RTVSPropertyOp11
 70
     1
102
RTVSPropertyOp12
 70
     1
102
RTVSPropertyOp13
 70
     1
102
RTVSPropertyOp14
 70
     1
102
RTVSPropertyOp15
 70
     1
102
RTVSPropertyOp16
 70
     1
102
RTVSPropertyOp17
 70
     1
102
RTVSPropertyOp18
 70
     1
102
RTVSPropertyOp19
 70
     1
102
RTVSPropertyOp20
 70
     1
102
RTVSPropertyOp21
 70
     1
102
RTVSPropertyOp22
 70
     1
102
RTVSPropertyOp23
 70
     1
102
RTVSPropertyOp24
 70
     1
102
RTVSPropertyOp25
 70
     1
102
RTVSPropertyOp26
 70
     1
102
RTVSPropertyOp27
 70
     1
102
RTVSPropertyOp28
 70
     1
102
RTVSPropertyOp29
 70
     1
102
RTVSPropertyOp30
 70
     1
102
RTVSPropertyOp31
 70
     1
102
RTVSPropertyOp32
 70
     1
102
RTVSPropertyOp33
 70
     1
102
RTVSPropertyOp34
 70
     1
102
RTVSPropertyOp35
 70
     1
102
RTVSPropertyOp36
 70
     1
102
RTVSPropertyOp37
 70
     1
102
RTVSPropertyOp38
 70
     1
102
RTVSPropertyOp39
 70
     1
102
RTVSPropertyOp40
 70
     1
102
RTVSPropertyOp41
 70
     1
102
RTVSPropertyOp42
 70
     1
102
RTVSPropertyOp43
 70
     1
102
RTVSPropertyOp44
 70
     1
102
RTVSPropertyOp45
 70
     1
102
RTVSPropertyOp46
 70
     1
102
RTVSPropertyOp47
 70
     1
102
RTVSPropertyOp48
 70
     1
102
RTVSPropertyOp49
 70
     1
102
RTVSPropertyOp50
 70
     1
102
RTVSPropertyOp51
 70
     0
102
RTVSPropertyOp52
 70
     0
102
RTVSPropertyOp53
 70
     1
102
RTVSPropertyOp54
 70
     1
102
RTVSPropertyOp55
 70
     1
102
RTVSPropertyOp56
 70
     1
102
RTVSPropertyOp57
 70
     1
102
RTVSPropertyOp58
 70
     1
102
RTVSPropertyOp59
 70
     1
102
RTVSPropertyOp60
 70
     1
102
RTVSPropertyOp61
 70
     1
102
RTVSPropertyOp62
 70
     1
  0
XRECORD
  5
4689
102
{ACAD_REACTORS
330
4688
102
}
330
4688
100
AcDbXrecord
280
     1
102
RTVSPost2010Prop28
280
     0
102
RTVSPost2010PropOp28
 70
     1
102
RTVSPost2010Prop29
280
     1
102
RTVSPost2010PropOp29
 70
     1
102
RTVSPost2010Prop30
280
     1
102
RTVSPost2010PropOp30
 70
     1
102
RTVSPost2010Prop31
280
     0
102
RTVSPost2010PropOp31
 70
     1
102
RTVSPost2010Prop32
280
     0
102
RTVSPost2010PropOp32
 70
     1
102
RTVSPost2010Prop33
280
     0
102
RTVSPost2010PropOp33
 70
     1
102
RTVSPost2010Prop34
280
     0
102
RTVSPost2010PropOp34
 70
     1
102
RTVSPost2010Prop35
280
     0
102
RTVSPost2010PropOp35
 70
     1
102
RTVSPost2010Prop36
280
     0
102
RTVSPost2010PropOp36
 70
     1
102
RTVSPost2010Prop37
 90
       50
102
RTVSPost2010PropOp37
 70
     1
102
RTVSPost2010Prop38
140
0.0
102
RTVSPost2010PropOp38
 70
     1
102
RTVSPost2010Prop39
140
1.0
102
RTVSPost2010PropOp39
 70
     1
102
RTVSPost2010Prop40
 90
        0
102
RTVSPost2010PropOp40
 70
     1
102
RTVSPost2010Prop41ColorIndex
 90
       18
102
RTVSPost2010Prop41ColorRGB
 90
        0
102
RTVSPost2010PropOp41
 70
     1
102
RTVSPost2010Prop42
 90
       50
102
RTVSPost2010PropOp42
 70
     1
102
RTVSPost2010Prop43
 90
        3
102
RTVSPost2010PropOp43
 70
     1
102
RTVSPost2010Prop44ColorIndex
 90
        5
102
RTVSPost2010Prop44ColorRGB
 90
      255
102
RTVSPost2010PropOp44
 70
     1
102
RTVSPost2010Prop45
280
     0
102
RTVSPost2010PropOp45
 70
     1
102
RTVSPost2010Prop46
 90
       50
102
RTVSPost2010PropOp46
 70
     1
102
RTVSPost2010Prop47
 90
       50
102
RTVSPost2010PropOp47
 70
     1
102
RTVSPost2010Prop48
 90
       50
102
RTVSPost2010PropOp48
 70
     1
102
RTVSPost2010Prop49
280
     0
102
RTVSPost2010PropOp49
 70
     1
102
RTVSPost2010Prop50
 90
       50
102
RTVSPost2010PropOp50
 70
     1
102
RTVSPost2010Prop51ColorIndex
 90
      256
102
RTVSPost2010Prop51ColorRGB
 90
-16777216
102
RTVSPost2010PropOp51
 70
     0
102
RTVSPost2010Prop52
140
1.0
102
RTVSPost2010PropOp52
 70
     0
102
RTVSPost2010Prop53
 90
        2
102
RTVSPost2010PropOp53
 70
     1
102
RTVSPost2010Prop54
  1
strokes_ogs.tif
102
RTVSPost2010PropOp54
 70
     1
102
RTVSPost2010Prop55
280
     0
102
RTVSPost2010PropOp55
 70
     1
102
RTVSPost2010Prop56
140
1.0
102
RTVSPost2010PropOp56
 70
     1
102
RTVSPost2010Prop57
140
1.0
102
RTVSPost2010PropOp57
 70
     1
102
RTVSPropertyOp0
 70
     1
102
RTVSPropertyOp1
 70
     1
102
RTVSPropertyOp2
 70
     1
102
RTVSPropertyOp3
 70
     1
102
RTVSPropertyOp4
 70
     1
102
RTVSPropertyOp5
 70
     1
102
RTVSPropertyOp6
 70
     1
102
RTVSPropertyOp7
 70
     1
102
RTVSPropertyOp8
 70
     1
102
RTVSPropertyOp9
 70
     1
102
RTVSPropertyOp10
 70
     1
102
RTVSPropertyOp11
 70
     1
102
RTVSPropertyOp12
 70
     1
102
RTVSPropertyOp13
 70
     1
102
RTVSPropertyOp14
 70
     1
102
RTVSPropertyOp15
 70
     1
102
RTVSPropertyOp16
 70
     1
102
RTVSPropertyOp17
 70
     1
102
RTVSPropertyOp18
 70
     1
102
RTVSPropertyOp19
 70
     1
102
RTVSPropertyOp20
 70
     1
102
RTVSPropertyOp21
 70
     1
102
RTVSPropertyOp22
 70
     1
102
RTVSPropertyOp23
 70
     1
102
RTVSPropertyOp24
 70
     1
102
RTVSPropertyOp25
 70
     1
102
RTVSPropertyOp26
 70
     1
102
RTVSPropertyOp27
 70
     1
102
RTVSPropertyOp28
 70
     1
102
RTVSPropertyOp29
 70
     1
102
RTVSPropertyOp30
 70
     1
102
RTVSPropertyOp31
 70
     1
102
RTVSPropertyOp32
 70
     1
102
RTVSPropertyOp33
 70
     1
102
RTVSPropertyOp34
 70
     1
102
RTVSPropertyOp35
 70
     1
102
RTVSPropertyOp36
 70
     1
102
RTVSPropertyOp37
 70
     1
102
RTVSPropertyOp38
 70
     1
102
RTVSPropertyOp39
 70
     1
102
RTVSPropertyOp40
 70
     1
102
RTVSPropertyOp41
 70
     1
102
RTVSPropertyOp42
 70
     1
102
RTVSPropertyOp43
 70
     1
102
RTVSPropertyOp44
 70
     1
102
RTVSPropertyOp45
 70
     1
102
RTVSPropertyOp46
 70
     1
102
RTVSPropertyOp47
 70
     1
102
RTVSPropertyOp48
 70
     1
102
RTVSPropertyOp49
 70
     1
102
RTVSPropertyOp50
 70
     1
102
RTVSPropertyOp51
 70
     0
102
RTVSPropertyOp52
 70
     0
102
RTVSPropertyOp53
 70
     1
102
RTVSPropertyOp54
 70
     1
102
RTVSPropertyOp55
 70
     1
102
RTVSPropertyOp56
 70
     1
102
RTVSPropertyOp57
 70
     1
102
RTVSPropertyOp58
 70
     1
102
RTVSPropertyOp59
 70
     1
102
RTVSPropertyOp60
 70
     1
102
RTVSPropertyOp61
 70
     1
102
RTVSPropertyOp62
 70
     1
  0
XRECORD
  5
468B
102
{ACAD_REACTORS
330
468A
102
}
330
468A
100
AcDbXrecord
280
     1
102
RTVSPost2010Prop28
280
     0
102
RTVSPost2010PropOp28
 70
     1
102
RTVSPost2010Prop29
280
     1
102
RTVSPost2010PropOp29
 70
     1
102
RTVSPost2010Prop30
280
     1
102
RTVSPost2010PropOp30
 70
     1
102
RTVSPost2010Prop31
280
     0
102
RTVSPost2010PropOp31
 70
     1
102
RTVSPost2010Prop32
280
     0
102
RTVSPost2010PropOp32
 70
     1
102
RTVSPost2010Prop33
280
     0
102
RTVSPost2010PropOp33
 70
     1
102
RTVSPost2010Prop34
280
     0
102
RTVSPost2010PropOp34
 70
     1
102
RTVSPost2010Prop35
280
     0
102
RTVSPost2010PropOp35
 70
     1
102
RTVSPost2010Prop36
280
     0
102
RTVSPost2010PropOp36
 70
     1
102
RTVSPost2010Prop37
 90
       50
102
RTVSPost2010PropOp37
 70
     1
102
RTVSPost2010Prop38
140
0.0
102
RTVSPost2010PropOp38
 70
     1
102
RTVSPost2010Prop39
140
1.0
102
RTVSPost2010PropOp39
 70
     1
102
RTVSPost2010Prop40
 90
        0
102
RTVSPost2010PropOp40
 70
     1
102
RTVSPost2010Prop41ColorIndex
 90
       18
102
RTVSPost2010Prop41ColorRGB
 90
        0
102
RTVSPost2010PropOp41
 70
     1
102
RTVSPost2010Prop42
 90
       50
102
RTVSPost2010PropOp42
 70
     1
102
RTVSPost2010Prop43
 90
        3
102
RTVSPost2010PropOp43
 70
     1
102
RTVSPost2010Prop44ColorIndex
 90
        5
102
RTVSPost2010Prop44ColorRGB
 90
      255
102
RTVSPost2010PropOp44
 70
     1
102
RTVSPost2010Prop45
280
     0
102
RTVSPost2010PropOp45
 70
     1
102
RTVSPost2010Prop46
 90
       50
102
RTVSPost2010PropOp46
 70
     1
102
RTVSPost2010Prop47
 90
       50
102
RTVSPost2010PropOp47
 70
     1
102
RTVSPost2010Prop48
 90
       50
102
RTVSPost2010PropOp48
 70
     1
102
RTVSPost2010Prop49
280
     0
102
RTVSPost2010PropOp49
 70
     1
102
RTVSPost2010Prop50
 90
       50
102
RTVSPost2010PropOp50
 70
     1
102
RTVSPost2010Prop51ColorIndex
 90
      256
102
RTVSPost2010Prop51ColorRGB
 90
-16777216
102
RTVSPost2010PropOp51
 70
     0
102
RTVSPost2010Prop52
140
1.0
102
RTVSPost2010PropOp52
 70
     0
102
RTVSPost2010Prop53
 90
        2
102
RTVSPost2010PropOp53
 70
     1
102
RTVSPost2010Prop54
  1
strokes_ogs.tif
102
RTVSPost2010PropOp54
 70
     1
102
RTVSPost2010Prop55
280
     0
102
RTVSPost2010PropOp55
 70
     1
102
RTVSPost2010Prop56
140
1.0
102
RTVSPost2010PropOp56
 70
     1
102
RTVSPost2010Prop57
140
1.0
102
RTVSPost2010PropOp57
 70
     1
102
RTVSPropertyOp0
 70
     1
102
RTVSPropertyOp1
 70
     1
102
RTVSPropertyOp2
 70
     1
102
RTVSPropertyOp3
 70
     1
102
RTVSPropertyOp4
 70
     1
102
RTVSPropertyOp5
 70
     1
102
RTVSPropertyOp6
 70
     1
102
RTVSPropertyOp7
 70
     1
102
RTVSPropertyOp8
 70
     1
102
RTVSPropertyOp9
 70
     1
102
RTVSPropertyOp10
 70
     1
102
RTVSPropertyOp11
 70
     1
102
RTVSPropertyOp12
 70
     1
102
RTVSPropertyOp13
 70
     1
102
RTVSPropertyOp14
 70
     1
102
RTVSPropertyOp15
 70
     1
102
RTVSPropertyOp16
 70
     1
102
RTVSPropertyOp17
 70
     1
102
RTVSPropertyOp18
 70
     1
102
RTVSPropertyOp19
 70
     1
102
RTVSPropertyOp20
 70
     1
102
RTVSPropertyOp21
 70
     1
102
RTVSPropertyOp22
 70
     1
102
RTVSPropertyOp23
 70
     1
102
RTVSPropertyOp24
 70
     1
102
RTVSPropertyOp25
 70
     1
102
RTVSPropertyOp26
 70
     1
102
RTVSPropertyOp27
 70
     1
102
RTVSPropertyOp28
 70
     1
102
RTVSPropertyOp29
 70
     1
102
RTVSPropertyOp30
 70
     1
102
RTVSPropertyOp31
 70
     1
102
RTVSPropertyOp32
 70
     1
102
RTVSPropertyOp33
 70
     1
102
RTVSPropertyOp34
 70
     1
102
RTVSPropertyOp35
 70
     1
102
RTVSPropertyOp36
 70
     1
102
RTVSPropertyOp37
 70
     1
102
RTVSPropertyOp38
 70
     1
102
RTVSPropertyOp39
 70
     1
102
RTVSPropertyOp40
 70
     1
102
RTVSPropertyOp41
 70
     1
102
RTVSPropertyOp42
 70
     1
102
RTVSPropertyOp43
 70
     1
102
RTVSPropertyOp44
 70
     1
102
RTVSPropertyOp45
 70
     1
102
RTVSPropertyOp46
 70
     1
102
RTVSPropertyOp47
 70
     1
102
RTVSPropertyOp48
 70
     1
102
RTVSPropertyOp49
 70
     1
102
RTVSPropertyOp50
 70
     1
102
RTVSPropertyOp51
 70
     0
102
RTVSPropertyOp52
 70
     0
102
RTVSPropertyOp53
 70
     1
102
RTVSPropertyOp54
 70
     1
102
RTVSPropertyOp55
 70
     1
102
RTVSPropertyOp56
 70
     1
102
RTVSPropertyOp57
 70
     1
102
RTVSPropertyOp58
 70
     1
102
RTVSPropertyOp59
 70
     1
102
RTVSPropertyOp60
 70
     1
102
RTVSPropertyOp61
 70
     1
102
RTVSPropertyOp62
 70
     1
  0
XRECORD
  5
46A1
102
{ACAD_REACTORS
330
46A0
102
}
330
46A0
100
AcDbXrecord
280
     1
102
RTVSPost2010Prop28
280
     0
102
RTVSPost2010PropOp28
 70
     1
102
RTVSPost2010Prop29
280
     1
102
RTVSPost2010PropOp29
 70
     1
102
RTVSPost2010Prop30
280
     1
102
RTVSPost2010PropOp30
 70
     1
102
RTVSPost2010Prop31
280
     0
102
RTVSPost2010PropOp31
 70
     1
102
RTVSPost2010Prop32
280
     0
102
RTVSPost2010PropOp32
 70
     1
102
RTVSPost2010Prop33
280
     0
102
RTVSPost2010PropOp33
 70
     1
102
RTVSPost2010Prop34
280
     0
102
RTVSPost2010PropOp34
 70
     1
102
RTVSPost2010Prop35
280
     0
102
RTVSPost2010PropOp35
 70
     1
102
RTVSPost2010Prop36
280
     0
102
RTVSPost2010PropOp36
 70
     1
102
RTVSPost2010Prop37
 90
       50
102
RTVSPost2010PropOp37
 70
     1
102
RTVSPost2010Prop38
140
0.0
102
RTVSPost2010PropOp38
 70
     1
102
RTVSPost2010Prop39
140
1.0
102
RTVSPost2010PropOp39
 70
     1
102
RTVSPost2010Prop40
 90
        0
102
RTVSPost2010PropOp40
 70
     1
102
RTVSPost2010Prop41ColorIndex
 90
       18
102
RTVSPost2010Prop41ColorRGB
 90
        0
102
RTVSPost2010PropOp41
 70
     1
102
RTVSPost2010Prop42
 90
       50
102
RTVSPost2010PropOp42
 70
     1
102
RTVSPost2010Prop43
 90
        3
102
RTVSPost2010PropOp43
 70
     1
102
RTVSPost2010Prop44ColorIndex
 90
        5
102
RTVSPost2010Prop44ColorRGB
 90
      255
102
RTVSPost2010PropOp44
 70
     1
102
RTVSPost2010Prop45
280
     0
102
RTVSPost2010PropOp45
 70
     1
102
RTVSPost2010Prop46
 90
       50
102
RTVSPost2010PropOp46
 70
     1
102
RTVSPost2010Prop47
 90
       50
102
RTVSPost2010PropOp47
 70
     1
102
RTVSPost2010Prop48
 90
       50
102
RTVSPost2010PropOp48
 70
     1
102
RTVSPost2010Prop49
280
     0
102
RTVSPost2010PropOp49
 70
     1
102
RTVSPost2010Prop50
 90
       50
102
RTVSPost2010PropOp50
 70
     1
102
RTVSPost2010Prop51ColorIndex
 90
      256
102
RTVSPost2010Prop51ColorRGB
 90
-16777216
102
RTVSPost2010PropOp51
 70
     0
102
RTVSPost2010Prop52
140
1.0
102
RTVSPost2010PropOp52
 70
     0
102
RTVSPost2010Prop53
 90
        2
102
RTVSPost2010PropOp53
 70
     1
102
RTVSPost2010Prop54
  1
strokes_ogs.tif
102
RTVSPost2010PropOp54
 70
     1
102
RTVSPost2010Prop55
280
     0
102
RTVSPost2010PropOp55
 70
     1
102
RTVSPost2010Prop56
140
1.0
102
RTVSPost2010PropOp56
 70
     1
102
RTVSPost2010Prop57
140
1.0
102
RTVSPost2010PropOp57
 70
     1
102
RTVSPropertyOp0
 70
     1
102
RTVSPropertyOp1
 70
     1
102
RTVSPropertyOp2
 70
     1
102
RTVSPropertyOp3
 70
     1
102
RTVSPropertyOp4
 70
     1
102
RTVSPropertyOp5
 70
     1
102
RTVSPropertyOp6
 70
     1
102
RTVSPropertyOp7
 70
     1
102
RTVSPropertyOp8
 70
     1
102
RTVSPropertyOp9
 70
     1
102
RTVSPropertyOp10
 70
     1
102
RTVSPropertyOp11
 70
     1
102
RTVSPropertyOp12
 70
     1
102
RTVSPropertyOp13
 70
     1
102
RTVSPropertyOp14
 70
     1
102
RTVSPropertyOp15
 70
     1
102
RTVSPropertyOp16
 70
     1
102
RTVSPropertyOp17
 70
     1
102
RTVSPropertyOp18
 70
     1
102
RTVSPropertyOp19
 70
     1
102
RTVSPropertyOp20
 70
     1
102
RTVSPropertyOp21
 70
     1
102
RTVSPropertyOp22
 70
     1
102
RTVSPropertyOp23
 70
     1
102
RTVSPropertyOp24
 70
     1
102
RTVSPropertyOp25
 70
     1
102
RTVSPropertyOp26
 70
     1
102
RTVSPropertyOp27
 70
     1
102
RTVSPropertyOp28
 70
     1
102
RTVSPropertyOp29
 70
     1
102
RTVSPropertyOp30
 70
     1
102
RTVSPropertyOp31
 70
     1
102
RTVSPropertyOp32
 70
     1
102
RTVSPropertyOp33
 70
     1
102
RTVSPropertyOp34
 70
     1
102
RTVSPropertyOp35
 70
     1
102
RTVSPropertyOp36
 70
     1
102
RTVSPropertyOp37
 70
     1
102
RTVSPropertyOp38
 70
     1
102
RTVSPropertyOp39
 70
     1
102
RTVSPropertyOp40
 70
     1
102
RTVSPropertyOp41
 70
     1
102
RTVSPropertyOp42
 70
     1
102
RTVSPropertyOp43
 70
     1
102
RTVSPropertyOp44
 70
     1
102
RTVSPropertyOp45
 70
     1
102
RTVSPropertyOp46
 70
     1
102
RTVSPropertyOp47
 70
     1
102
RTVSPropertyOp48
 70
     1
102
RTVSPropertyOp49
 70
     1
102
RTVSPropertyOp50
 70
     1
102
RTVSPropertyOp51
 70
     0
102
RTVSPropertyOp52
 70
     0
102
RTVSPropertyOp53
 70
     1
102
RTVSPropertyOp54
 70
     1
102
RTVSPropertyOp55
 70
     1
102
RTVSPropertyOp56
 70
     1
102
RTVSPropertyOp57
 70
     1
102
RTVSPropertyOp58
 70
     1
102
RTVSPropertyOp59
 70
     1
102
RTVSPropertyOp60
 70
     1
102
RTVSPropertyOp61
 70
     1
102
RTVSPropertyOp62
 70
     1
  0
XRECORD
  5
46AD
102
{ACAD_REACTORS
330
46AC
102
}
330
46AC
100
AcDbXrecord
280
     1
102
RTVSPost2010Prop28
280
     0
102
RTVSPost2010PropOp28
 70
     0
102
RTVSPost2010Prop29
280
     1
102
RTVSPost2010PropOp29
 70
     0
102
RTVSPost2010Prop30
280
     1
102
RTVSPost2010PropOp30
 70
     0
102
RTVSPost2010Prop31
280
     0
102
RTVSPost2010PropOp31
 70
     0
102
RTVSPost2010Prop32
280
     0
102
RTVSPost2010PropOp32
 70
     0
102
RTVSPost2010Prop33
280
     0
102
RTVSPost2010PropOp33
 70
     0
102
RTVSPost2010Prop34
280
     0
102
RTVSPost2010PropOp34
 70
     0
102
RTVSPost2010Prop35
280
     0
102
RTVSPost2010PropOp35
 70
     0
102
RTVSPost2010Prop36
280
     0
102
RTVSPost2010PropOp36
 70
     0
102
RTVSPost2010Prop37
 90
       50
102
RTVSPost2010PropOp37
 70
     0
102
RTVSPost2010Prop38
140
0.0
102
RTVSPost2010PropOp38
 70
     0
102
RTVSPost2010Prop39
140
1.0
102
RTVSPost2010PropOp39
 70
     0
102
RTVSPost2010Prop40
 90
        0
102
RTVSPost2010PropOp40
 70
     0
102
RTVSPost2010Prop41ColorIndex
 90
       18
102
RTVSPost2010Prop41ColorRGB
 90
        0
102
RTVSPost2010PropOp41
 70
     0
102
RTVSPost2010Prop42
 90
       50
102
RTVSPost2010PropOp42
 70
     0
102
RTVSPost2010Prop43
 90
        3
102
RTVSPost2010PropOp43
 70
     0
102
RTVSPost2010Prop44ColorIndex
 90
        5
102
RTVSPost2010Prop44ColorRGB
 90
      255
102
RTVSPost2010PropOp44
 70
     0
102
RTVSPost2010Prop45
280
     0
102
RTVSPost2010PropOp45
 70
     0
102
RTVSPost2010Prop46
 90
       50
102
RTVSPost2010PropOp46
 70
     0
102
RTVSPost2010Prop47
 90
       50
102
RTVSPost2010PropOp47
 70
     0
102
RTVSPost2010Prop48
 90
       50
102
RTVSPost2010PropOp48
 70
     0
102
RTVSPost2010Prop49
280
     0
102
RTVSPost2010PropOp49
 70
     0
102
RTVSPost2010Prop50
 90
       50
102
RTVSPost2010PropOp50
 70
     0
102
RTVSPost2010Prop51ColorIndex
 90
      256
102
RTVSPost2010Prop51ColorRGB
 90
-16777216
102
RTVSPost2010PropOp51
 70
     0
102
RTVSPost2010Prop52
140
1.0
102
RTVSPost2010PropOp52
 70
     0
102
RTVSPost2010Prop53
 90
        2
102
RTVSPost2010PropOp53
 70
     0
102
RTVSPost2010Prop54
  1
strokes_ogs.tif
102
RTVSPost2010PropOp54
 70
     0
102
RTVSPost2010Prop55
280
     0
102
RTVSPost2010PropOp55
 70
     0
102
RTVSPost2010Prop56
140
1.0
102
RTVSPost2010PropOp56
 70
     0
102
RTVSPost2010Prop57
140
1.0
102
RTVSPost2010PropOp57
 70
     0
102
RTVSPropertyOp0
 70
     0
102
RTVSPropertyOp1
 70
     0
102
RTVSPropertyOp2
 70
     0
102
RTVSPropertyOp3
 70
     0
102
RTVSPropertyOp4
 70
     0
102
RTVSPropertyOp5
 70
     0
102
RTVSPropertyOp6
 70
     0
102
RTVSPropertyOp7
 70
     0
102
RTVSPropertyOp8
 70
     0
102
RTVSPropertyOp9
 70
     0
102
RTVSPropertyOp10
 70
     0
102
RTVSPropertyOp11
 70
     0
102
RTVSPropertyOp12
 70
     0
102
RTVSPropertyOp13
 70
     0
102
RTVSPropertyOp14
 70
     2
102
RTVSPropertyOp15
 70
     0
102
RTVSPropertyOp16
 70
     0
102
RTVSPropertyOp17
 70
     0
102
RTVSPropertyOp18
 70
     0
102
RTVSPropertyOp19
 70
     0
102
RTVSPropertyOp20
 70
     0
102
RTVSPropertyOp21
 70
     0
102
RTVSPropertyOp22
 70
     0
102
RTVSPropertyOp23
 70
     0
102
RTVSPropertyOp24
 70
     0
102
RTVSPropertyOp25
 70
     0
102
RTVSPropertyOp26
 70
     0
102
RTVSPropertyOp27
 70
     0
102
RTVSPropertyOp28
 70
     0
102
RTVSPropertyOp29
 70
     0
102
RTVSPropertyOp30
 70
     0
102
RTVSPropertyOp31
 70
     0
102
RTVSPropertyOp32
 70
     0
102
RTVSPropertyOp33
 70
     0
102
RTVSPropertyOp34
 70
     0
102
RTVSPropertyOp35
 70
     0
102
RTVSPropertyOp36
 70
     0
102
RTVSPropertyOp37
 70
     0
102
RTVSPropertyOp38
 70
     0
102
RTVSPropertyOp39
 70
     0
102
RTVSPropertyOp40
 70
     0
102
RTVSPropertyOp41
 70
     0
102
RTVSPropertyOp42
 70
     0
102
RTVSPropertyOp43
 70
     0
102
RTVSPropertyOp44
 70
     0
102
RTVSPropertyOp45
 70
     0
102
RTVSPropertyOp46
 70
     0
102
RTVSPropertyOp47
 70
     0
102
RTVSPropertyOp48
 70
     0
102
RTVSPropertyOp49
 70
     0
102
RTVSPropertyOp50
 70
     0
102
RTVSPropertyOp51
 70
     0
102
RTVSPropertyOp52
 70
     0
102
RTVSPropertyOp53
 70
     0
102
RTVSPropertyOp54
 70
     0
102
RTVSPropertyOp55
 70
     0
102
RTVSPropertyOp56
 70
     0
102
RTVSPropertyOp57
 70
     0
102
RTVSPropertyOp58
 70
     0
102
RTVSPropertyOp59
 70
     0
102
RTVSPropertyOp60
 70
     0
102
RTVSPropertyOp61
 70
     0
102
RTVSPropertyOp62
 70
     0
  0
XRECORD
  5
4699
102
{ACAD_REACTORS
330
4698
102
}
330
4698
100
AcDbXrecord
280
     1
102
RTVSPost2010Prop28
280
     0
102
RTVSPost2010PropOp28
 70
     1
102
RTVSPost2010Prop29
280
     1
102
RTVSPost2010PropOp29
 70
     1
102
RTVSPost2010Prop30
280
     1
102
RTVSPost2010PropOp30
 70
     1
102
RTVSPost2010Prop31
280
     0
102
RTVSPost2010PropOp31
 70
     1
102
RTVSPost2010Prop32
280
     0
102
RTVSPost2010PropOp32
 70
     1
102
RTVSPost2010Prop33
280
     0
102
RTVSPost2010PropOp33
 70
     1
102
RTVSPost2010Prop34
280
     0
102
RTVSPost2010PropOp34
 70
     1
102
RTVSPost2010Prop35
280
     0
102
RTVSPost2010PropOp35
 70
     1
102
RTVSPost2010Prop36
280
     0
102
RTVSPost2010PropOp36
 70
     1
102
RTVSPost2010Prop37
 90
       50
102
RTVSPost2010PropOp37
 70
     1
102
RTVSPost2010Prop38
140
0.0
102
RTVSPost2010PropOp38
 70
     1
102
RTVSPost2010Prop39
140
1.0
102
RTVSPost2010PropOp39
 70
     1
102
RTVSPost2010Prop40
 90
        0
102
RTVSPost2010PropOp40
 70
     1
102
RTVSPost2010Prop41ColorIndex
 90
       18
102
RTVSPost2010Prop41ColorRGB
 90
        0
102
RTVSPost2010PropOp41
 70
     1
102
RTVSPost2010Prop42
 90
       50
102
RTVSPost2010PropOp42
 70
     1
102
RTVSPost2010Prop43
 90
        3
102
RTVSPost2010PropOp43
 70
     1
102
RTVSPost2010Prop44ColorIndex
 90
        5
102
RTVSPost2010Prop44ColorRGB
 90
      255
102
RTVSPost2010PropOp44
 70
     1
102
RTVSPost2010Prop45
280
     0
102
RTVSPost2010PropOp45
 70
     1
102
RTVSPost2010Prop46
 90
       50
102
RTVSPost2010PropOp46
 70
     1
102
RTVSPost2010Prop47
 90
       50
102
RTVSPost2010PropOp47
 70
     1
102
RTVSPost2010Prop48
 90
       50
102
RTVSPost2010PropOp48
 70
     1
102
RTVSPost2010Prop49
280
     0
102
RTVSPost2010PropOp49
 70
     1
102
RTVSPost2010Prop50
 90
       50
102
RTVSPost2010PropOp50
 70
     1
102
RTVSPost2010Prop51ColorIndex
 90
      256
102
RTVSPost2010Prop51ColorRGB
 90
-16777216
102
RTVSPost2010PropOp51
 70
     0
102
RTVSPost2010Prop52
140
1.0
102
RTVSPost2010PropOp52
 70
     0
102
RTVSPost2010Prop53
 90
        2
102
RTVSPost2010PropOp53
 70
     1
102
RTVSPost2010Prop54
  1
strokes_ogs.tif
102
RTVSPost2010PropOp54
 70
     1
102
RTVSPost2010Prop55
280
     0
102
RTVSPost2010PropOp55
 70
     1
102
RTVSPost2010Prop56
140
1.0
102
RTVSPost2010PropOp56
 70
     1
102
RTVSPost2010Prop57
140
1.0
102
RTVSPost2010PropOp57
 70
     1
102
RTVSPropertyOp0
 70
     1
102
RTVSPropertyOp1
 70
     1
102
RTVSPropertyOp2
 70
     1
102
RTVSPropertyOp3
 70
     1
102
RTVSPropertyOp4
 70
     1
102
RTVSPropertyOp5
 70
     1
102
RTVSPropertyOp6
 70
     1
102
RTVSPropertyOp7
 70
     1
102
RTVSPropertyOp8
 70
     1
102
RTVSPropertyOp9
 70
     1
102
RTVSPropertyOp10
 70
     1
102
RTVSPropertyOp11
 70
     1
102
RTVSPropertyOp12
 70
     1
102
RTVSPropertyOp13
 70
     1
102
RTVSPropertyOp14
 70
     1
102
RTVSPropertyOp15
 70
     1
102
RTVSPropertyOp16
 70
     1
102
RTVSPropertyOp17
 70
     1
102
RTVSPropertyOp18
 70
     1
102
RTVSPropertyOp19
 70
     1
102
RTVSPropertyOp20
 70
     1
102
RTVSPropertyOp21
 70
     1
102
RTVSPropertyOp22
 70
     1
102
RTVSPropertyOp23
 70
     1
102
RTVSPropertyOp24
 70
     1
102
RTVSPropertyOp25
 70
     1
102
RTVSPropertyOp26
 70
     1
102
RTVSPropertyOp27
 70
     1
102
RTVSPropertyOp28
 70
     1
102
RTVSPropertyOp29
 70
     1
102
RTVSPropertyOp30
 70
     1
102
RTVSPropertyOp31
 70
     1
102
RTVSPropertyOp32
 70
     1
102
RTVSPropertyOp33
 70
     1
102
RTVSPropertyOp34
 70
     1
102
RTVSPropertyOp35
 70
     1
102
RTVSPropertyOp36
 70
     1
102
RTVSPropertyOp37
 70
     1
102
RTVSPropertyOp38
 70
     1
102
RTVSPropertyOp39
 70
     1
102
RTVSPropertyOp40
 70
     1
102
RTVSPropertyOp41
 70
     1
102
RTVSPropertyOp42
 70
     1
102
RTVSPropertyOp43
 70
     1
102
RTVSPropertyOp44
 70
     1
102
RTVSPropertyOp45
 70
     1
102
RTVSPropertyOp46
 70
     1
102
RTVSPropertyOp47
 70
     1
102
RTVSPropertyOp48
 70
     1
102
RTVSPropertyOp49
 70
     1
102
RTVSPropertyOp50
 70
     1
102
RTVSPropertyOp51
 70
     0
102
RTVSPropertyOp52
 70
     0
102
RTVSPropertyOp53
 70
     1
102
RTVSPropertyOp54
 70
     1
102
RTVSPropertyOp55
 70
     1
102
RTVSPropertyOp56
 70
     1
102
RTVSPropertyOp57
 70
     1
102
RTVSPropertyOp58
 70
     1
102
RTVSPropertyOp59
 70
     1
102
RTVSPropertyOp60
 70
     1
102
RTVSPropertyOp61
 70
     1
102
RTVSPropertyOp62
 70
     1
  0
XRECORD
  5
46AF
102
{ACAD_REACTORS
330
46AE
102
}
330
46AE
100
AcDbXrecord
280
     1
102
RTVSPost2010Prop28
280
     0
102
RTVSPost2010PropOp28
 70
     0
102
RTVSPost2010Prop29
280
     1
102
RTVSPost2010PropOp29
 70
     0
102
RTVSPost2010Prop30
280
     1
102
RTVSPost2010PropOp30
 70
     0
102
RTVSPost2010Prop31
280
     0
102
RTVSPost2010PropOp31
 70
     0
102
RTVSPost2010Prop32
280
     0
102
RTVSPost2010PropOp32
 70
     0
102
RTVSPost2010Prop33
280
     0
102
RTVSPost2010PropOp33
 70
     0
102
RTVSPost2010Prop34
280
     0
102
RTVSPost2010PropOp34
 70
     0
102
RTVSPost2010Prop35
280
     0
102
RTVSPost2010PropOp35
 70
     0
102
RTVSPost2010Prop36
280
     0
102
RTVSPost2010PropOp36
 70
     0
102
RTVSPost2010Prop37
 90
       50
102
RTVSPost2010PropOp37
 70
     0
102
RTVSPost2010Prop38
140
0.0
102
RTVSPost2010PropOp38
 70
     0
102
RTVSPost2010Prop39
140
1.0
102
RTVSPost2010PropOp39
 70
     0
102
RTVSPost2010Prop40
 90
        0
102
RTVSPost2010PropOp40
 70
     0
102
RTVSPost2010Prop41ColorIndex
 90
       18
102
RTVSPost2010Prop41ColorRGB
 90
        0
102
RTVSPost2010PropOp41
 70
     0
102
RTVSPost2010Prop42
 90
       50
102
RTVSPost2010PropOp42
 70
     0
102
RTVSPost2010Prop43
 90
        3
102
RTVSPost2010PropOp43
 70
     0
102
RTVSPost2010Prop44ColorIndex
 90
        5
102
RTVSPost2010Prop44ColorRGB
 90
      255
102
RTVSPost2010PropOp44
 70
     0
102
RTVSPost2010Prop45
280
     0
102
RTVSPost2010PropOp45
 70
     0
102
RTVSPost2010Prop46
 90
       50
102
RTVSPost2010PropOp46
 70
     0
102
RTVSPost2010Prop47
 90
       50
102
RTVSPost2010PropOp47
 70
     0
102
RTVSPost2010Prop48
 90
       50
102
RTVSPost2010PropOp48
 70
     0
102
RTVSPost2010Prop49
280
     0
102
RTVSPost2010PropOp49
 70
     0
102
RTVSPost2010Prop50
 90
       50
102
RTVSPost2010PropOp50
 70
     0
102
RTVSPost2010Prop51ColorIndex
 90
      256
102
RTVSPost2010Prop51ColorRGB
 90
-16777216
102
RTVSPost2010PropOp51
 70
     0
102
RTVSPost2010Prop52
140
1.0
102
RTVSPost2010PropOp52
 70
     0
102
RTVSPost2010Prop53
 90
        2
102
RTVSPost2010PropOp53
 70
     0
102
RTVSPost2010Prop54
  1
strokes_ogs.tif
102
RTVSPost2010PropOp54
 70
     0
102
RTVSPost2010Prop55
280
     0
102
RTVSPost2010PropOp55
 70
     0
102
RTVSPost2010Prop56
140
1.0
102
RTVSPost2010PropOp56
 70
     0
102
RTVSPost2010Prop57
140
1.0
102
RTVSPost2010PropOp57
 70
     0
102
RTVSPropertyOp0
 70
     0
102
RTVSPropertyOp1
 70
     0
102
RTVSPropertyOp2
 70
     0
102
RTVSPropertyOp3
 70
     0
102
RTVSPropertyOp4
 70
     0
102
RTVSPropertyOp5
 70
     0
102
RTVSPropertyOp6
 70
     0
102
RTVSPropertyOp7
 70
     0
102
RTVSPropertyOp8
 70
     0
102
RTVSPropertyOp9
 70
     0
102
RTVSPropertyOp10
 70
     0
102
RTVSPropertyOp11
 70
     0
102
RTVSPropertyOp12
 70
     0
102
RTVSPropertyOp13
 70
     0
102
RTVSPropertyOp14
 70
     2
102
RTVSPropertyOp15
 70
     0
102
RTVSPropertyOp16
 70
     0
102
RTVSPropertyOp17
 70
     0
102
RTVSPropertyOp18
 70
     0
102
RTVSPropertyOp19
 70
     0
102
RTVSPropertyOp20
 70
     0
102
RTVSPropertyOp21
 70
     0
102
RTVSPropertyOp22
 70
     0
102
RTVSPropertyOp23
 70
     0
102
RTVSPropertyOp24
 70
     0
102
RTVSPropertyOp25
 70
     0
102
RTVSPropertyOp26
 70
     0
102
RTVSPropertyOp27
 70
     0
102
RTVSPropertyOp28
 70
     0
102
RTVSPropertyOp29
 70
     0
102
RTVSPropertyOp30
 70
     0
102
RTVSPropertyOp31
 70
     0
102
RTVSPropertyOp32
 70
     0
102
RTVSPropertyOp33
 70
     0
102
RTVSPropertyOp34
 70
     0
102
RTVSPropertyOp35
 70
     0
102
RTVSPropertyOp36
 70
     0
102
RTVSPropertyOp37
 70
     0
102
RTVSPropertyOp38
 70
     0
102
RTVSPropertyOp39
 70
     0
102
RTVSPropertyOp40
 70
     0
102
RTVSPropertyOp41
 70
     0
102
RTVSPropertyOp42
 70
     0
102
RTVSPropertyOp43
 70
     0
102
RTVSPropertyOp44
 70
     0
102
RTVSPropertyOp45
 70
     0
102
RTVSPropertyOp46
 70
     0
102
RTVSPropertyOp47
 70
     0
102
RTVSPropertyOp48
 70
     0
102
RTVSPropertyOp49
 70
     0
102
RTVSPropertyOp50
 70
     0
102
RTVSPropertyOp51
 70
     0
102
RTVSPropertyOp52
 70
     0
102
RTVSPropertyOp53
 70
     0
102
RTVSPropertyOp54
 70
     0
102
RTVSPropertyOp55
 70
     0
102
RTVSPropertyOp56
 70
     0
102
RTVSPropertyOp57
 70
     0
102
RTVSPropertyOp58
 70
     0
102
RTVSPropertyOp59
 70
     0
102
RTVSPropertyOp60
 70
     0
102
RTVSPropertyOp61
 70
     0
102
RTVSPropertyOp62
 70
     0
  0
XRECORD
  5
4681
102
{ACAD_REACTORS
330
4680
102
}
330
4680
100
AcDbXrecord
280
     1
102
RTVSPost2010Prop28
280
     0
102
RTVSPost2010PropOp28
 70
     1
102
RTVSPost2010Prop29
280
     1
102
RTVSPost2010PropOp29
 70
     1
102
RTVSPost2010Prop30
280
     1
102
RTVSPost2010PropOp30
 70
     1
102
RTVSPost2010Prop31
280
     0
102
RTVSPost2010PropOp31
 70
     1
102
RTVSPost2010Prop32
280
     0
102
RTVSPost2010PropOp32
 70
     1
102
RTVSPost2010Prop33
280
     0
102
RTVSPost2010PropOp33
 70
     1
102
RTVSPost2010Prop34
280
     0
102
RTVSPost2010PropOp34
 70
     1
102
RTVSPost2010Prop35
280
     0
102
RTVSPost2010PropOp35
 70
     1
102
RTVSPost2010Prop36
280
     0
102
RTVSPost2010PropOp36
 70
     1
102
RTVSPost2010Prop37
 90
       50
102
RTVSPost2010PropOp37
 70
     1
102
RTVSPost2010Prop38
140
0.0
102
RTVSPost2010PropOp38
 70
     1
102
RTVSPost2010Prop39
140
1.0
102
RTVSPost2010PropOp39
 70
     1
102
RTVSPost2010Prop40
 90
        0
102
RTVSPost2010PropOp40
 70
     1
102
RTVSPost2010Prop41ColorIndex
 90
       18
102
RTVSPost2010Prop41ColorRGB
 90
        0
102
RTVSPost2010PropOp41
 70
     1
102
RTVSPost2010Prop42
 90
       50
102
RTVSPost2010PropOp42
 70
     1
102
RTVSPost2010Prop43
 90
        3
102
RTVSPost2010PropOp43
 70
     1
102
RTVSPost2010Prop44ColorIndex
 90
        5
102
RTVSPost2010Prop44ColorRGB
 90
      255
102
RTVSPost2010PropOp44
 70
     1
102
RTVSPost2010Prop45
280
     0
102
RTVSPost2010PropOp45
 70
     1
102
RTVSPost2010Prop46
 90
       50
102
RTVSPost2010PropOp46
 70
     1
102
RTVSPost2010Prop47
 90
       50
102
RTVSPost2010PropOp47
 70
     1
102
RTVSPost2010Prop48
 90
       50
102
RTVSPost2010PropOp48
 70
     1
102
RTVSPost2010Prop49
280
     0
102
RTVSPost2010PropOp49
 70
     1
102
RTVSPost2010Prop50
 90
       50
102
RTVSPost2010PropOp50
 70
     1
102
RTVSPost2010Prop51ColorIndex
 90
      256
102
RTVSPost2010Prop51ColorRGB
 90
-16777216
102
RTVSPost2010PropOp51
 70
     0
102
RTVSPost2010Prop52
140
1.0
102
RTVSPost2010PropOp52
 70
     0
102
RTVSPost2010Prop53
 90
        2
102
RTVSPost2010PropOp53
 70
     1
102
RTVSPost2010Prop54
  1
strokes_ogs.tif
102
RTVSPost2010PropOp54
 70
     1
102
RTVSPost2010Prop55
280
     0
102
RTVSPost2010PropOp55
 70
     1
102
RTVSPost2010Prop56
140
1.0
102
RTVSPost2010PropOp56
 70
     1
102
RTVSPost2010Prop57
140
1.0
102
RTVSPost2010PropOp57
 70
     1
102
RTVSPropertyOp0
 70
     1
102
RTVSPropertyOp1
 70
     1
102
RTVSPropertyOp2
 70
     1
102
RTVSPropertyOp3
 70
     1
102
RTVSPropertyOp4
 70
     1
102
RTVSPropertyOp5
 70
     1
102
RTVSPropertyOp6
 70
     1
102
RTVSPropertyOp7
 70
     1
102
RTVSPropertyOp8
 70
     1
102
RTVSPropertyOp9
 70
     1
102
RTVSPropertyOp10
 70
     1
102
RTVSPropertyOp11
 70
     1
102
RTVSPropertyOp12
 70
     1
102
RTVSPropertyOp13
 70
     1
102
RTVSPropertyOp14
 70
     1
102
RTVSPropertyOp15
 70
     1
102
RTVSPropertyOp16
 70
     1
102
RTVSPropertyOp17
 70
     1
102
RTVSPropertyOp18
 70
     1
102
RTVSPropertyOp19
 70
     1
102
RTVSPropertyOp20
 70
     1
102
RTVSPropertyOp21
 70
     1
102
RTVSPropertyOp22
 70
     1
102
RTVSPropertyOp23
 70
     1
102
RTVSPropertyOp24
 70
     1
102
RTVSPropertyOp25
 70
     1
102
RTVSPropertyOp26
 70
     1
102
RTVSPropertyOp27
 70
     1
102
RTVSPropertyOp28
 70
     1
102
RTVSPropertyOp29
 70
     1
102
RTVSPropertyOp30
 70
     1
102
RTVSPropertyOp31
 70
     1
102
RTVSPropertyOp32
 70
     1
102
RTVSPropertyOp33
 70
     1
102
RTVSPropertyOp34
 70
     1
102
RTVSPropertyOp35
 70
     1
102
RTVSPropertyOp36
 70
     1
102
RTVSPropertyOp37
 70
     1
102
RTVSPropertyOp38
 70
     1
102
RTVSPropertyOp39
 70
     1
102
RTVSPropertyOp40
 70
     1
102
RTVSPropertyOp41
 70
     1
102
RTVSPropertyOp42
 70
     1
102
RTVSPropertyOp43
 70
     1
102
RTVSPropertyOp44
 70
     1
102
RTVSPropertyOp45
 70
     1
102
RTVSPropertyOp46
 70
     1
102
RTVSPropertyOp47
 70
     1
102
RTVSPropertyOp48
 70
     1
102
RTVSPropertyOp49
 70
     1
102
RTVSPropertyOp50
 70
     1
102
RTVSPropertyOp51
 70
     0
102
RTVSPropertyOp52
 70
     0
102
RTVSPropertyOp53
 70
     1
102
RTVSPropertyOp54
 70
     1
102
RTVSPropertyOp55
 70
     1
102
RTVSPropertyOp56
 70
     1
102
RTVSPropertyOp57
 70
     1
102
RTVSPropertyOp58
 70
     1
102
RTVSPropertyOp59
 70
     1
102
RTVSPropertyOp60
 70
     1
102
RTVSPropertyOp61
 70
     1
102
RTVSPropertyOp62
 70
     1
  0
XRECORD
  5
46AB
102
{ACAD_REACTORS
330
46AA
102
}
330
46AA
100
AcDbXrecord
280
     1
102
RTVSPost2010Prop28
280
     0
102
RTVSPost2010PropOp28
 70
     1
102
RTVSPost2010Prop29
280
     1
102
RTVSPost2010PropOp29
 70
     1
102
RTVSPost2010Prop30
280
     1
102
RTVSPost2010PropOp30
 70
     1
102
RTVSPost2010Prop31
280
     0
102
RTVSPost2010PropOp31
 70
     1
102
RTVSPost2010Prop32
280
     0
102
RTVSPost2010PropOp32
 70
     1
102
RTVSPost2010Prop33
280
     0
102
RTVSPost2010PropOp33
 70
     1
102
RTVSPost2010Prop34
280
     0
102
RTVSPost2010PropOp34
 70
     1
102
RTVSPost2010Prop35
280
     0
102
RTVSPost2010PropOp35
 70
     1
102
RTVSPost2010Prop36
280
     0
102
RTVSPost2010PropOp36
 70
     1
102
RTVSPost2010Prop37
 90
       50
102
RTVSPost2010PropOp37
 70
     1
102
RTVSPost2010Prop38
140
0.0
102
RTVSPost2010PropOp38
 70
     1
102
RTVSPost2010Prop39
140
1.0
102
RTVSPost2010PropOp39
 70
     1
102
RTVSPost2010Prop40
 90
        0
102
RTVSPost2010PropOp40
 70
     1
102
RTVSPost2010Prop41ColorIndex
 90
       18
102
RTVSPost2010Prop41ColorRGB
 90
        0
102
RTVSPost2010PropOp41
 70
     1
102
RTVSPost2010Prop42
 90
       50
102
RTVSPost2010PropOp42
 70
     1
102
RTVSPost2010Prop43
 90
        3
102
RTVSPost2010PropOp43
 70
     1
102
RTVSPost2010Prop44ColorIndex
 90
        5
102
RTVSPost2010Prop44ColorRGB
 90
      255
102
RTVSPost2010PropOp44
 70
     1
102
RTVSPost2010Prop45
280
     0
102
RTVSPost2010PropOp45
 70
     1
102
RTVSPost2010Prop46
 90
       50
102
RTVSPost2010PropOp46
 70
     1
102
RTVSPost2010Prop47
 90
       50
102
RTVSPost2010PropOp47
 70
     1
102
RTVSPost2010Prop48
 90
       50
102
RTVSPost2010PropOp48
 70
     1
102
RTVSPost2010Prop49
280
     0
102
RTVSPost2010PropOp49
 70
     1
102
RTVSPost2010Prop50
 90
       50
102
RTVSPost2010PropOp50
 70
     1
102
RTVSPost2010Prop51ColorIndex
 90
      256
102
RTVSPost2010Prop51ColorRGB
 90
-16777216
102
RTVSPost2010PropOp51
 70
     0
102
RTVSPost2010Prop52
140
1.0
102
RTVSPost2010PropOp52
 70
     0
102
RTVSPost2010Prop53
 90
        2
102
RTVSPost2010PropOp53
 70
     1
102
RTVSPost2010Prop54
  1
strokes_ogs.tif
102
RTVSPost2010PropOp54
 70
     1
102
RTVSPost2010Prop55
280
     0
102
RTVSPost2010PropOp55
 70
     1
102
RTVSPost2010Prop56
140
1.0
102
RTVSPost2010PropOp56
 70
     1
102
RTVSPost2010Prop57
140
1.0
102
RTVSPost2010PropOp57
 70
     1
102
RTVSPropertyOp0
 70
     1
102
RTVSPropertyOp1
 70
     1
102
RTVSPropertyOp2
 70
     1
102
RTVSPropertyOp3
 70
     1
102
RTVSPropertyOp4
 70
     1
102
RTVSPropertyOp5
 70
     1
102
RTVSPropertyOp6
 70
     1
102
RTVSPropertyOp7
 70
     1
102
RTVSPropertyOp8
 70
     1
102
RTVSPropertyOp9
 70
     1
102
RTVSPropertyOp10
 70
     1
102
RTVSPropertyOp11
 70
     1
102
RTVSPropertyOp12
 70
     1
102
RTVSPropertyOp13
 70
     1
102
RTVSPropertyOp14
 70
     1
102
RTVSPropertyOp15
 70
     1
102
RTVSPropertyOp16
 70
     1
102
RTVSPropertyOp17
 70
     1
102
RTVSPropertyOp18
 70
     1
102
RTVSPropertyOp19
 70
     1
102
RTVSPropertyOp20
 70
     1
102
RTVSPropertyOp21
 70
     1
102
RTVSPropertyOp22
 70
     1
102
RTVSPropertyOp23
 70
     1
102
RTVSPropertyOp24
 70
     1
102
RTVSPropertyOp25
 70
     1
102
RTVSPropertyOp26
 70
     1
102
RTVSPropertyOp27
 70
     1
102
RTVSPropertyOp28
 70
     1
102
RTVSPropertyOp29
 70
     1
102
RTVSPropertyOp30
 70
     1
102
RTVSPropertyOp31
 70
     1
102
RTVSPropertyOp32
 70
     1
102
RTVSPropertyOp33
 70
     1
102
RTVSPropertyOp34
 70
     1
102
RTVSPropertyOp35
 70
     1
102
RTVSPropertyOp36
 70
     1
102
RTVSPropertyOp37
 70
     1
102
RTVSPropertyOp38
 70
     1
102
RTVSPropertyOp39
 70
     1
102
RTVSPropertyOp40
 70
     1
102
RTVSPropertyOp41
 70
     1
102
RTVSPropertyOp42
 70
     1
102
RTVSPropertyOp43
 70
     1
102
RTVSPropertyOp44
 70
     1
102
RTVSPropertyOp45
 70
     1
102
RTVSPropertyOp46
 70
     1
102
RTVSPropertyOp47
 70
     1
102
RTVSPropertyOp48
 70
     1
102
RTVSPropertyOp49
 70
     1
102
RTVSPropertyOp50
 70
     1
102
RTVSPropertyOp51
 70
     0
102
RTVSPropertyOp52
 70
     0
102
RTVSPropertyOp53
 70
     1
102
RTVSPropertyOp54
 70
     1
102
RTVSPropertyOp55
 70
     1
102
RTVSPropertyOp56
 70
     1
102
RTVSPropertyOp57
 70
     1
102
RTVSPropertyOp58
 70
     1
102
RTVSPropertyOp59
 70
     1
102
RTVSPropertyOp60
 70
     1
102
RTVSPropertyOp61
 70
     1
102
RTVSPropertyOp62
 70
     1
  0
XRECORD
  5
46A9
102
{ACAD_REACTORS
330
46A8
102
}
330
46A8
100
AcDbXrecord
280
     1
102
RTVSPost2010Prop28
280
     0
102
RTVSPost2010PropOp28
 70
     1
102
RTVSPost2010Prop29
280
     1
102
RTVSPost2010PropOp29
 70
     1
102
RTVSPost2010Prop30
280
     1
102
RTVSPost2010PropOp30
 70
     1
102
RTVSPost2010Prop31
280
     0
102
RTVSPost2010PropOp31
 70
     1
102
RTVSPost2010Prop32
280
     0
102
RTVSPost2010PropOp32
 70
     1
102
RTVSPost2010Prop33
280
     0
102
RTVSPost2010PropOp33
 70
     1
102
RTVSPost2010Prop34
280
     0
102
RTVSPost2010PropOp34
 70
     1
102
RTVSPost2010Prop35
280
     0
102
RTVSPost2010PropOp35
 70
     1
102
RTVSPost2010Prop36
280
     0
102
RTVSPost2010PropOp36
 70
     1
102
RTVSPost2010Prop37
 90
       50
102
RTVSPost2010PropOp37
 70
     1
102
RTVSPost2010Prop38
140
0.0
102
RTVSPost2010PropOp38
 70
     1
102
RTVSPost2010Prop39
140
1.0
102
RTVSPost2010PropOp39
 70
     1
102
RTVSPost2010Prop40
 90
        0
102
RTVSPost2010PropOp40
 70
     1
102
RTVSPost2010Prop41ColorIndex
 90
       18
102
RTVSPost2010Prop41ColorRGB
 90
        0
102
RTVSPost2010PropOp41
 70
     1
102
RTVSPost2010Prop42
 90
       50
102
RTVSPost2010PropOp42
 70
     1
102
RTVSPost2010Prop43
 90
        3
102
RTVSPost2010PropOp43
 70
     1
102
RTVSPost2010Prop44ColorIndex
 90
        5
102
RTVSPost2010Prop44ColorRGB
 90
      255
102
RTVSPost2010PropOp44
 70
     1
102
RTVSPost2010Prop45
280
     0
102
RTVSPost2010PropOp45
 70
     1
102
RTVSPost2010Prop46
 90
       50
102
RTVSPost2010PropOp46
 70
     1
102
RTVSPost2010Prop47
 90
       50
102
RTVSPost2010PropOp47
 70
     1
102
RTVSPost2010Prop48
 90
       50
102
RTVSPost2010PropOp48
 70
     1
102
RTVSPost2010Prop49
280
     0
102
RTVSPost2010PropOp49
 70
     1
102
RTVSPost2010Prop50
 90
       50
102
RTVSPost2010PropOp50
 70
     1
102
RTVSPost2010Prop51ColorIndex
 90
      256
102
RTVSPost2010Prop51ColorRGB
 90
-16777216
102
RTVSPost2010PropOp51
 70
     0
102
RTVSPost2010Prop52
140
1.0
102
RTVSPost2010PropOp52
 70
     0
102
RTVSPost2010Prop53
 90
        2
102
RTVSPost2010PropOp53
 70
     1
102
RTVSPost2010Prop54
  1
strokes_ogs.tif
102
RTVSPost2010PropOp54
 70
     1
102
RTVSPost2010Prop55
280
     0
102
RTVSPost2010PropOp55
 70
     1
102
RTVSPost2010Prop56
140
1.0
102
RTVSPost2010PropOp56
 70
     1
102
RTVSPost2010Prop57
140
1.0
102
RTVSPost2010PropOp57
 70
     1
102
RTVSPropertyOp0
 70
     1
102
RTVSPropertyOp1
 70
     1
102
RTVSPropertyOp2
 70
     1
102
RTVSPropertyOp3
 70
     1
102
RTVSPropertyOp4
 70
     1
102
RTVSPropertyOp5
 70
     1
102
RTVSPropertyOp6
 70
     1
102
RTVSPropertyOp7
 70
     1
102
RTVSPropertyOp8
 70
     1
102
RTVSPropertyOp9
 70
     1
102
RTVSPropertyOp10
 70
     1
102
RTVSPropertyOp11
 70
     1
102
RTVSPropertyOp12
 70
     1
102
RTVSPropertyOp13
 70
     1
102
RTVSPropertyOp14
 70
     1
102
RTVSPropertyOp15
 70
     1
102
RTVSPropertyOp16
 70
     1
102
RTVSPropertyOp17
 70
     1
102
RTVSPropertyOp18
 70
     1
102
RTVSPropertyOp19
 70
     1
102
RTVSPropertyOp20
 70
     1
102
RTVSPropertyOp21
 70
     1
102
RTVSPropertyOp22
 70
     1
102
RTVSPropertyOp23
 70
     1
102
RTVSPropertyOp24
 70
     1
102
RTVSPropertyOp25
 70
     1
102
RTVSPropertyOp26
 70
     1
102
RTVSPropertyOp27
 70
     1
102
RTVSPropertyOp28
 70
     1
102
RTVSPropertyOp29
 70
     1
102
RTVSPropertyOp30
 70
     1
102
RTVSPropertyOp31
 70
     1
102
RTVSPropertyOp32
 70
     1
102
RTVSPropertyOp33
 70
     1
102
RTVSPropertyOp34
 70
     1
102
RTVSPropertyOp35
 70
     1
102
RTVSPropertyOp36
 70
     1
102
RTVSPropertyOp37
 70
     1
102
RTVSPropertyOp38
 70
     1
102
RTVSPropertyOp39
 70
     1
102
RTVSPropertyOp40
 70
     1
102
RTVSPropertyOp41
 70
     1
102
RTVSPropertyOp42
 70
     1
102
RTVSPropertyOp43
 70
     1
102
RTVSPropertyOp44
 70
     1
102
RTVSPropertyOp45
 70
     1
102
RTVSPropertyOp46
 70
     1
102
RTVSPropertyOp47
 70
     1
102
RTVSPropertyOp48
 70
     1
102
RTVSPropertyOp49
 70
     1
102
RTVSPropertyOp50
 70
     1
102
RTVSPropertyOp51
 70
     0
102
RTVSPropertyOp52
 70
     0
102
RTVSPropertyOp53
 70
     1
102
RTVSPropertyOp54
 70
     1
102
RTVSPropertyOp55
 70
     1
102
RTVSPropertyOp56
 70
     1
102
RTVSPropertyOp57
 70
     1
102
RTVSPropertyOp58
 70
     1
102
RTVSPropertyOp59
 70
     1
102
RTVSPropertyOp60
 70
     1
102
RTVSPropertyOp61
 70
     1
102
RTVSPropertyOp62
 70
     1
  0
XRECORD
  5
46A3
102
{ACAD_REACTORS
330
46A2
102
}
330
46A2
100
AcDbXrecord
280
     1
102
RTVSPost2010Prop28
280
     0
102
RTVSPost2010PropOp28
 70
     1
102
RTVSPost2010Prop29
280
     1
102
RTVSPost2010PropOp29
 70
     1
102
RTVSPost2010Prop30
280
     1
102
RTVSPost2010PropOp30
 70
     1
102
RTVSPost2010Prop31
280
     0
102
RTVSPost2010PropOp31
 70
     1
102
RTVSPost2010Prop32
280
     0
102
RTVSPost2010PropOp32
 70
     1
102
RTVSPost2010Prop33
280
     0
102
RTVSPost2010PropOp33
 70
     1
102
RTVSPost2010Prop34
280
     0
102
RTVSPost2010PropOp34
 70
     1
102
RTVSPost2010Prop35
280
     0
102
RTVSPost2010PropOp35
 70
     1
102
RTVSPost2010Prop36
280
     0
102
RTVSPost2010PropOp36
 70
     1
102
RTVSPost2010Prop37
 90
       50
102
RTVSPost2010PropOp37
 70
     1
102
RTVSPost2010Prop38
140
0.0
102
RTVSPost2010PropOp38
 70
     1
102
RTVSPost2010Prop39
140
1.0
102
RTVSPost2010PropOp39
 70
     1
102
RTVSPost2010Prop40
 90
        0
102
RTVSPost2010PropOp40
 70
     1
102
RTVSPost2010Prop41ColorIndex
 90
       18
102
RTVSPost2010Prop41ColorRGB
 90
        0
102
RTVSPost2010PropOp41
 70
     1
102
RTVSPost2010Prop42
 90
       50
102
RTVSPost2010PropOp42
 70
     1
102
RTVSPost2010Prop43
 90
        3
102
RTVSPost2010PropOp43
 70
     1
102
RTVSPost2010Prop44ColorIndex
 90
        5
102
RTVSPost2010Prop44ColorRGB
 90
      255
102
RTVSPost2010PropOp44
 70
     1
102
RTVSPost2010Prop45
280
     0
102
RTVSPost2010PropOp45
 70
     1
102
RTVSPost2010Prop46
 90
       50
102
RTVSPost2010PropOp46
 70
     1
102
RTVSPost2010Prop47
 90
       50
102
RTVSPost2010PropOp47
 70
     1
102
RTVSPost2010Prop48
 90
       50
102
RTVSPost2010PropOp48
 70
     1
102
RTVSPost2010Prop49
280
     0
102
RTVSPost2010PropOp49
 70
     1
102
RTVSPost2010Prop50
 90
       50
102
RTVSPost2010PropOp50
 70
     1
102
RTVSPost2010Prop51ColorIndex
 90
      256
102
RTVSPost2010Prop51ColorRGB
 90
-16777216
102
RTVSPost2010PropOp51
 70
     0
102
RTVSPost2010Prop52
140
1.0
102
RTVSPost2010PropOp52
 70
     0
102
RTVSPost2010Prop53
 90
        2
102
RTVSPost2010PropOp53
 70
     1
102
RTVSPost2010Prop54
  1
strokes_ogs.tif
102
RTVSPost2010PropOp54
 70
     1
102
RTVSPost2010Prop55
280
     0
102
RTVSPost2010PropOp55
 70
     1
102
RTVSPost2010Prop56
140
1.0
102
RTVSPost2010PropOp56
 70
     1
102
RTVSPost2010Prop57
140
1.0
102
RTVSPost2010PropOp57
 70
     1
102
RTVSPropertyOp0
 70
     1
102
RTVSPropertyOp1
 70
     1
102
RTVSPropertyOp2
 70
     1
102
RTVSPropertyOp3
 70
     1
102
RTVSPropertyOp4
 70
     1
102
RTVSPropertyOp5
 70
     1
102
RTVSPropertyOp6
 70
     1
102
RTVSPropertyOp7
 70
     1
102
RTVSPropertyOp8
 70
     1
102
RTVSPropertyOp9
 70
     1
102
RTVSPropertyOp10
 70
     1
102
RTVSPropertyOp11
 70
     1
102
RTVSPropertyOp12
 70
     1
102
RTVSPropertyOp13
 70
     1
102
RTVSPropertyOp14
 70
     1
102
RTVSPropertyOp15
 70
     1
102
RTVSPropertyOp16
 70
     1
102
RTVSPropertyOp17
 70
     1
102
RTVSPropertyOp18
 70
     1
102
RTVSPropertyOp19
 70
     1
102
RTVSPropertyOp20
 70
     1
102
RTVSPropertyOp21
 70
     1
102
RTVSPropertyOp22
 70
     1
102
RTVSPropertyOp23
 70
     1
102
RTVSPropertyOp24
 70
     1
102
RTVSPropertyOp25
 70
     1
102
RTVSPropertyOp26
 70
     1
102
RTVSPropertyOp27
 70
     1
102
RTVSPropertyOp28
 70
     1
102
RTVSPropertyOp29
 70
     1
102
RTVSPropertyOp30
 70
     1
102
RTVSPropertyOp31
 70
     1
102
RTVSPropertyOp32
 70
     1
102
RTVSPropertyOp33
 70
     1
102
RTVSPropertyOp34
 70
     1
102
RTVSPropertyOp35
 70
     1
102
RTVSPropertyOp36
 70
     1
102
RTVSPropertyOp37
 70
     1
102
RTVSPropertyOp38
 70
     1
102
RTVSPropertyOp39
 70
     1
102
RTVSPropertyOp40
 70
     1
102
RTVSPropertyOp41
 70
     1
102
RTVSPropertyOp42
 70
     1
102
RTVSPropertyOp43
 70
     1
102
RTVSPropertyOp44
 70
     1
102
RTVSPropertyOp45
 70
     1
102
RTVSPropertyOp46
 70
     1
102
RTVSPropertyOp47
 70
     1
102
RTVSPropertyOp48
 70
     1
102
RTVSPropertyOp49
 70
     1
102
RTVSPropertyOp50
 70
     1
102
RTVSPropertyOp51
 70
     0
102
RTVSPropertyOp52
 70
     0
102
RTVSPropertyOp53
 70
     1
102
RTVSPropertyOp54
 70
     1
102
RTVSPropertyOp55
 70
     1
102
RTVSPropertyOp56
 70
     1
102
RTVSPropertyOp57
 70
     1
102
RTVSPropertyOp58
 70
     1
102
RTVSPropertyOp59
 70
     1
102
RTVSPropertyOp60
 70
     1
102
RTVSPropertyOp61
 70
     1
102
RTVSPropertyOp62
 70
     1
  0
XRECORD
  5
46A5
102
{ACAD_REACTORS
330
46A4
102
}
330
46A4
100
AcDbXrecord
280
     1
102
RTVSPost2010Prop28
280
     0
102
RTVSPost2010PropOp28
 70
     1
102
RTVSPost2010Prop29
280
     1
102
RTVSPost2010PropOp29
 70
     1
102
RTVSPost2010Prop30
280
     1
102
RTVSPost2010PropOp30
 70
     1
102
RTVSPost2010Prop31
280
     0
102
RTVSPost2010PropOp31
 70
     1
102
RTVSPost2010Prop32
280
     0
102
RTVSPost2010PropOp32
 70
     1
102
RTVSPost2010Prop33
280
     0
102
RTVSPost2010PropOp33
 70
     1
102
RTVSPost2010Prop34
280
     0
102
RTVSPost2010PropOp34
 70
     1
102
RTVSPost2010Prop35
280
     0
102
RTVSPost2010PropOp35
 70
     1
102
RTVSPost2010Prop36
280
     0
102
RTVSPost2010PropOp36
 70
     1
102
RTVSPost2010Prop37
 90
       50
102
RTVSPost2010PropOp37
 70
     1
102
RTVSPost2010Prop38
140
0.0
102
RTVSPost2010PropOp38
 70
     1
102
RTVSPost2010Prop39
140
1.0
102
RTVSPost2010PropOp39
 70
     1
102
RTVSPost2010Prop40
 90
        0
102
RTVSPost2010PropOp40
 70
     1
102
RTVSPost2010Prop41ColorIndex
 90
       18
102
RTVSPost2010Prop41ColorRGB
 90
        0
102
RTVSPost2010PropOp41
 70
     1
102
RTVSPost2010Prop42
 90
       50
102
RTVSPost2010PropOp42
 70
     1
102
RTVSPost2010Prop43
 90
        3
102
RTVSPost2010PropOp43
 70
     1
102
RTVSPost2010Prop44ColorIndex
 90
        5
102
RTVSPost2010Prop44ColorRGB
 90
      255
102
RTVSPost2010PropOp44
 70
     1
102
RTVSPost2010Prop45
280
     0
102
RTVSPost2010PropOp45
 70
     1
102
RTVSPost2010Prop46
 90
       50
102
RTVSPost2010PropOp46
 70
     1
102
RTVSPost2010Prop47
 90
       50
102
RTVSPost2010PropOp47
 70
     1
102
RTVSPost2010Prop48
 90
       50
102
RTVSPost2010PropOp48
 70
     1
102
RTVSPost2010Prop49
280
     0
102
RTVSPost2010PropOp49
 70
     1
102
RTVSPost2010Prop50
 90
       50
102
RTVSPost2010PropOp50
 70
     1
102
RTVSPost2010Prop51ColorIndex
 90
      256
102
RTVSPost2010Prop51ColorRGB
 90
-16777216
102
RTVSPost2010PropOp51
 70
     0
102
RTVSPost2010Prop52
140
1.0
102
RTVSPost2010PropOp52
 70
     0
102
RTVSPost2010Prop53
 90
        2
102
RTVSPost2010PropOp53
 70
     1
102
RTVSPost2010Prop54
  1
strokes_ogs.tif
102
RTVSPost2010PropOp54
 70
     1
102
RTVSPost2010Prop55
280
     0
102
RTVSPost2010PropOp55
 70
     1
102
RTVSPost2010Prop56
140
1.0
102
RTVSPost2010PropOp56
 70
     1
102
RTVSPost2010Prop57
140
1.0
102
RTVSPost2010PropOp57
 70
     1
102
RTVSPropertyOp0
 70
     1
102
RTVSPropertyOp1
 70
     1
102
RTVSPropertyOp2
 70
     1
102
RTVSPropertyOp3
 70
     1
102
RTVSPropertyOp4
 70
     1
102
RTVSPropertyOp5
 70
     1
102
RTVSPropertyOp6
 70
     1
102
RTVSPropertyOp7
 70
     1
102
RTVSPropertyOp8
 70
     1
102
RTVSPropertyOp9
 70
     1
102
RTVSPropertyOp10
 70
     1
102
RTVSPropertyOp11
 70
     1
102
RTVSPropertyOp12
 70
     1
102
RTVSPropertyOp13
 70
     1
102
RTVSPropertyOp14
 70
     1
102
RTVSPropertyOp15
 70
     1
102
RTVSPropertyOp16
 70
     1
102
RTVSPropertyOp17
 70
     1
102
RTVSPropertyOp18
 70
     1
102
RTVSPropertyOp19
 70
     1
102
RTVSPropertyOp20
 70
     1
102
RTVSPropertyOp21
 70
     1
102
RTVSPropertyOp22
 70
     1
102
RTVSPropertyOp23
 70
     1
102
RTVSPropertyOp24
 70
     1
102
RTVSPropertyOp25
 70
     1
102
RTVSPropertyOp26
 70
     1
102
RTVSPropertyOp27
 70
     1
102
RTVSPropertyOp28
 70
     1
102
RTVSPropertyOp29
 70
     1
102
RTVSPropertyOp30
 70
     1
102
RTVSPropertyOp31
 70
     1
102
RTVSPropertyOp32
 70
     1
102
RTVSPropertyOp33
 70
     1
102
RTVSPropertyOp34
 70
     1
102
RTVSPropertyOp35
 70
     1
102
RTVSPropertyOp36
 70
     1
102
RTVSPropertyOp37
 70
     1
102
RTVSPropertyOp38
 70
     1
102
RTVSPropertyOp39
 70
     1
102
RTVSPropertyOp40
 70
     1
102
RTVSPropertyOp41
 70
     1
102
RTVSPropertyOp42
 70
     1
102
RTVSPropertyOp43
 70
     1
102
RTVSPropertyOp44
 70
     1
102
RTVSPropertyOp45
 70
     1
102
RTVSPropertyOp46
 70
     1
102
RTVSPropertyOp47
 70
     1
102
RTVSPropertyOp48
 70
     1
102
RTVSPropertyOp49
 70
     1
102
RTVSPropertyOp50
 70
     1
102
RTVSPropertyOp51
 70
     0
102
RTVSPropertyOp52
 70
     0
102
RTVSPropertyOp53
 70
     1
102
RTVSPropertyOp54
 70
     1
102
RTVSPropertyOp55
 70
     1
102
RTVSPropertyOp56
 70
     1
102
RTVSPropertyOp57
 70
     1
102
RTVSPropertyOp58
 70
     1
102
RTVSPropertyOp59
 70
     1
102
RTVSPropertyOp60
 70
     1
102
RTVSPropertyOp61
 70
     1
102
RTVSPropertyOp62
 70
     1
  0
XRECORD
  5
4697
102
{ACAD_REACTORS
330
4696
102
}
330
4696
100
AcDbXrecord
280
     1
102
RTVSPost2010Prop28
280
     0
102
RTVSPost2010PropOp28
 70
     1
102
RTVSPost2010Prop29
280
     1
102
RTVSPost2010PropOp29
 70
     1
102
RTVSPost2010Prop30
280
     1
102
RTVSPost2010PropOp30
 70
     1
102
RTVSPost2010Prop31
280
     0
102
RTVSPost2010PropOp31
 70
     1
102
RTVSPost2010Prop32
280
     0
102
RTVSPost2010PropOp32
 70
     1
102
RTVSPost2010Prop33
280
     0
102
RTVSPost2010PropOp33
 70
     1
102
RTVSPost2010Prop34
280
     0
102
RTVSPost2010PropOp34
 70
     1
102
RTVSPost2010Prop35
280
     0
102
RTVSPost2010PropOp35
 70
     1
102
RTVSPost2010Prop36
280
     0
102
RTVSPost2010PropOp36
 70
     1
102
RTVSPost2010Prop37
 90
       50
102
RTVSPost2010PropOp37
 70
     1
102
RTVSPost2010Prop38
140
0.0
102
RTVSPost2010PropOp38
 70
     1
102
RTVSPost2010Prop39
140
1.0
102
RTVSPost2010PropOp39
 70
     1
102
RTVSPost2010Prop40
 90
        0
102
RTVSPost2010PropOp40
 70
     1
102
RTVSPost2010Prop41ColorIndex
 90
       18
102
RTVSPost2010Prop41ColorRGB
 90
        0
102
RTVSPost2010PropOp41
 70
     1
102
RTVSPost2010Prop42
 90
       50
102
RTVSPost2010PropOp42
 70
     1
102
RTVSPost2010Prop43
 90
        3
102
RTVSPost2010PropOp43
 70
     1
102
RTVSPost2010Prop44ColorIndex
 90
        5
102
RTVSPost2010Prop44ColorRGB
 90
      255
102
RTVSPost2010PropOp44
 70
     1
102
RTVSPost2010Prop45
280
     0
102
RTVSPost2010PropOp45
 70
     1
102
RTVSPost2010Prop46
 90
       50
102
RTVSPost2010PropOp46
 70
     1
102
RTVSPost2010Prop47
 90
       50
102
RTVSPost2010PropOp47
 70
     1
102
RTVSPost2010Prop48
 90
       50
102
RTVSPost2010PropOp48
 70
     1
102
RTVSPost2010Prop49
280
     0
102
RTVSPost2010PropOp49
 70
     1
102
RTVSPost2010Prop50
 90
       50
102
RTVSPost2010PropOp50
 70
     1
102
RTVSPost2010Prop51ColorIndex
 90
      256
102
RTVSPost2010Prop51ColorRGB
 90
-16777216
102
RTVSPost2010PropOp51
 70
     0
102
RTVSPost2010Prop52
140
1.0
102
RTVSPost2010PropOp52
 70
     0
102
RTVSPost2010Prop53
 90
        2
102
RTVSPost2010PropOp53
 70
     1
102
RTVSPost2010Prop54
  1
strokes_ogs.tif
102
RTVSPost2010PropOp54
 70
     1
102
RTVSPost2010Prop55
280
     0
102
RTVSPost2010PropOp55
 70
     1
102
RTVSPost2010Prop56
140
1.0
102
RTVSPost2010PropOp56
 70
     1
102
RTVSPost2010Prop57
140
1.0
102
RTVSPost2010PropOp57
 70
     1
102
RTVSPropertyOp0
 70
     1
102
RTVSPropertyOp1
 70
     1
102
RTVSPropertyOp2
 70
     1
102
RTVSPropertyOp3
 70
     1
102
RTVSPropertyOp4
 70
     1
102
RTVSPropertyOp5
 70
     1
102
RTVSPropertyOp6
 70
     1
102
RTVSPropertyOp7
 70
     1
102
RTVSPropertyOp8
 70
     1
102
RTVSPropertyOp9
 70
     1
102
RTVSPropertyOp10
 70
     1
102
RTVSPropertyOp11
 70
     1
102
RTVSPropertyOp12
 70
     1
102
RTVSPropertyOp13
 70
     1
102
RTVSPropertyOp14
 70
     1
102
RTVSPropertyOp15
 70
     1
102
RTVSPropertyOp16
 70
     1
102
RTVSPropertyOp17
 70
     1
102
RTVSPropertyOp18
 70
     1
102
RTVSPropertyOp19
 70
     1
102
RTVSPropertyOp20
 70
     1
102
RTVSPropertyOp21
 70
     1
102
RTVSPropertyOp22
 70
     1
102
RTVSPropertyOp23
 70
     1
102
RTVSPropertyOp24
 70
     1
102
RTVSPropertyOp25
 70
     1
102
RTVSPropertyOp26
 70
     1
102
RTVSPropertyOp27
 70
     1
102
RTVSPropertyOp28
 70
     1
102
RTVSPropertyOp29
 70
     1
102
RTVSPropertyOp30
 70
     1
102
RTVSPropertyOp31
 70
     1
102
RTVSPropertyOp32
 70
     1
102
RTVSPropertyOp33
 70
     1
102
RTVSPropertyOp34
 70
     1
102
RTVSPropertyOp35
 70
     1
102
RTVSPropertyOp36
 70
     1
102
RTVSPropertyOp37
 70
     1
102
RTVSPropertyOp38
 70
     1
102
RTVSPropertyOp39
 70
     1
102
RTVSPropertyOp40
 70
     1
102
RTVSPropertyOp41
 70
     1
102
RTVSPropertyOp42
 70
     1
102
RTVSPropertyOp43
 70
     1
102
RTVSPropertyOp44
 70
     1
102
RTVSPropertyOp45
 70
     1
102
RTVSPropertyOp46
 70
     1
102
RTVSPropertyOp47
 70
     1
102
RTVSPropertyOp48
 70
     1
102
RTVSPropertyOp49
 70
     1
102
RTVSPropertyOp50
 70
     1
102
RTVSPropertyOp51
 70
     0
102
RTVSPropertyOp52
 70
     0
102
RTVSPropertyOp53
 70
     1
102
RTVSPropertyOp54
 70
     1
102
RTVSPropertyOp55
 70
     1
102
RTVSPropertyOp56
 70
     1
102
RTVSPropertyOp57
 70
     1
102
RTVSPropertyOp58
 70
     1
102
RTVSPropertyOp59
 70
     1
102
RTVSPropertyOp60
 70
     1
102
RTVSPropertyOp61
 70
     1
102
RTVSPropertyOp62
 70
     1
  0
XRECORD
  5
469F
102
{ACAD_REACTORS
330
469E
102
}
330
469E
100
AcDbXrecord
280
     1
102
RTVSPost2010Prop28
280
     0
102
RTVSPost2010PropOp28
 70
     1
102
RTVSPost2010Prop29
280
     1
102
RTVSPost2010PropOp29
 70
     1
102
RTVSPost2010Prop30
280
     1
102
RTVSPost2010PropOp30
 70
     1
102
RTVSPost2010Prop31
280
     0
102
RTVSPost2010PropOp31
 70
     1
102
RTVSPost2010Prop32
280
     0
102
RTVSPost2010PropOp32
 70
     1
102
RTVSPost2010Prop33
280
     0
102
RTVSPost2010PropOp33
 70
     1
102
RTVSPost2010Prop34
280
     0
102
RTVSPost2010PropOp34
 70
     1
102
RTVSPost2010Prop35
280
     0
102
RTVSPost2010PropOp35
 70
     1
102
RTVSPost2010Prop36
280
     0
102
RTVSPost2010PropOp36
 70
     1
102
RTVSPost2010Prop37
 90
       50
102
RTVSPost2010PropOp37
 70
     1
102
RTVSPost2010Prop38
140
0.0
102
RTVSPost2010PropOp38
 70
     1
102
RTVSPost2010Prop39
140
1.0
102
RTVSPost2010PropOp39
 70
     1
102
RTVSPost2010Prop40
 90
        0
102
RTVSPost2010PropOp40
 70
     1
102
RTVSPost2010Prop41ColorIndex
 90
       18
102
RTVSPost2010Prop41ColorRGB
 90
        0
102
RTVSPost2010PropOp41
 70
     1
102
RTVSPost2010Prop42
 90
       50
102
RTVSPost2010PropOp42
 70
     1
102
RTVSPost2010Prop43
 90
        3
102
RTVSPost2010PropOp43
 70
     1
102
RTVSPost2010Prop44ColorIndex
 90
        5
102
RTVSPost2010Prop44ColorRGB
 90
      255
102
RTVSPost2010PropOp44
 70
     1
102
RTVSPost2010Prop45
280
     0
102
RTVSPost2010PropOp45
 70
     1
102
RTVSPost2010Prop46
 90
       50
102
RTVSPost2010PropOp46
 70
     1
102
RTVSPost2010Prop47
 90
       50
102
RTVSPost2010PropOp47
 70
     1
102
RTVSPost2010Prop48
 90
       50
102
RTVSPost2010PropOp48
 70
     1
102
RTVSPost2010Prop49
280
     0
102
RTVSPost2010PropOp49
 70
     1
102
RTVSPost2010Prop50
 90
       50
102
RTVSPost2010PropOp50
 70
     1
102
RTVSPost2010Prop51ColorIndex
 90
      256
102
RTVSPost2010Prop51ColorRGB
 90
-16777216
102
RTVSPost2010PropOp51
 70
     0
102
RTVSPost2010Prop52
140
1.0
102
RTVSPost2010PropOp52
 70
     0
102
RTVSPost2010Prop53
 90
        2
102
RTVSPost2010PropOp53
 70
     1
102
RTVSPost2010Prop54
  1
strokes_ogs.tif
102
RTVSPost2010PropOp54
 70
     1
102
RTVSPost2010Prop55
280
     0
102
RTVSPost2010PropOp55
 70
     1
102
RTVSPost2010Prop56
140
1.0
102
RTVSPost2010PropOp56
 70
     1
102
RTVSPost2010Prop57
140
1.0
102
RTVSPost2010PropOp57
 70
     1
102
RTVSPropertyOp0
 70
     1
102
RTVSPropertyOp1
 70
     1
102
RTVSPropertyOp2
 70
     1
102
RTVSPropertyOp3
 70
     1
102
RTVSPropertyOp4
 70
     1
102
RTVSPropertyOp5
 70
     1
102
RTVSPropertyOp6
 70
     1
102
RTVSPropertyOp7
 70
     1
102
RTVSPropertyOp8
 70
     1
102
RTVSPropertyOp9
 70
     1
102
RTVSPropertyOp10
 70
     1
102
RTVSPropertyOp11
 70
     1
102
RTVSPropertyOp12
 70
     1
102
RTVSPropertyOp13
 70
     1
102
RTVSPropertyOp14
 70
     1
102
RTVSPropertyOp15
 70
     1
102
RTVSPropertyOp16
 70
     1
102
RTVSPropertyOp17
 70
     1
102
RTVSPropertyOp18
 70
     1
102
RTVSPropertyOp19
 70
     1
102
RTVSPropertyOp20
 70
     1
102
RTVSPropertyOp21
 70
     1
102
RTVSPropertyOp22
 70
     1
102
RTVSPropertyOp23
 70
     1
102
RTVSPropertyOp24
 70
     1
102
RTVSPropertyOp25
 70
     1
102
RTVSPropertyOp26
 70
     1
102
RTVSPropertyOp27
 70
     1
102
RTVSPropertyOp28
 70
     1
102
RTVSPropertyOp29
 70
     1
102
RTVSPropertyOp30
 70
     1
102
RTVSPropertyOp31
 70
     1
102
RTVSPropertyOp32
 70
     1
102
RTVSPropertyOp33
 70
     1
102
RTVSPropertyOp34
 70
     1
102
RTVSPropertyOp35
 70
     1
102
RTVSPropertyOp36
 70
     1
102
RTVSPropertyOp37
 70
     1
102
RTVSPropertyOp38
 70
     1
102
RTVSPropertyOp39
 70
     1
102
RTVSPropertyOp40
 70
     1
102
RTVSPropertyOp41
 70
     1
102
RTVSPropertyOp42
 70
     1
102
RTVSPropertyOp43
 70
     1
102
RTVSPropertyOp44
 70
     1
102
RTVSPropertyOp45
 70
     1
102
RTVSPropertyOp46
 70
     1
102
RTVSPropertyOp47
 70
     1
102
RTVSPropertyOp48
 70
     1
102
RTVSPropertyOp49
 70
     1
102
RTVSPropertyOp50
 70
     1
102
RTVSPropertyOp51
 70
     0
102
RTVSPropertyOp52
 70
     0
102
RTVSPropertyOp53
 70
     1
102
RTVSPropertyOp54
 70
     1
102
RTVSPropertyOp55
 70
     1
102
RTVSPropertyOp56
 70
     1
102
RTVSPropertyOp57
 70
     1
102
RTVSPropertyOp58
 70
     1
102
RTVSPropertyOp59
 70
     1
102
RTVSPropertyOp60
 70
     1
102
RTVSPropertyOp61
 70
     1
102
RTVSPropertyOp62
 70
     1
  0
XRECORD
  5
46A7
102
{ACAD_REACTORS
330
46A6
102
}
330
46A6
100
AcDbXrecord
280
     1
102
RTVSPost2010Prop28
280
     0
102
RTVSPost2010PropOp28
 70
     1
102
RTVSPost2010Prop29
280
     1
102
RTVSPost2010PropOp29
 70
     1
102
RTVSPost2010Prop30
280
     1
102
RTVSPost2010PropOp30
 70
     1
102
RTVSPost2010Prop31
280
     0
102
RTVSPost2010PropOp31
 70
     1
102
RTVSPost2010Prop32
280
     0
102
RTVSPost2010PropOp32
 70
     1
102
RTVSPost2010Prop33
280
     0
102
RTVSPost2010PropOp33
 70
     1
102
RTVSPost2010Prop34
280
     0
102
RTVSPost2010PropOp34
 70
     1
102
RTVSPost2010Prop35
280
     0
102
RTVSPost2010PropOp35
 70
     1
102
RTVSPost2010Prop36
280
     0
102
RTVSPost2010PropOp36
 70
     1
102
RTVSPost2010Prop37
 90
       50
102
RTVSPost2010PropOp37
 70
     1
102
RTVSPost2010Prop38
140
0.0
102
RTVSPost2010PropOp38
 70
     1
102
RTVSPost2010Prop39
140
1.0
102
RTVSPost2010PropOp39
 70
     1
102
RTVSPost2010Prop40
 90
        0
102
RTVSPost2010PropOp40
 70
     1
102
RTVSPost2010Prop41ColorIndex
 90
       18
102
RTVSPost2010Prop41ColorRGB
 90
        0
102
RTVSPost2010PropOp41
 70
     1
102
RTVSPost2010Prop42
 90
       50
102
RTVSPost2010PropOp42
 70
     1
102
RTVSPost2010Prop43
 90
        3
102
RTVSPost2010PropOp43
 70
     1
102
RTVSPost2010Prop44ColorIndex
 90
        5
102
RTVSPost2010Prop44ColorRGB
 90
      255
102
RTVSPost2010PropOp44
 70
     1
102
RTVSPost2010Prop45
280
     0
102
RTVSPost2010PropOp45
 70
     1
102
RTVSPost2010Prop46
 90
       50
102
RTVSPost2010PropOp46
 70
     1
102
RTVSPost2010Prop47
 90
       50
102
RTVSPost2010PropOp47
 70
     1
102
RTVSPost2010Prop48
 90
       50
102
RTVSPost2010PropOp48
 70
     1
102
RTVSPost2010Prop49
280
     0
102
RTVSPost2010PropOp49
 70
     1
102
RTVSPost2010Prop50
 90
       50
102
RTVSPost2010PropOp50
 70
     1
102
RTVSPost2010Prop51ColorIndex
 90
      256
102
RTVSPost2010Prop51ColorRGB
 90
-16777216
102
RTVSPost2010PropOp51
 70
     0
102
RTVSPost2010Prop52
140
1.0
102
RTVSPost2010PropOp52
 70
     0
102
RTVSPost2010Prop53
 90
        2
102
RTVSPost2010PropOp53
 70
     1
102
RTVSPost2010Prop54
  1
strokes_ogs.tif
102
RTVSPost2010PropOp54
 70
     1
102
RTVSPost2010Prop55
280
     0
102
RTVSPost2010PropOp55
 70
     1
102
RTVSPost2010Prop56
140
1.0
102
RTVSPost2010PropOp56
 70
     1
102
RTVSPost2010Prop57
140
1.0
102
RTVSPost2010PropOp57
 70
     1
102
RTVSPropertyOp0
 70
     1
102
RTVSPropertyOp1
 70
     1
102
RTVSPropertyOp2
 70
     1
102
RTVSPropertyOp3
 70
     1
102
RTVSPropertyOp4
 70
     1
102
RTVSPropertyOp5
 70
     1
102
RTVSPropertyOp6
 70
     1
102
RTVSPropertyOp7
 70
     1
102
RTVSPropertyOp8
 70
     1
102
RTVSPropertyOp9
 70
     1
102
RTVSPropertyOp10
 70
     1
102
RTVSPropertyOp11
 70
     1
102
RTVSPropertyOp12
 70
     1
102
RTVSPropertyOp13
 70
     1
102
RTVSPropertyOp14
 70
     1
102
RTVSPropertyOp15
 70
     1
102
RTVSPropertyOp16
 70
     1
102
RTVSPropertyOp17
 70
     1
102
RTVSPropertyOp18
 70
     1
102
RTVSPropertyOp19
 70
     1
102
RTVSPropertyOp20
 70
     1
102
RTVSPropertyOp21
 70
     1
102
RTVSPropertyOp22
 70
     1
102
RTVSPropertyOp23
 70
     1
102
RTVSPropertyOp24
 70
     1
102
RTVSPropertyOp25
 70
     1
102
RTVSPropertyOp26
 70
     1
102
RTVSPropertyOp27
 70
     1
102
RTVSPropertyOp28
 70
     1
102
RTVSPropertyOp29
 70
     1
102
RTVSPropertyOp30
 70
     1
102
RTVSPropertyOp31
 70
     1
102
RTVSPropertyOp32
 70
     1
102
RTVSPropertyOp33
 70
     1
102
RTVSPropertyOp34
 70
     1
102
RTVSPropertyOp35
 70
     1
102
RTVSPropertyOp36
 70
     1
102
RTVSPropertyOp37
 70
     1
102
RTVSPropertyOp38
 70
     1
102
RTVSPropertyOp39
 70
     1
102
RTVSPropertyOp40
 70
     1
102
RTVSPropertyOp41
 70
     1
102
RTVSPropertyOp42
 70
     1
102
RTVSPropertyOp43
 70
     1
102
RTVSPropertyOp44
 70
     1
102
RTVSPropertyOp45
 70
     1
102
RTVSPropertyOp46
 70
     1
102
RTVSPropertyOp47
 70
     1
102
RTVSPropertyOp48
 70
     1
102
RTVSPropertyOp49
 70
     1
102
RTVSPropertyOp50
 70
     1
102
RTVSPropertyOp51
 70
     0
102
RTVSPropertyOp52
 70
     0
102
RTVSPropertyOp53
 70
     1
102
RTVSPropertyOp54
 70
     1
102
RTVSPropertyOp55
 70
     1
102
RTVSPropertyOp56
 70
     1
102
RTVSPropertyOp57
 70
     1
102
RTVSPropertyOp58
 70
     1
102
RTVSPropertyOp59
 70
     1
102
RTVSPropertyOp60
 70
     1
102
RTVSPropertyOp61
 70
     1
102
RTVSPropertyOp62
 70
     1
  0
ENDSEC
  0
EOF
