  0
SECTION
  2
HEADER
  9
$ACADVER
  1
AC1015
  9
$ACADMAINTVER
 70
    20
  9
$DWGCODEPAGE
  3
ANSI_1252
  9
$INSBASE
 10
0.0
 20
0.0
 30
0.0
  9
$EXTMIN
 10
22.70501037823286
 20
-2.462672208700644
 30
-0.062
  9
$EXTMAX
 10
26.50920445847795
 20
0.0282334003833762
 30
0.0
  9
$LIMMIN
 10
0.0
 20
0.0
  9
$LIMMAX
 10
12.0
 20
9.0
  9
$ORTHOMODE
 70
     1
  9
$REGENMODE
 70
     1
  9
$FILLMODE
 70
     1
  9
$QTEXTMODE
 70
     0
  9
$MIRRTEXT
 70
     0
  9
$LTSCALE
 40
1.0
  9
$ATTMODE
 70
     1
  9
$TEXTSIZE
 40
0.2
  9
$TRACEWID
 40
0.05
  9
$TEXTSTYLE
  7
Standard
  9
$CLAYER
  8
0
  9
$CELTYPE
  6
ByLayer
  9
$CECOLOR
 62
   256
  9
$CELTSCALE
 40
1.0
  9
$DISPSILH
 70
     0
  9
$DIMSCALE
 40
1.0
  9
$DIMASZ
 40
0.125
  9
$DIMEXO
 40
0.0625
  9
$DIMDLI
 40
0.38
  9
$DIMRND
 40
0.0
  9
$DIMDLE
 40
0.0
  9
$DIMEXE
 40
0.08
  9
$DIMTP
 40
0.0
  9
$DIMTM
 40
0.0
  9
$DIMTXT
 40
0.09
  9
$DIMCEN
 40
0.09
  9
$DIMTSZ
 40
0.0
  9
$DIMTOL
 70
     0
  9
$DIMLIM
 70
     0
  9
$DIMTIH
 70
     1
  9
$DIMTOH
 70
     1
  9
$DIMSE1
 70
     0
  9
$DIMSE2
 70
     0
  9
$DIMTAD
 70
     0
  9
$DIMZIN
 70
     4
  9
$DIMBLK
  1

  9
$DIMASO
 70
     1
  9
$DIMSHO
 70
     1
  9
$DIMPOST
  1

  9
$DIMAPOST
  1

  9
$DIMALT
 70
     0
  9
$DIMALTD
 70
     2
  9
$DIMALTF
 40
25.4
  9
$DIMLFAC
 40
1.0
  9
$DIMTOFL
 70
     0
  9
$DIMTVP
 40
0.0
  9
$DIMTIX
 70
     0
  9
$DIMSOXD
 70
     0
  9
$DIMSAH
 70
     0
  9
$DIMBLK1
  1

  9
$DIMBLK2
  1

  9
$DIMSTYLE
  2
3 Decimal Places
  9
$DIMCLRD
 70
   256
  9
$DIMCLRE
 70
   256
  9
$DIMCLRT
 70
   256
  9
$DIMTFAC
 40
1.0
  9
$DIMGAP
 40
0.09
  9
$DIMJUST
 70
     0
  9
$DIMSD1
 70
     0
  9
$DIMSD2
 70
     0
  9
$DIMTOLJ
 70
     1
  9
$DIMTZIN
 70
     4
  9
$DIMALTZ
 70
     4
  9
$DIMALTTZ
 70
     4
  9
$DIMUPT
 70
     0
  9
$DIMDEC
 70
     3
  9
$DIMTDEC
 70
     3
  9
$DIMALTU
 70
     2
  9
$DIMALTTD
 70
     2
  9
$DIMTXSTY
  7
ROMANS
  9
$DIMAUNIT
 70
     0
  9
$DIMADEC
 70
     0
  9
$DIMALTRND
 40
0.0
  9
$DIMAZIN
 70
     0
  9
$DIMDSEP
 70
    46
  9
$DIMATFIT
 70
     3
  9
$DIMFRAC
 70
     0
  9
$DIMLDRBLK
  1

  9
$DIMLUNIT
 70
     2
  9
$DIMLWD
 70
    -1
  9
$DIMLWE
 70
    -1
  9
$DIMTMOVE
 70
     0
  9
$LUNITS
 70
     2
  9
$LUPREC
 70
     4
  9
$SKETCHINC
 40
0.1
  9
$FILLETRAD
 40
0.5
  9
$AUNITS
 70
     0
  9
$AUPREC
 70
     0
  9
$MENU
  1
.
  9
$ELEVATION
 40
0.0
  9
$PELEVATION
 40
0.0
  9
$THICKNESS
 40
0.0
  9
$LIMCHECK
 70
     0
  9
$CHAMFERA
 40
0.5
  9
$CHAMFERB
 40
0.5
  9
$CHAMFERC
 40
1.0
  9
$CHAMFERD
 40
0.0
  9
$SKPOLY
 70
     0
  9
$TDCREATE
 40
2454494.837450614
  9
$TDUCREATE
 40
2454495.004117280
  9
$TDUPDATE
 40
2456905.702485012
  9
$TDUUPDATE
 40
2456905.869151678
  9
$TDINDWG
 40
0.3570558681
  9
$TDUSRTIMER
 40
0.3570556944
  9
$USRTIMER
 70
     1
  9
$ANGBASE
 50
0.0
  9
$ANGDIR
 70
     0
  9
$PDMODE
 70
     0
  9
$PDSIZE
 40
0.0
  9
$PLINEWID
 40
0.0
  9
$SPLFRAME
 70
     0
  9
$SPLINETYPE
 70
     6
  9
$SPLINESEGS
 70
     8
  9
$HANDSEED
  5
9016
  9
$SURFTAB1
 70
     6
  9
$SURFTAB2
 70
     6
  9
$SURFTYPE
 70
     6
  9
$SURFU
 70
     6
  9
$SURFV
 70
     6
  9
$UCSBASE
  2

  9
$UCSNAME
  2

  9
$UCSORG
 10
0.0
 20
0.0
 30
0.0
  9
$UCSXDIR
 10
1.0
 20
0.0
 30
0.0
  9
$UCSYDIR
 10
0.0
 20
1.0
 30
0.0
  9
$UCSORTHOREF
  2

  9
$UCSORTHOVIEW
 70
     0
  9
$UCSORGTOP
 10
0.0
 20
0.0
 30
0.0
  9
$UCSORGBOTTOM
 10
0.0
 20
0.0
 30
0.0
  9
$UCSORGLEFT
 10
0.0
 20
0.0
 30
0.0
  9
$UCSORGRIGHT
 10
0.0
 20
0.0
 30
0.0
  9
$UCSORGFRONT
 10
0.0
 20
0.0
 30
0.0
  9
$UCSORGBACK
 10
0.0
 20
0.0
 30
0.0
  9
$PUCSBASE
  2

  9
$PUCSNAME
  2

  9
$PUCSORG
 10
0.0
 20
0.0
 30
0.0
  9
$PUCSXDIR
 10
1.0
 20
0.0
 30
0.0
  9
$PUCSYDIR
 10
0.0
 20
1.0
 30
0.0
  9
$PUCSORTHOREF
  2

  9
$PUCSORTHOVIEW
 70
     0
  9
$PUCSORGTOP
 10
0.0
 20
0.0
 30
0.0
  9
$PUCSORGBOTTOM
 10
0.0
 20
0.0
 30
0.0
  9
$PUCSORGLEFT
 10
0.0
 20
0.0
 30
0.0
  9
$PUCSORGRIGHT
 10
0.0
 20
0.0
 30
0.0
  9
$PUCSORGFRONT
 10
0.0
 20
0.0
 30
0.0
  9
$PUCSORGBACK
 10
0.0
 20
0.0
 30
0.0
  9
$USERI1
 70
     0
  9
$USERI2
 70
     0
  9
$USERI3
 70
     0
  9
$USERI4
 70
     0
  9
$USERI5
 70
     0
  9
$USERR1
 40
0.0
  9
$USERR2
 40
0.0
  9
$USERR3
 40
0.0
  9
$USERR4
 40
0.0
  9
$USERR5
 40
0.0
  9
$WORLDVIEW
 70
     1
  9
$SHADEDGE
 70
     3
  9
$SHADEDIF
 70
    70
  9
$TILEMODE
 70
     1
  9
$MAXACTVP
 70
    64
  9
$PINSBASE
 10
0.0
 20
0.0
 30
0.0
  9
$PLIMCHECK
 70
     0
  9
$PEXTMIN
 10
1.000000000000000E+20
 20
1.000000000000000E+20
 30
1.000000000000000E+20
  9
$PEXTMAX
 10
-1.000000000000000E+20
 20
-1.000000000000000E+20
 30
-1.000000000000000E+20
  9
$PLIMMIN
 10
0.0
 20
0.0
  9
$PLIMMAX
 10
12.0
 20
9.0
  9
$UNITMODE
 70
     0
  9
$VISRETAIN
 70
     1
  9
$PLINEGEN
 70
     0
  9
$PSLTSCALE
 70
     1
  9
$TREEDEPTH
 70
  3020
  9
$CMLSTYLE
  2
Standard
  9
$CMLJUST
 70
     0
  9
$CMLSCALE
 40
1.0
  9
$PROXYGRAPHICS
 70
     1
  9
$MEASUREMENT
 70
     0
  9
$CELWEIGHT
370
    -1
  9
$ENDCAPS
280
     0
  9
$JOINSTYLE
280
     0
  9
$LWDISPLAY
290
     0
  9
$INSUNITS
 70
     1
  9
$HYPERLINKBASE
  1

  9
$STYLESHEET
  1
MONOCHROME.CTB
  9
$XEDIT
290
     1
  9
$CEPSNTYPE
380
     0
  9
$PSTYLEMODE
290
     1
  9
$FINGERPRINTGUID
  2
{1EFF4B40-43D6-4315-84AB-46688295E3F0}
  9
$VERSIONGUID
  2
{8FDD43A3-E540-4E68-A5D6-5D7B300DC6EA}
  9
$EXTNAMES
290
     1
  9
$PSVPSCALE
 40
0.0
  9
$OLESTARTUP
290
     0
  0
ENDSEC
  0
SECTION
  2
CLASSES
  0
CLASS
  1
ACDBDICTIONARYWDFLT
  2
AcDbDictionaryWithDefault
  3
ObjectDBX Classes
 90
        0
280
     0
281
     0
  0
CLASS
  1
ACDBPLACEHOLDER
  2
AcDbPlaceHolder
  3
ObjectDBX Classes
 90
        0
280
     0
281
     0
  0
CLASS
  1
LAYOUT
  2
AcDbLayout
  3
ObjectDBX Classes
 90
        0
280
     0
281
     0
  0
CLASS
  1
SORTENTSTABLE
  2
AcDbSortentsTable
  3
ObjectDBX Classes
 90
        0
280
     0
281
     0
  0
CLASS
  1
DIMASSOC
  2
AcDbDimAssoc
  3
"AcDbDimAssoc|Product Desc:     AcDim ARX App For Dimension|Company:          Autodesk, Inc.|WEB Address:      www.autodesk.com"
 90
    32768
280
     0
281
     0
  0
CLASS
  1
DICTIONARYVAR
  2
AcDbDictionaryVar
  3
ObjectDBX Classes
 90
        0
280
     0
281
     0
  0
CLASS
  1
MATERIAL
  2
AcDbMaterial
  3
ObjectDBX Classes
 90
     1153
280
     0
281
     0
  0
CLASS
  1
VISUALSTYLE
  2
AcDbVisualStyle
  3
ObjectDBX Classes
 90
     4095
280
     0
281
     0
  0
CLASS
  1
TABLESTYLE
  2
AcDbTableStyle
  3
ObjectDBX Classes
 90
     4095
280
     0
281
     0
  0
CLASS
  1
SCALE
  2
AcDbScale
  3
ObjectDBX Classes
 90
     1153
280
     0
281
     0
  0
CLASS
  1
MLEADERSTYLE
  2
AcDbMLeaderStyle
  3
ACDB_MLEADERSTYLE_CLASS
 90
     4095
280
     0
281
     0
  0
CLASS
  1
ACME_DOCUMENT
  2
AcMeDbDoc
  3
AcMeServices
 90
     1024
280
     0
281
     0
  0
CLASS
  1
AMGSETTINGSOBJ
  2
AmgSettingsObj
  3
"AcadM|Product Description: AutoCAD Mechanical|Company: Autodesk, Inc."
 90
     1024
280
     0
281
     0
  0
CLASS
  1
ACMESCOPE
  2
AcMeScope
  3
AcMeServices
 90
     1024
280
     0
281
     0
  0
CLASS
  1
ACMECOMMANDHISTORY
  2
AcMeCommandHistory
  3
AcMeServices
 90
     1024
280
     0
281
     0
  0
CLASS
  1
ACIMSYSVARMAN
  2
AcImSysVarManager
  3
AcMeServices
 90
     1024
280
     0
281
     0
  0
CLASS
  1
ACIMINTSYSVAR
  2
AcImIntSysVar
  3
AcMeServices
 90
     1024
280
     0
281
     0
  0
CLASS
  1
ACMEDRAWINGMAN
  2
AcMeDrawingMan
  3
AcMeServices
 90
    33792
280
     0
281
     0
  0
CLASS
  1
ACMEVIEW
  2
AcMeView
  3
AcMeServices
 90
    33792
280
     0
281
     0
  0
CLASS
  1
ACDBENTITYCACHE
  2
AcMeEntityCache
  3
AcMeServices
 90
     1024
280
     0
281
     0
  0
CLASS
  1
GSMANAGER
  2
AcMeGSManager
  3
AcMeServices
 90
    33792
280
     0
281
     0
  0
CLASS
  1
AMDTINTERNALREACTOR
  2
AmdtInternalReactor
  3
AcMeServices
 90
    33792
280
     0
281
     0
  0
CLASS
  1
ACMESTATEMGR
  2
AcMeStateMgr
  3
AcMeServices
 90
     1024
280
     0
281
     0
  0
CLASS
  1
ACGREFMASTER
  2
AcGrefMaster
  3
AcAttribServices
 90
     1024
280
     0
281
     0
  0
CLASS
  1
AM_DRAWING_MGR
  2
AcDmDwgMgr
  3
AcMechDwgViewMgmt
 90
    33792
280
     0
281
     0
  0
CLASS
  1
AM_DWG_DOCUMENT
  2
AcDmDwgDocument
  3
AcMechDwgViewMgmt
 90
    33792
280
     0
281
     0
  0
CLASS
  1
AM_DWG_SHEET
  2
AcDmSheet
  3
AcMechDwgViewMgmt
 90
    33792
280
     0
281
     0
  0
CLASS
  1
AM_VIEWDIMPARMAP
  2
AcDmViewDimParMap
  3
AcMechDwgViewMgmt
 90
    33792
280
     0
281
     0
  0
CLASS
  1
ACIMREALSYSVAR
  2
AcImRealSysVar
  3
AcMeServices
 90
    33792
280
     0
281
     0
  0
CLASS
  1
AM_DWGMGR_NAME
  2
AcDmDwgMgrName
  3
AcMechDwgViewMgmt
 90
    33792
280
     0
281
     0
  0
CLASS
  1
ACME_DATABASE
  2
AcMeDbDatabase
  3
AcMeServices
 90
     1024
280
     0
281
     0
  0
CLASS
  1
ACRFINSADJUSTERMGR
  2
AcRfInsAdjusterMgr
  3
AcMeServices
 90
     1024
280
     0
281
     0
  0
CLASS
  1
ACGREFACADMASTER
  2
AcGrefacadMaster
  3
AcGrefServices
 90
     1024
280
     0
281
     0
  0
CLASS
  1
AMDTMENUSTATEMGR
  2
AmdtMenuStateMgr
  3
McadcomServices
 90
     1024
280
     0
281
     0
  0
CLASS
  1
AMDTMCOMMENUSTATE
  2
AmdtMcomMenuState
  3
McadcomServices
 90
     1024
280
     0
281
     0
  0
CLASS
  1
AMIMASTER
  2
AmiMaster
  3
AmiServices
 90
     1024
280
     0
281
     0
  0
CLASS
  1
MAPIAMMOUDLE
  2
MApiAmModule
  3
MApiAmServices
 90
     1024
280
     0
281
     0
  0
CLASS
  1
ACIMSTRSYSVAR
  2
AcImStrSysVar
  3
AcMeServices
 90
     1024
280
     0
281
     0
  0
CLASS
  1
AMDTADMENUSTATE
  2
AmdtAdMenuState
  3
DesignerServices
 90
    33792
280
     0
281
     0
  0
CLASS
  1
ADAPPL
  2
AcAdAppl
  3
DesignerAssemblies
 90
    33792
280
     0
281
     0
  0
CLASS
  1
DEPMGR
  2
AcAdDepMgr
  3
DesignerAssemblies
 90
    33792
280
     0
281
     0
  0
CLASS
  1
PARAMMGR
  2
AcAdParamMgr
  3
DesignerAssemblies
 90
    33792
280
     0
281
     0
  0
CLASS
  1
PARAMSCOPE
  2
AcAdParamScope
  3
DesignerAssemblies
 90
    33792
280
     0
281
     0
  0
CLASS
  1
NAMEDAPPL
  2
AcAdNamedAppl
  3
DesignerAssemblies
 90
    33792
280
     0
281
     0
  0
CLASS
  1
AMDTDMMENUSTATE
  2
AmdtDmMenuState
  3
AcMechDwgViewMgmt
 90
    33792
280
     0
281
     0
  0
CLASS
  1
AMDTAMMENUSTATE
  2
AmdtAmMenuState
  3
DesignerAssemblies
 90
     1024
280
     0
281
     0
  0
CLASS
  1
ACAMPROJECT
  2
AcAmProject
  3
DesignerAssemblies
 90
     1024
280
     0
281
     0
  0
CLASS
  1
ACAMGRCOMPDEF
  2
AcAmGrCompDef
  3
DesignerAssemblies
 90
     1024
280
     0
281
     0
  0
CLASS
  1
ACCMCONTEXT
  2
AcCmContext
  3
DesignerAssemblies
 90
    33792
280
     0
281
     0
  0
CLASS
  1
ACAMCOMPDEF
  2
AcAmCompDef
  3
DesignerAssemblies
 90
     1024
280
     0
281
     0
  0
CLASS
  1
ACAMCOMPDEFMGR
  2
AcAmCompDefMgr
  3
DesignerAssemblies
 90
     1024
280
     0
281
     0
  0
CLASS
  1
AMCONTEXTMGR
  2
AcAmContextMgr
  3
DesignerAssemblies
 90
     1024
280
     0
281
     0
  0
CLASS
  1
ACAMCONTEXTMODELER
  2
AcAmContextModeler
  3
DesignerAssemblies
 90
     1024
280
     0
281
     0
  0
CLASS
  1
ACMDATADICTIONARY
  2
AcmDataDictionary
  3
"AcmSymBB|Product Description: AutoCAD Mechanical|Company: Autodesk, Inc."
 90
     1024
280
     0
281
     0
  0
CLASS
  1
CATALOGSTATE
  2
AcAmCatalogState
  3
DesignerAssemblies
 90
    33792
280
     0
281
     0
  0
CLASS
  1
ACAMGRCOMPDEFSET
  2
AcAmGrCompDefSet
  3
DesignerAssemblies
 90
     1024
280
     0
281
     0
  0
CLASS
  1
AMDTBROWSERDBTAB
  2
AmdtBrowserDbTab
  3
McadcomServices
 90
     1024
280
     0
281
     0
  0
CLASS
  1
CBROWSERAPPOBJECT
  2
CBrowserAppObject
  3
McadcomServices
 90
     1024
280
     0
281
     0
  0
CLASS
  1
DM_PLACEHOLDER
  2
AcDmSelsetPlaceholder
  3
McadcomServices
 90
     1024
280
     0
281
     0
  0
CLASS
  1
ACMSTANDARDANSI
  2
AcmStandardANSI
  3
"Amdt_StdImp|Product Description: AutoCAD Mechanical|Company: Autodesk, Inc."
 90
     1024
280
     0
281
     0
  0
CLASS
  1
AMGOBJPROPCFG
  2
AmgObjPropCfg
  3
"AmgLay|Product Description: AutoCAD Mechanical|Company: Autodesk, Inc."
 90
     1024
280
     0
281
     0
  0
CLASS
  1
ACMSURFSTANDARDANSI
  2
AcmSurfTextStdANSI
  3
"Amdt_StdImp|Product Description: AutoCAD Mechanical|Company: Autodesk, Inc."
 90
     1024
280
     0
281
     0
  0
CLASS
  1
ACMFCFSTANDARDANSI
  2
AcmFCFStdANSI
  3
"Amdt_StdImp|Product Description: AutoCAD Mechanical|Company: Autodesk, Inc."
 90
     1024
280
     0
281
     0
  0
CLASS
  1
ACMWELDSTANDARDANSI
  2
AcmWeldingStdANSI
  3
"Amdt_StdImp|Product Description: AutoCAD Mechanical|Company: Autodesk, Inc."
 90
     1024
280
     0
281
     0
  0
CLASS
  1
ACMIDSTANDARDANSI
  2
AcmIdStdANSI
  3
"Amdt_StdImp|Product Description: AutoCAD Mechanical|Company: Autodesk, Inc."
 90
     1024
280
     0
281
     0
  0
CLASS
  1
ACMDATUMSTANDARDANSI
  2
AcmDatumStdANSI
  3
"Amdt_StdImp|Product Description: AutoCAD Mechanical|Company: Autodesk, Inc."
 90
     1024
280
     0
281
     0
  0
CLASS
  1
ACMBOMSTANDARDANSI
  2
AcmBOMStdANSI
  3
"Amdt_StdImp|Product Description: AutoCAD Mechanical|Company: Autodesk, Inc."
 90
     1024
280
     0
281
     0
  0
CLASS
  1
ACMDETAILSTANDARDANSI
  2
AmdtDetailSymStdANSI
  3
"Amdt_StdImp|Product Description: AutoCAD Mechanical|Company: Autodesk, Inc."
 90
     1024
280
     0
281
     0
  0
CLASS
  1
ACMSECTIONSTANDARDANSI
  2
AmdtSectionSymStdANSI
  3
"Amdt_StdImp|Product Description: AutoCAD Mechanical|Company: Autodesk, Inc."
 90
     1024
280
     0
281
     0
  0
CLASS
  1
ACMCENTERLINESTANDARDANSI
  2
AmdtCenterLineStdANSI
  3
"Amdt_StdImp|Product Description: AutoCAD Mechanical|Company: Autodesk, Inc."
 90
     1024
280
     0
281
     0
  0
CLASS
  1
ACMTHREADLINESTANDARDANSI
  2
AmdtThreadLineStdANSI
  3
"Amdt_StdImp|Product Description: AutoCAD Mechanical|Company: Autodesk, Inc."
 90
     1024
280
     0
281
     0
  0
CLASS
  1
ACMNOTESTANDARDANSI
  2
AmdtNoteStdANSI
  3
"Amdt_StdImp|Product Description: AutoCAD Mechanical|Company: Autodesk, Inc."
 90
     1024
280
     0
281
     0
  0
CLASS
  1
ACMTAPERSTANDARDANSI
  2
AcmTaperStdANSI
  3
"Amdt_StdImp|Product Description: AutoCAD Mechanical|Company: Autodesk, Inc."
 90
     1024
280
     0
281
     0
  0
CLASS
  1
ACMANOOTATIONVIEWSTANDARDANSI
  2
AmdtAnViewStdANSI
  3
"Amdt_StdImp|Product Description: AutoCAD Mechanical|Company: Autodesk, Inc."
 90
     1024
280
     0
281
     0
  0
CLASS
  1
AMDTNOTETEMPLATEDB
  2
AmdtNoteTemplateDB
  3
AcmSymBB|Product Description: AutoCAD Mechanical|Company: Autodesk, Inc.
 90
     1024
280
     0
281
     0
  0
CLASS
  1
ACAMGLAYSTD
  2
AcAmgLayStd
  3
"AmgLay|Product Description: AutoCAD Mechanical|Company: Autodesk, Inc."
 90
     1024
280
     0
281
     0
  0
CLASS
  1
ACAMGDIMSTD
  2
AcAmgDimStd
  3
"AmgDim|Product Description: AutoCAD Mechanical|Company: Autodesk, Inc."
 90
     1024
280
     0
281
     0
  0
CLASS
  1
ACAMGHOLECHARTSTDANSI
  2
AcAmgHoleChartStdANSI
  3
AmgDim|Product Description: AutoCAD Mechanical|Company: Autodesk, Inc.
 90
     1024
280
     0
281
     0
  0
CLASS
  1
ACAMGTITLESTD
  2
AcAmgTitleStd
  3
"AmgTitle|Product Description: AutoCAD Mechanical|Company: Autodesk, Inc."
 90
     1024
280
     0
281
     0
  0
CLASS
  1
ACAMGFILTERDAT
  2
AcAmgFilterDat
  3
"AcadM|Product Description: AutoCAD Mechanical|Company: Autodesk, Inc."
 90
    33792
280
     0
281
     0
  0
CLASS
  1
CELLSTYLEMAP
  2
AcDbCellStyleMap
  3
ObjectDBX Classes
 90
     1152
280
     0
281
     0
  0
CLASS
  1
SOLID_BACKGROUND
  2
AcDbSolidBackground
  3
SCENEOE
 90
    36863
280
     0
281
     0
  0
CLASS
  1
NPOCOLLECTION
  2
AcDbImpNonPersistentObjectsCollection
  3
ObjectDBX Classes
 90
    33921
280
     0
281
     0
  0
CLASS
  1
ACDBSECTIONVIEWSTYLE
  2
AcDbSectionViewStyle
  3
ObjectDBX Classes
 90
     1025
280
     0
281
     0
  0
CLASS
  1
ACDBDETAILVIEWSTYLE
  2
AcDbDetailViewStyle
  3
ObjectDBX Classes
 90
     1025
280
     0
281
     0
  0
ENDSEC
  0
SECTION
  2
TABLES
  0
TABLE
  2
VPORT
  5
26
102
{ACAD_XDICTIONARY
360
2A
102
}
330
0
100
AcDbSymbolTable
 70
     1
  0
VPORT
  5
27
330
26
100
AcDbSymbolTableRecord
100
AcDbViewportTableRecord
  2
*Active
 70
     0
 10
0.0
 20
0.0
 11
1.0
 21
1.0
 12
25.09286123835035
 22
-1.465402297894162
 13
0.0
 23
0.0
 14
0.5
 24
0.5
 15
0.5
 25
0.5
 16
0.0
 26
0.0
 36
1.0
 17
0.0
 27
0.0
 37
0.0
 40
3.35463371166543
 41
2.035582822085889
 42
50.0
 43
0.0
 44
0.0
 50
0.0
 51
0.0
 71
     0
 72
   100
 73
     1
 74
     3
 75
     0
 76
     0
 77
     0
 78
     0
281
     0
 65
     0
110
0.0
120
0.0
130
0.0
111
1.0
121
0.0
131
0.0
112
0.0
122
1.0
132
0.0
 79
     0
146
0.0
1001
ACAD_NAV_VCDISPLAY
1070
     3
  0
ENDTAB
  0
TABLE
  2
LTYPE
  5
21
330
0
100
AcDbSymbolTable
 70
    17
  0
LTYPE
  5
22
330
21
100
AcDbSymbolTableRecord
100
AcDbLinetypeTableRecord
  2
ByBlock
 70
     0
  3

 72
    65
 73
     0
 40
0.0
  0
LTYPE
  5
23
330
21
100
AcDbSymbolTableRecord
100
AcDbLinetypeTableRecord
  2
ByLayer
 70
     0
  3

 72
    65
 73
     0
 40
0.0
  0
LTYPE
  5
1B
330
21
100
AcDbSymbolTableRecord
100
AcDbLinetypeTableRecord
  2
Continuous
 70
     0
  3
Solid line
 72
    65
 73
     0
 40
0.0
  0
LTYPE
  5
1AB
330
21
100
AcDbSymbolTableRecord
100
AcDbLinetypeTableRecord
  2
HIDDEN
 70
     0
  3
Hidden __ __ __ __ __ __ __ __ __ __ __ __ __ _
 72
    65
 73
     2
 40
0.375
 49
0.25
 74
     0
 49
-0.125
 74
     0
  0
LTYPE
  5
1AD
330
21
100
AcDbSymbolTableRecord
100
AcDbLinetypeTableRecord
  2
PHANTOM2
 70
     0
  3
Phantom (.5x) ___ _ _ ___ _ _ ___ _ _ ___ _ _
 72
    65
 73
     6
 40
1.25
 49
0.625
 74
     0
 49
-0.125
 74
     0
 49
0.125
 74
     0
 49
-0.125
 74
     0
 49
0.125
 74
     0
 49
-0.125
 74
     0
  0
LTYPE
  5
1AC
330
21
100
AcDbSymbolTableRecord
100
AcDbLinetypeTableRecord
  2
CENTER
 70
     0
  3
Center ____ _ ____ _ ____ _ ____ _ ____ _ ____
 72
    65
 73
     4
 40
2.0
 49
1.25
 74
     0
 49
-0.25
 74
     0
 49
0.25
 74
     0
 49
-0.25
 74
     0
  0
LTYPE
  5
1AE
330
21
100
AcDbSymbolTableRecord
100
AcDbLinetypeTableRecord
  2
Amconstr
 70
     0
  3
_______________________
 72
    65
 73
     2
 40
9999.0
 49
9999.0
 74
     0
 49
0.0
 74
     0
  0
LTYPE
  5
339B
330
21
100
AcDbSymbolTableRecord
100
AcDbLinetypeTableRecord
  2
ACANSTGB
 70
     0
  3
__ . . __ . .
 72
    65
 73
     6
 40
0.35433070866
 49
0.15748031496
 74
     0
 49
-0.03937007874
 74
     0
 49
0.03937007874
 74
     0
 49
-0.03937007874
 74
     0
 49
0.03937007874
 74
     0
 49
-0.03937007874
 74
     0
  0
LTYPE
  5
339C
330
21
100
AcDbSymbolTableRecord
100
AcDbLinetypeTableRecord
  2
ACANSTGL
 70
     0
  3
_ _ _ _ _
 72
    65
 73
     2
 40
0.11811023622
 49
0.07874015748
 74
     0
 49
-0.03937007874
 74
     0
  0
LTYPE
  5
48CB
330
21
100
AcDbSymbolTableRecord
100
AcDbLinetypeTableRecord
  2
CENTER2
 70
     0
  3
Center (.5x) ___ _ ___ _ ___ _ ___ _ ___ _ ___
 72
    65
 73
     4
 40
1.125
 49
0.75
 74
     0
 49
-0.125
 74
     0
 49
0.125
 74
     0
 49
-0.125
 74
     0
  0
LTYPE
  5
48CC
330
21
100
AcDbSymbolTableRecord
100
AcDbLinetypeTableRecord
  2
HIDDEN2
 70
     0
  3
Hidden (.5x) _ _ _ _ _ _ _ _ _ _ _ _ _ _ _ _ _
 72
    65
 73
     2
 40
0.1875
 49
0.125
 74
     0
 49
-0.0625
 74
     0
  0
LTYPE
  5
48CD
330
21
100
AcDbSymbolTableRecord
100
AcDbLinetypeTableRecord
  2
Amzigzag2
 70
     0
  3
/\/-/\/-/\/-/\/-/\/-/\/
 72
    65
 73
     2
 40
0.4401
 49
0.0001
 74
     4
 75
   136
340
1B2
 46
0.0016
 50
0.0
 44
0.0
 45
0.0
 49
-0.4400000000000002
 74
     0
  0
LTYPE
  5
8FAF
330
21
100
AcDbSymbolTableRecord
100
AcDbLinetypeTableRecord
  2
AM_ISO02W050
 70
     0
  3
__ __ __ __ __ __ __ __ __ __ __ __ __ __ __
 72
    65
 73
     2
 40
7.5
 49
6.0
 74
     0
 49
-1.5
 74
     0
  0
LTYPE
  5
8FB0
330
21
100
AcDbSymbolTableRecord
100
AcDbLinetypeTableRecord
  2
AM_ISO08W050
 70
     0
  3
____ . ____ . ____ . ____ . ____ . ____ . ____
 72
    65
 73
     4
 40
18.0
 49
12.0
 74
     0
 49
-1.5
 74
     0
 49
3.0
 74
     0
 49
-1.5
 74
     0
  0
LTYPE
  5
8FB1
330
21
100
AcDbSymbolTableRecord
100
AcDbLinetypeTableRecord
  2
AM_ISO09W050
 70
     0
  3
_____ . . _____ . . _____ . . ____ .. ____
 72
    65
 73
     6
 40
22.5
 49
12.0
 74
     0
 49
-1.5
 74
     0
 49
3.0
 74
     0
 49
-1.5
 74
     0
 49
3.0
 74
     0
 49
-1.5
 74
     0
  0
LTYPE
  5
8FB2
330
21
100
AcDbSymbolTableRecord
100
AcDbLinetypeTableRecord
  2
AM_ISO08W050x2
 70
     0
  3
__ . __ . __ . __ . __ . __
 72
    65
 73
     4
 40
9.0
 49
6.0
 74
     0
 49
-0.75
 74
     0
 49
1.5
 74
     0
 49
-0.75
 74
     0
  0
LTYPE
  5
8FB3
330
21
100
AcDbSymbolTableRecord
100
AcDbLinetypeTableRecord
  2
AM_ISO02W050x2
 70
     0
  3
 _ _ _ _ _ _ _ _ _ _ _ _
 72
    65
 73
     2
 40
3.75
 49
3.0
 74
     0
 49
-0.75
 74
     0
  0
LTYPE
  5
8FB4
330
21
100
AcDbSymbolTableRecord
100
AcDbLinetypeTableRecord
  2
Amzigzag
 70
     0
  3
/\/-/\/-/\/-/\/-/\/-/\/
 72
    65
 73
     2
 40
11.0001
 49
0.0001
 74
     4
 75
   136
340
1B2
 46
0.04
 50
0.0
 44
0.0
 45
0.0
 49
-11.0
 74
     0
  0
ENDTAB
  0
TABLE
  2
LAYER
  5
C
102
{ACAD_XDICTIONARY
360
1C
102
}
330
0
100
AcDbSymbolTable
 70
     7
  0
LAYER
  5
D
102
{ACAD_XDICTIONARY
360
E
102
}
330
C
100
AcDbSymbolTableRecord
100
AcDbLayerTableRecord
  2
0
 70
     0
 62
     7
  6
Continuous
370
    -3
390
10
  0
LAYER
  5
98
102
{ACAD_XDICTIONARY
360
99
102
}
330
C
100
AcDbSymbolTableRecord
100
AcDbLayerTableRecord
  2
Text
 70
     0
 62
     3
  6
Continuous
370
    -3
390
10
1001
RAK
1000
{ACET-LAYISO
1070
     0
1070
     3
1000
Continuous
1071
       -3
1071
        1
1005
10
1000
ACET-LAYISO}
  0
LAYER
  5
7E
330
C
100
AcDbSymbolTableRecord
100
AcDbLayerTableRecord
  2
DEFPOINTS
 70
     0
 62
     7
  6
Continuous
290
     0
370
    -3
390
10
1001
RAK
1000
{ACET-LAYISO
1070
     0
1070
     7
1000
Continuous
1071
       -3
1071
        0
1005
10
1000
ACET-LAYISO}
  0
LAYER
  5
10C
102
{ACAD_XDICTIONARY
360
10D
102
}
330
C
100
AcDbSymbolTableRecord
100
AcDbLayerTableRecord
  2
PCB_TOP
 70
     0
 62
     5
  6
Continuous
370
    -3
390
10
1001
RAK
1000
{ACET-LAYISO
1070
     0
1070
     5
1000
Continuous
1070
     1
1071
       -3
1071
        1
1005
10
1000
ACET-LAYISO}
  0
LAYER
  5
117
102
{ACAD_XDICTIONARY
360
118
102
}
330
C
100
AcDbSymbolTableRecord
100
AcDbLayerTableRecord
  2
PCB_BOT
 70
     0
 62
     1
  6
Continuous
370
    -3
390
10
1001
RAK
1000
{ACET-LAYISO
1070
     0
1070
     1
1000
Continuous
1071
       -3
1071
        1
1005
10
1000
ACET-LAYISO}
  0
LAYER
  5
108
102
{ACAD_XDICTIONARY
360
109
102
}
330
C
100
AcDbSymbolTableRecord
100
AcDbLayerTableRecord
  2
PCB_OUTLINE
 70
     0
 62
   142
  6
Continuous
370
    -3
390
10
1001
RAK
1000
{ACET-LAYISO
1070
     0
1070
   142
1000
Continuous
1071
       -3
1071
        1
1005
10
1000
ACET-LAYISO}
  0
LAYER
  5
8E54
330
C
100
AcDbSymbolTableRecord
100
AcDbLayerTableRecord
  2
Part
 70
     0
 62
     1
  6
Continuous
370
    -3
390
10
1001
AcAecLayerStandard
1000

1000

  0
ENDTAB
  0
TABLE
  2
STYLE
  5
1E
330
0
100
AcDbSymbolTable
 70
     6
  0
STYLE
  5
1F
330
1E
100
AcDbSymbolTableRecord
100
AcDbTextStyleTableRecord
  2
Standard
 70
     0
 40
0.0
 41
1.0
 50
0.0
 71
     0
 42
0.2
  3
txt
  4

  0
STYLE
  5
7C
330
1E
100
AcDbSymbolTableRecord
100
AcDbTextStyleTableRecord
  2
ROMANS
 70
     0
 40
0.0
 41
1.0
 50
0.0
 71
     0
 42
0.1
  3
C:\ACADWIN\FONTS\AU100S00.SHX
  4

  0
STYLE
  5
C4
330
1E
100
AcDbSymbolTableRecord
100
AcDbTextStyleTableRecord
  2
ARIAL
 70
     0
 40
0.0
 41
1.0
 50
0.0
 71
     0
 42
0.2452744685283672
  3
ARIAL.TTF
  4

1001
ACAD
1000
Arial
1071
       34
  0
STYLE
  5
1B2
330
1E
100
AcDbSymbolTableRecord
100
AcDbTextStyleTableRecord
  2

 70
     1
 40
0.0
 41
1.0
 50
0.0
 71
     0
 42
0.2
  3
genltshp.shx
  4

  0
STYLE
  5
339A
330
1E
100
AcDbSymbolTableRecord
100
AcDbTextStyleTableRecord
  2
ACANSGDT
 70
     0
 40
0.0
 41
1.0
 50
0.0
 71
     0
 42
0.2
  3
amgdt.shx
  4

  0
STYLE
  5
8FB6
330
1E
100
AcDbSymbolTableRecord
100
AcDbTextStyleTableRecord
  2
ACANSTS
 70
     0
 40
1.0
 41
1.0
 50
0.0
 71
     0
 42
0.2
  3
romans.shx
  4

  0
ENDTAB
  0
TABLE
  2
VIEW
  5
24
330
0
100
AcDbSymbolTable
 70
     0
  0
ENDTAB
  0
TABLE
  2
UCS
  5
25
330
0
100
AcDbSymbolTable
 70
     0
  0
ENDTAB
  0
TABLE
  2
APPID
  5
2B
330
0
100
AcDbSymbolTable
 70
    25
  0
APPID
  5
2C
330
2B
100
AcDbSymbolTableRecord
100
AcDbRegAppTableRecord
  2
ACAD
 70
     0
  0
APPID
  5
72
330
2B
100
AcDbSymbolTableRecord
100
AcDbRegAppTableRecord
  2
RAK
 70
     0
  0
APPID
  5
C2
330
2B
100
AcDbSymbolTableRecord
100
AcDbRegAppTableRecord
  2
AcAecLayerStandard
 70
     0
  0
APPID
  5
1E7
330
2B
100
AcDbSymbolTableRecord
100
AcDbRegAppTableRecord
  2
ACATTRIBSERVICES
 70
     0
  0
APPID
  5
227
330
2B
100
AcDbSymbolTableRecord
100
AcDbRegAppTableRecord
  2
ACAD_MLEADERVER
 70
     0
  0
APPID
  5
233
330
2B
100
AcDbSymbolTableRecord
100
AcDbRegAppTableRecord
  2
MCAD_NO_VIS
 70
     0
  0
APPID
  5
234
330
2B
100
AcDbSymbolTableRecord
100
AcDbRegAppTableRecord
  2
ACAD_TEMP_GRAPHIC
 70
     0
  0
APPID
  5
23D
330
2B
100
AcDbSymbolTableRecord
100
AcDbRegAppTableRecord
  2
AD_DRAW
 70
     0
  0
APPID
  5
258
330
2B
100
AcDbSymbolTableRecord
100
AcDbRegAppTableRecord
  2
DESIGNERASSEMBLIES
 70
     0
  0
APPID
  5
25F
330
2B
100
AcDbSymbolTableRecord
100
AcDbRegAppTableRecord
  2
ACADM_DIM_EDIT
 70
     0
  0
APPID
  5
260
330
2B
100
AcDbSymbolTableRecord
100
AcDbRegAppTableRecord
  2
AMDT_DM_ADJ
 70
     0
  0
APPID
  5
2A8
330
2B
100
AcDbSymbolTableRecord
100
AcDbRegAppTableRecord
  2
ACAD_PSEXT
 70
     0
  0
APPID
  5
2E7
330
2B
100
AcDbSymbolTableRecord
100
AcDbRegAppTableRecord
  2
ACAD_DSTYLE_DIMARC_LENGTH_SYMBOL
 70
     0
  0
APPID
  5
454
330
2B
100
AcDbSymbolTableRecord
100
AcDbRegAppTableRecord
  2
ACAD_DSTYLE_DIM_LINETYPE
 70
     0
  0
APPID
  5
455
330
2B
100
AcDbSymbolTableRecord
100
AcDbRegAppTableRecord
  2
ACAD_DSTYLE_DIM_EXT1_LINETYPE
 70
     0
  0
APPID
  5
456
330
2B
100
AcDbSymbolTableRecord
100
AcDbRegAppTableRecord
  2
ACAD_DSTYLE_DIM_EXT2_LINETYPE
 70
     0
  0
APPID
  5
4BD
330
2B
100
AcDbSymbolTableRecord
100
AcDbRegAppTableRecord
  2
ACAD_DSTYLE_DIMJOGGED_JOGANGLE_SYMBOL
 70
     0
  0
APPID
  5
7FE
330
2B
100
AcDbSymbolTableRecord
100
AcDbRegAppTableRecord
  2
ACAD_EXEMPT_FROM_CAD_STANDARDS
 70
     0
  0
APPID
  5
B8B
330
2B
100
AcDbSymbolTableRecord
100
AcDbRegAppTableRecord
  2
ACAD_DSTYLE_DIMINSPECT
 70
     0
  0
APPID
  5
1DE7
330
2B
100
AcDbSymbolTableRecord
100
AcDbRegAppTableRecord
  2
ACLAYERTOOLS
 70
     0
  0
APPID
  5
23BF
330
2B
100
AcDbSymbolTableRecord
100
AcDbRegAppTableRecord
  2
ACAD_DSTYLE_DIMRADIAL_EXTENSION
 70
     0
  0
APPID
  5
2669
330
2B
100
AcDbSymbolTableRecord
100
AcDbRegAppTableRecord
  2
ACAD_DSTYLE_DIMJAG
 70
     0
  0
APPID
  5
266A
330
2B
100
AcDbSymbolTableRecord
100
AcDbRegAppTableRecord
  2
ACAD_DSTYLE_DIMBREAK
 70
     0
  0
APPID
  5
266B
330
2B
100
AcDbSymbolTableRecord
100
AcDbRegAppTableRecord
  2
ACAD_DSTYLE_DIMTALN
 70
     0
  0
APPID
  5
8FBE
330
2B
100
AcDbSymbolTableRecord
100
AcDbRegAppTableRecord
  2
ACAD_NAV_VCDISPLAY
 70
     0
  0
ENDTAB
  0
TABLE
  2
DIMSTYLE
  5
2D
330
0
100
AcDbSymbolTable
 70
     7
100
AcDbDimStyleTable
 71
     2
340
1519
340
3389
  0
DIMSTYLE
105
1519
330
2D
100
AcDbSymbolTableRecord
100
AcDbDimStyleTableRecord
  2
3 Decimal Places
 70
     0
 41
0.125
 44
0.08
 78
     4
140
0.09
176
   256
177
   256
178
   256
271
     3
272
     3
284
     4
285
     4
286
     4
340
7C
371
    -1
372
    -1
  0
DIMSTYLE
105
3389
102
{ACAD_REACTORS
330
8F9D
102
}
330
2D
100
AcDbSymbolTableRecord
100
AcDbDimStyleTableRecord
  2
AM_ANSI
 70
     0
  4
mm
 41
0.12
 42
0.05
 43
0.5
 44
0.1
 47
0.1
 48
0.1
 78
     7
 79
     2
140
0.12
141
0.0
146
0.71
147
0.06
176
   256
177
   256
178
     2
274
     4
284
     7
340
1F
371
    -1
372
    -1
1001
ACAD_DSTYLE_DIMARC_LENGTH_SYMBOL
1070
   379
1070
     1
1001
ACAD_DSTYLE_DIM_LINETYPE
1070
   380
1005
22
1001
ACAD_DSTYLE_DIM_EXT1_LINETYPE
1070
   381
1005
22
1001
ACAD_DSTYLE_DIM_EXT2_LINETYPE
1070
   382
1005
22
  0
DIMSTYLE
105
338E
330
2D
100
AcDbSymbolTableRecord
100
AcDbDimStyleTableRecord
  2
AM_ANSI$3
 70
     0
  4
mm
 41
0.12
 42
0.05
 43
0.5
 44
0.1
 47
0.1
 48
0.1
 78
     7
 79
     2
140
0.12
141
0.0
146
0.71
147
0.06
176
   256
177
   256
178
     2
274
     4
284
     7
288
     1
289
     0
340
1F
371
    -1
372
    -1
1001
ACAD_DSTYLE_DIMARC_LENGTH_SYMBOL
1070
   379
1070
     1
1001
ACAD_DSTYLE_DIM_LINETYPE
1070
   380
1005
22
1001
ACAD_DSTYLE_DIM_EXT1_LINETYPE
1070
   381
1005
22
1001
ACAD_DSTYLE_DIM_EXT2_LINETYPE
1070
   382
1005
22
  0
DIMSTYLE
105
338F
330
2D
100
AcDbSymbolTableRecord
100
AcDbDimStyleTableRecord
  2
AM_ANSI$4
 70
     0
  4
mm
 41
0.12
 42
0.05
 43
0.5
 44
0.1
 47
0.1
 48
0.1
 78
     7
 79
     2
140
0.12
141
0.0
146
0.71
147
0.06
176
   256
177
   256
178
     2
274
     4
284
     7
340
1F
371
    -1
372
    -1
1001
ACAD_DSTYLE_DIMARC_LENGTH_SYMBOL
1070
   379
1070
     1
1001
ACAD_DSTYLE_DIM_LINETYPE
1070
   380
1005
22
1001
ACAD_DSTYLE_DIM_EXT1_LINETYPE
1070
   381
1005
22
1001
ACAD_DSTYLE_DIM_EXT2_LINETYPE
1070
   382
1005
22
  0
DIMSTYLE
105
3390
330
2D
100
AcDbSymbolTableRecord
100
AcDbDimStyleTableRecord
  2
AM_ANSI$7
 70
     0
  4
mm
 41
0.12
 42
0.05
 43
0.5
 44
0.1
 47
0.1
 48
0.1
 78
     7
 79
     2
140
0.12
141
0.0
146
0.71
147
0.06
176
   256
177
   256
178
     2
274
     4
284
     7
340
1F
371
    -1
372
    -1
1001
ACAD_DSTYLE_DIMARC_LENGTH_SYMBOL
1070
   379
1070
     1
1001
ACAD_DSTYLE_DIM_LINETYPE
1070
   380
1005
22
1001
ACAD_DSTYLE_DIM_EXT1_LINETYPE
1070
   381
1005
22
1001
ACAD_DSTYLE_DIM_EXT2_LINETYPE
1070
   382
1005
22
  0
DIMSTYLE
105
3391
330
2D
100
AcDbSymbolTableRecord
100
AcDbDimStyleTableRecord
  2
AM_ANSI$SF
 70
     0
  4
mm
 41
0.12
 42
0.05
 43
0.5
 44
0.1
 47
0.1
 48
0.1
 75
     1
 76
     1
 78
     7
 79
     2
140
0.12
141
0.0
146
0.71
147
0.06
176
   256
177
   256
178
     2
274
     4
284
     7
340
1F
371
    -1
372
    -1
1001
ACAD_DSTYLE_DIMARC_LENGTH_SYMBOL
1070
   379
1070
     1
1001
ACAD_DSTYLE_DIM_LINETYPE
1070
   380
1005
22
1001
ACAD_DSTYLE_DIM_EXT1_LINETYPE
1070
   381
1005
22
1001
ACAD_DSTYLE_DIM_EXT2_LINETYPE
1070
   382
1005
22
  0
DIMSTYLE
105
3396
330
2D
100
AcDbSymbolTableRecord
100
AcDbDimStyleTableRecord
  2
AM_ANSI$SH
 70
     0
  4
mm
 41
0.12
 42
0.05
 43
0.5
 44
0.1
 47
0.1
 48
0.1
 75
     1
 76
     1
 78
     7
 79
     2
140
0.12
141
0.0
146
0.71
147
0.06
173
     1
176
   256
177
   256
178
     2
274
     4
284
     7
340
1F
343
3392
371
    -1
372
    -1
1001
ACAD_DSTYLE_DIMARC_LENGTH_SYMBOL
1070
   379
1070
     1
1001
ACAD_DSTYLE_DIM_LINETYPE
1070
   380
1005
22
1001
ACAD_DSTYLE_DIM_EXT1_LINETYPE
1070
   381
1005
22
1001
ACAD_DSTYLE_DIM_EXT2_LINETYPE
1070
   382
1005
22
  0
ENDTAB
  0
TABLE
  2
BLOCK_RECORD
  5
1
330
0
100
AcDbSymbolTable
 70
     3
  0
BLOCK_RECORD
  5
2
102
{ACAD_XDICTIONARY
360
32A5
102
}
330
1
100
AcDbSymbolTableRecord
100
AcDbBlockTableRecord
  2
*Model_Space
340
5
  0
BLOCK_RECORD
  5
8
330
1
100
AcDbSymbolTableRecord
100
AcDbBlockTableRecord
  2
*Paper_Space
340
B
  0
BLOCK_RECORD
  5
3392
330
1
100
AcDbSymbolTableRecord
100
AcDbBlockTableRecord
  2
GENAXEH
340
0
  0
ENDTAB
  0
ENDSEC
  0
SECTION
  2
BLOCKS
  0
BLOCK
  5
3
330
2
100
AcDbEntity
  8
0
100
AcDbBlockBegin
  2
*Model_Space
 70
     0
 10
0.0
 20
0.0
 30
0.0
  3
*Model_Space
  1

  0
ENDBLK
  5
4
330
2
100
AcDbEntity
  8
0
100
AcDbBlockEnd
  0
BLOCK
  5
9
330
8
100
AcDbEntity
 67
     1
  8
0
100
AcDbBlockBegin
  2
*Paper_Space
 70
     0
 10
0.0
 20
0.0
 30
0.0
  3
*Paper_Space
  1

  0
ENDBLK
  5
A
330
8
100
AcDbEntity
 67
     1
  8
0
100
AcDbBlockEnd
  0
BLOCK
  5
3394
330
3392
100
AcDbEntity
  8
0
100
AcDbBlockBegin
  2
GENAXEH
 70
     0
 10
0.0
 20
0.0
 30
0.0
  3
GENAXEH
  1

  0
LINE
  5
3393
330
3392
100
AcDbEntity
  8
0
100
AcDbLine
 10
-1.0
 20
0.0
 30
0.0
 11
1.0
 21
0.0
 31
0.0
  0
ENDBLK
  5
3395
330
3392
100
AcDbEntity
  8
0
100
AcDbBlockEnd
  0
ENDSEC
  0
SECTION
  2
ENTITIES
  0
HATCH
  5
696F
330
2
100
AcDbEntity
  8
PCB_BOT
100
AcDbHatch
 10
0.0
 20
0.0
 30
0.0
210
0.0
220
0.0
230
1.0
  2
SOLID
 70
     1
 71
     0
 91
        3
 92
        7
 72
     1
 73
     1
 93
        3
 10
22.80737286956334
 20
-1.192321879998913
 42
0.0
 10
22.80737286956334
 20
-1.264592305571142
 42
0.1989123673796551
 10
22.8584757775647
 20
-1.243424788000269
 42
0.0
 97
        0
 92
        7
 72
     1
 73
     1
 93
        3
 10
22.87964329513557
 20
-1.192321879998913
 42
0.0
 10
22.80737286956334
 20
-1.192321879998917
 42
0.0
 10
22.8584757775647
 20
-1.243424788000272
 42
0.1989123673796482
 97
        0
 92
        7
 72
     1
 73
     1
 93
        3
 10
22.8584757775647
 20
-1.141218971997555
 42
0.0
 10
22.80737286956334
 20
-1.192321879998913
 42
0.0
 10
22.87964329513557
 20
-1.192321879998913
 42
0.1989123673796509
 97
        0
 75
     0
 76
     1
 47
0.0001896584045076
 98
        3
 10
22.83082235853347
 20
-1.233115663463604
 10
22.85625690131056
 20
-1.217184329241429
 10
22.8543588300626
 20
-1.188735547311178
  0
LINE
  5
6970
330
2
100
AcDbEntity
  8
PCB_BOT
100
AcDbLine
 10
22.73499165780441
 20
-1.264703091757845
 30
0.0
 11
22.87975408132228
 21
-1.119940668239977
 31
0.0
  0
LINE
  5
6971
330
2
100
AcDbEntity
  8
PCB_BOT
100
AcDbLine
 10
22.73499165780441
 20
-1.119940668239977
 30
0.0
 11
22.87975408132228
 21
-1.264703091757851
 31
0.0
  0
HATCH
  5
6972
330
2
100
AcDbEntity
  8
PCB_OUTLINE
100
AcDbHatch
 10
0.0
 20
0.0
 30
0.0
210
0.0
220
0.0
230
1.0
  2
SOLID
 70
     1
 71
     0
 91
        2
 92
        7
 72
     1
 73
     1
 93
        3
 10
22.80737286956335
 20
-1.192321879998903
 42
0.0
 10
22.75626996156197
 20
-1.243424788000272
 42
0.1989123673796946
 10
22.80737286956334
 20
-1.264592305571142
 42
0.0
 97
        0
 92
        7
 72
     1
 73
     1
 93
        3
 10
22.80737286956334
 20
-1.192321879998913
 42
0.0
 10
22.73510244399111
 20
-1.192321879998913
 42
0.1989123673796509
 10
22.75626996156197
 20
-1.243424788000272
 42
0.0
 97
        0
 75
     0
 76
     1
 47
0.0001896584045076
 98
        2
 10
22.79475851975419
 20
-1.244495149000324
 10
22.75945381246048
 20
-1.217942970689004
  0
LINE
  5
6973
330
2
100
AcDbEntity
  8
PCB_OUTLINE
100
AcDbLine
 10
22.73499165780441
 20
-1.264703091757837
 30
0.0
 11
22.87975408132229
 21
-1.119940668239969
 31
0.0
  0
LINE
  5
6974
330
2
100
AcDbEntity
  8
PCB_OUTLINE
100
AcDbLine
 10
22.73499165780442
 20
-1.119940668239969
 30
0.0
 11
22.87975408132229
 21
-1.264703091757845
 31
0.0
  0
LINE
  5
6975
330
2
100
AcDbEntity
  8
PCB_TOP
100
AcDbLine
 10
22.73499165780442
 20
-1.119940668239969
 30
0.0
 11
22.87975408132229
 21
-1.264703091757845
 31
0.0
  0
LINE
  5
6976
330
2
100
AcDbEntity
  8
PCB_TOP
100
AcDbLine
 10
22.73499165780441
 20
-1.264703091757837
 30
0.0
 11
22.87975408132229
 21
-1.119940668239969
 31
0.0
  0
CIRCLE
  5
6977
330
2
100
AcDbEntity
  8
PCB_BOT
100
AcDbCircle
 10
22.80737286956336
 20
-1.19232187999892
 30
0.0
 40
0.0722704255722269
  0
CIRCLE
  5
6978
330
2
100
AcDbEntity
  8
PCB_OUTLINE
100
AcDbCircle
 10
22.80737286956336
 20
-1.19232187999892
 30
0.0
 40
0.0722704255722269
  0
CIRCLE
  5
6979
330
2
100
AcDbEntity
  8
PCB_TOP
100
AcDbCircle
 10
22.80737286956336
 20
-1.19232187999892
 30
0.0
 40
0.0722704255722269
  0
LINE
  5
697A
330
2
100
AcDbEntity
  8
PCB_BOT
100
AcDbLine
 10
22.80737286956334
 20
-1.089959388668426
 30
0.0
 11
22.80737286956334
 21
-1.294684371329403
 31
0.0
  0
LINE
  5
697B
330
2
100
AcDbEntity
  8
PCB_OUTLINE
100
AcDbLine
 10
22.80737286956336
 20
-1.089959388668419
 30
0.0
 11
22.80737286956336
 21
-1.294684371329396
 31
0.0
  0
LINE
  5
697C
330
2
100
AcDbEntity
  8
PCB_TOP
100
AcDbLine
 10
22.80737286956336
 20
-1.089959388668419
 30
0.0
 11
22.80737286956336
 21
-1.294684371329396
 31
0.0
  0
LINE
  5
697D
330
2
100
AcDbEntity
  8
PCB_BOT
100
AcDbLine
 10
22.90973536089384
 20
-1.192321879998913
 30
0.0
 11
22.70501037823286
 21
-1.192321879998913
 31
0.0
  0
HATCH
  5
697E
330
2
100
AcDbEntity
  8
PCB_TOP
100
AcDbHatch
 10
0.0
 20
0.0
 30
0.0
210
0.0
220
0.0
230
1.0
  2
SOLID
 70
     1
 71
     0
 91
        3
 92
        7
 72
     1
 73
     1
 93
        3
 10
22.80737286956334
 20
-1.120051454426687
 42
0.1989123673796765
 10
22.75626996156198
 20
-1.141218971997552
 42
0.0
 10
22.80737286956334
 20
-1.192321879998913
 42
0.0
 97
        0
 92
        7
 72
     1
 73
     1
 93
        3
 10
22.75626996156198
 20
-1.141218971997552
 42
0.1989123673796716
 10
22.73510244399111
 20
-1.192321879998913
 42
0.0
 10
22.80737286956334
 20
-1.192321879998913
 42
0.0
 97
        0
 92
        7
 72
     1
 73
     1
 93
        3
 10
22.8584757775647
 20
-1.141218971997555
 42
0.1989123673796498
 10
22.80737286956334
 20
-1.120051454426687
 42
0.0
 10
22.80737286956334
 20
-1.192321879998907
 42
0.0
 97
        0
 75
     0
 76
     1
 47
0.0001896584045076
 98
        3
 10
22.79134194300105
 20
-1.143596857799617
 10
22.76818503721472
 20
-1.162942010447433
 10
22.82360963928442
 20
-1.15801090912664
  0
LINE
  5
697F
330
2
100
AcDbEntity
  8
PCB_OUTLINE
100
AcDbLine
 10
22.90973536089384
 20
-1.192321879998907
 30
0.0
 11
22.70501037823287
 21
-1.192321879998907
 31
0.0
  0
LINE
  5
6980
330
2
100
AcDbEntity
  8
PCB_TOP
100
AcDbLine
 10
22.90973536089384
 20
-1.192321879998907
 30
0.0
 11
22.70501037823287
 21
-1.192321879998907
 31
0.0
  0
TEXT
  5
699D
330
2
100
AcDbEntity
  8
PCB_OUTLINE
100
AcDbText
 10
26.21130244316172
 20
-1.464478507200269
 30
0.0
 40
0.0299327383810564
  1
PCB_OUTLINE
  7
ROMANS
100
AcDbText
  0
HATCH
  5
699E
330
2
100
AcDbEntity
  8
PCB_BOT
100
AcDbHatch
 10
0.0
 20
0.0
 30
0.0
210
0.0
220
0.0
230
1.0
  2
SOLID
 70
     1
 71
     0
 91
        3
 92
        7
 72
     1
 73
     1
 93
        3
 10
26.31209730794964
 20
-1.192321820008388
 42
0.0
 10
26.31209730794964
 20
-1.264592245580616
 42
0.1989123673796551
 10
26.36320021595099
 20
-1.243424728009741
 42
0.0
 97
        0
 92
        7
 72
     1
 73
     1
 93
        3
 10
26.38436773352187
 20
-1.192321820008388
 42
0.0
 10
26.31209730794964
 20
-1.192321820008392
 42
0.0
 10
26.36320021595099
 20
-1.243424728009745
 42
0.1989123673796482
 97
        0
 92
        7
 72
     1
 73
     1
 93
        3
 10
26.36320021595099
 20
-1.14121891200703
 42
0.0
 10
26.31209730794964
 20
-1.192321820008388
 42
0.0
 10
26.38436773352187
 20
-1.192321820008388
 42
0.1989123673796509
 97
        0
 75
     0
 76
     1
 47
0.0001896584045076
 98
        3
 10
26.33554679691977
 20
-1.233115603473077
 10
26.36098133969686
 20
-1.217184269250904
 10
26.35908326844889
 20
-1.188735487320653
  0
LINE
  5
699F
330
2
100
AcDbEntity
  8
PCB_BOT
100
AcDbLine
 10
26.2397160961907
 20
-1.264703031767317
 30
0.0
 11
26.38447851970858
 21
-1.119940608249449
 31
0.0
  0
LINE
  5
69A0
330
2
100
AcDbEntity
  8
PCB_BOT
100
AcDbLine
 10
26.2397160961907
 20
-1.119940608249449
 30
0.0
 11
26.38447851970858
 21
-1.264703031767326
 31
0.0
  0
HATCH
  5
69A1
330
2
100
AcDbEntity
  8
PCB_OUTLINE
100
AcDbHatch
 10
0.0
 20
0.0
 30
0.0
210
0.0
220
0.0
230
1.0
  2
SOLID
 70
     1
 71
     0
 91
        2
 92
        7
 72
     1
 73
     1
 93
        3
 10
26.31209730794965
 20
-1.192321820008376
 42
0.0
 10
26.26099439994827
 20
-1.243424728009745
 42
0.1989123673796946
 10
26.31209730794964
 20
-1.264592245580616
 42
0.0
 97
        0
 92
        7
 72
     1
 73
     1
 93
        3
 10
26.31209730794963
 20
-1.192321820008388
 42
0.0
 10
26.23982688237741
 20
-1.192321820008388
 42
0.1989123673796509
 10
26.26099439994827
 20
-1.243424728009745
 42
0.0
 97
        0
 75
     0
 76
     1
 47
0.0001896584045076
 98
        2
 10
26.29948295814048
 20
-1.244495089009798
 10
26.26417825084678
 20
-1.217942910698478
  0
LINE
  5
69A2
330
2
100
AcDbEntity
  8
PCB_OUTLINE
100
AcDbLine
 10
26.2397160961907
 20
-1.264703031767311
 30
0.0
 11
26.38447851970859
 21
-1.119940608249442
 31
0.0
  0
LINE
  5
69A3
330
2
100
AcDbEntity
  8
PCB_OUTLINE
100
AcDbLine
 10
26.23971609619072
 20
-1.119940608249442
 30
0.0
 11
26.38447851970859
 21
-1.264703031767317
 31
0.0
  0
LINE
  5
69A4
330
2
100
AcDbEntity
  8
PCB_TOP
100
AcDbLine
 10
26.23971609619072
 20
-1.119940608249442
 30
0.0
 11
26.38447851970859
 21
-1.264703031767317
 31
0.0
  0
LINE
  5
69A5
330
2
100
AcDbEntity
  8
PCB_TOP
100
AcDbLine
 10
26.2397160961907
 20
-1.264703031767311
 30
0.0
 11
26.38447851970859
 21
-1.119940608249442
 31
0.0
  0
CIRCLE
  5
69A6
330
2
100
AcDbEntity
  8
PCB_BOT
100
AcDbCircle
 10
26.31209730794966
 20
-1.192321820008394
 30
0.0
 40
0.0722704255722269
  0
CIRCLE
  5
69A7
330
2
100
AcDbEntity
  8
PCB_OUTLINE
100
AcDbCircle
 10
26.31209730794966
 20
-1.192321820008394
 30
0.0
 40
0.0722704255722269
  0
CIRCLE
  5
69A8
330
2
100
AcDbEntity
  8
PCB_TOP
100
AcDbCircle
 10
26.31209730794966
 20
-1.192321820008394
 30
0.0
 40
0.0722704255722269
  0
LINE
  5
69A9
330
2
100
AcDbEntity
  8
PCB_BOT
100
AcDbLine
 10
26.31209730794964
 20
-1.089959328677899
 30
0.0
 11
26.31209730794964
 21
-1.294684311338876
 31
0.0
  0
LINE
  5
69AA
330
2
100
AcDbEntity
  8
PCB_OUTLINE
100
AcDbLine
 10
26.31209730794966
 20
-1.089959328677892
 30
0.0
 11
26.31209730794966
 21
-1.294684311338869
 31
0.0
  0
LINE
  5
69AB
330
2
100
AcDbEntity
  8
PCB_TOP
100
AcDbLine
 10
26.31209730794966
 20
-1.089959328677892
 30
0.0
 11
26.31209730794966
 21
-1.294684311338869
 31
0.0
  0
TEXT
  5
69AC
330
2
100
AcDbEntity
  8
PCB_TOP
100
AcDbText
 10
26.21130244316172
 20
-1.407665064984469
 30
0.0
 40
0.0299327383810564
  1
PCB_TOP
  7
ROMANS
100
AcDbText
  0
TEXT
  5
69AD
330
2
100
AcDbEntity
  8
PCB_BOT
100
AcDbText
 10
26.21130244316172
 20
-1.52376052906856
 30
0.0
 40
0.0299327383810564
  1
PCB_BOT
  7
ROMANS
100
AcDbText
  0
LINE
  5
69AE
330
2
100
AcDbEntity
  8
PCB_BOT
100
AcDbLine
 10
26.41445979928013
 20
-1.192321820008388
 30
0.0
 11
26.20973481661916
 21
-1.192321820008388
 31
0.0
  0
HATCH
  5
69AF
330
2
100
AcDbEntity
  8
PCB_TOP
100
AcDbHatch
 10
0.0
 20
0.0
 30
0.0
210
0.0
220
0.0
230
1.0
  2
SOLID
 70
     1
 71
     0
 91
        3
 92
        7
 72
     1
 73
     1
 93
        3
 10
26.31209730794964
 20
-1.120051394436159
 42
0.1989123673796765
 10
26.26099439994828
 20
-1.141218912007027
 42
0.0
 10
26.31209730794964
 20
-1.192321820008388
 42
0.0
 97
        0
 92
        7
 72
     1
 73
     1
 93
        3
 10
26.26099439994828
 20
-1.141218912007027
 42
0.1989123673796716
 10
26.23982688237741
 20
-1.192321820008388
 42
0.0
 10
26.31209730794964
 20
-1.192321820008388
 42
0.0
 97
        0
 92
        7
 72
     1
 73
     1
 93
        3
 10
26.36320021595099
 20
-1.14121891200703
 42
0.1989123673796498
 10
26.31209730794964
 20
-1.120051394436159
 42
0.0
 10
26.31209730794964
 20
-1.19232182000838
 42
0.0
 97
        0
 75
     0
 76
     1
 47
0.0001896584045076
 98
        3
 10
26.29606638138735
 20
-1.143596797809092
 10
26.27290947560101
 20
-1.162941950456907
 10
26.32833407767071
 20
-1.158010849136114
  0
LINE
  5
69B0
330
2
100
AcDbEntity
  8
PCB_OUTLINE
100
AcDbLine
 10
26.41445979928013
 20
-1.19232182000838
 30
0.0
 11
26.20973481661917
 21
-1.19232182000838
 31
0.0
  0
LINE
  5
69B1
330
2
100
AcDbEntity
  8
PCB_TOP
100
AcDbLine
 10
26.41445979928013
 20
-1.19232182000838
 30
0.0
 11
26.20973481661917
 21
-1.19232182000838
 31
0.0
  0
LWPOLYLINE
  5
7E95
330
2
100
AcDbEntity
  8
PCB_BOT
100
AcDbPolyline
 90
        4
 70
     1
 43
0.0
 10
23.40973535073857
 20
-0.3173146059836474
 10
25.70973481661916
 20
-0.317314486057612
 10
25.70973481661916
 20
-2.067329153959164
 10
23.40973537104911
 20
-2.067329154014168
  0
LWPOLYLINE
  5
7E96
330
2
100
AcDbEntity
  8
PCB_OUTLINE
100
AcDbPolyline
 90
        4
 70
     1
 43
0.0
 10
23.40973537104911
 20
-2.067329154014168
 10
25.70973481661916
 20
-2.067329153959164
 10
25.70973481661916
 20
-0.317314486057612
 10
23.40973535073857
 20
-0.3173146059836474
  0
CIRCLE
  5
7EA2
330
2
100
AcDbEntity
  8
PCB_OUTLINE
100
AcDbCircle
 10
23.99973535509113
 20
-1.792329153959163
 30
0.0
 40
0.015
  0
CIRCLE
  5
7EA3
330
2
100
AcDbEntity
  8
PCB_OUTLINE
100
AcDbCircle
 10
24.07973535509113
 20
-1.792329153959163
 30
0.0
 40
0.015
  0
CIRCLE
  5
7EA4
330
2
100
AcDbEntity
  8
PCB_OUTLINE
100
AcDbCircle
 10
24.15973535509113
 20
-1.792329153959163
 30
0.0
 40
0.015
  0
CIRCLE
  5
7EA5
330
2
100
AcDbEntity
  8
PCB_OUTLINE
100
AcDbCircle
 10
24.23973535509113
 20
-1.792329153959163
 30
0.0
 40
0.015
  0
CIRCLE
  5
7EA6
330
2
100
AcDbEntity
  8
PCB_OUTLINE
100
AcDbCircle
 10
24.31973535509113
 20
-1.792329153959163
 30
0.0
 40
0.015
  0
CIRCLE
  5
7EA7
330
2
100
AcDbEntity
  8
PCB_OUTLINE
100
AcDbCircle
 10
24.39973535509113
 20
-1.792329153959163
 30
0.0
 40
0.015
  0
CIRCLE
  5
7EA8
330
2
100
AcDbEntity
  8
PCB_OUTLINE
100
AcDbCircle
 10
24.55973535509113
 20
-1.792329153959163
 30
0.0
 40
0.015
  0
CIRCLE
  5
7EA9
330
2
100
AcDbEntity
  8
PCB_OUTLINE
100
AcDbCircle
 10
24.47973535509112
 20
-1.792329153959163
 30
0.0
 40
0.015
  0
CIRCLE
  5
7EAA
330
2
100
AcDbEntity
  8
PCB_OUTLINE
100
AcDbCircle
 10
23.99973535509113
 20
-1.872329153959164
 30
0.0
 40
0.015
  0
CIRCLE
  5
7EAB
330
2
100
AcDbEntity
  8
PCB_OUTLINE
100
AcDbCircle
 10
23.99973535509113
 20
-1.952329153959164
 30
0.0
 40
0.015
  0
CIRCLE
  5
7EAC
330
2
100
AcDbEntity
  8
PCB_OUTLINE
100
AcDbCircle
 10
24.07973535509113
 20
-1.872329153959164
 30
0.0
 40
0.015
  0
CIRCLE
  5
7EAD
330
2
100
AcDbEntity
  8
PCB_OUTLINE
100
AcDbCircle
 10
24.07973535509113
 20
-1.952329153959164
 30
0.0
 40
0.015
  0
CIRCLE
  5
7EAE
330
2
100
AcDbEntity
  8
PCB_OUTLINE
100
AcDbCircle
 10
24.15973535509113
 20
-1.872329153959164
 30
0.0
 40
0.015
  0
CIRCLE
  5
7EAF
330
2
100
AcDbEntity
  8
PCB_OUTLINE
100
AcDbCircle
 10
24.15973535509113
 20
-1.952329153959164
 30
0.0
 40
0.015
  0
CIRCLE
  5
7EB0
330
2
100
AcDbEntity
  8
PCB_OUTLINE
100
AcDbCircle
 10
24.23973535509113
 20
-1.872329153959164
 30
0.0
 40
0.015
  0
CIRCLE
  5
7EB1
330
2
100
AcDbEntity
  8
PCB_OUTLINE
100
AcDbCircle
 10
24.23973535509113
 20
-1.952329153959164
 30
0.0
 40
0.015
  0
CIRCLE
  5
7EB2
330
2
100
AcDbEntity
  8
PCB_OUTLINE
100
AcDbCircle
 10
24.31973535509113
 20
-1.872329153959164
 30
0.0
 40
0.015
  0
CIRCLE
  5
7EB3
330
2
100
AcDbEntity
  8
PCB_OUTLINE
100
AcDbCircle
 10
24.31973535509113
 20
-1.952329153959164
 30
0.0
 40
0.015
  0
CIRCLE
  5
7EB4
330
2
100
AcDbEntity
  8
PCB_OUTLINE
100
AcDbCircle
 10
24.39973535509113
 20
-1.872329153959164
 30
0.0
 40
0.015
  0
CIRCLE
  5
7EB5
330
2
100
AcDbEntity
  8
PCB_OUTLINE
100
AcDbCircle
 10
24.39973535509113
 20
-1.952329153959164
 30
0.0
 40
0.015
  0
CIRCLE
  5
7EB6
330
2
100
AcDbEntity
  8
PCB_OUTLINE
100
AcDbCircle
 10
24.55973535509113
 20
-1.872329153959164
 30
0.0
 40
0.015
  0
CIRCLE
  5
7EB7
330
2
100
AcDbEntity
  8
PCB_OUTLINE
100
AcDbCircle
 10
24.55973535509113
 20
-1.952329153959164
 30
0.0
 40
0.015
  0
CIRCLE
  5
7EB8
330
2
100
AcDbEntity
  8
PCB_OUTLINE
100
AcDbCircle
 10
24.47973535509112
 20
-1.872329153959164
 30
0.0
 40
0.015
  0
CIRCLE
  5
7EB9
330
2
100
AcDbEntity
  8
PCB_OUTLINE
100
AcDbCircle
 10
24.47973535509112
 20
-1.952329153959164
 30
0.0
 40
0.015
  0
CIRCLE
  5
7EBA
330
2
100
AcDbEntity
  8
PCB_OUTLINE
100
AcDbCircle
 10
23.99973535509113
 20
-2.032329153959163
 30
0.0
 40
0.015
  0
CIRCLE
  5
7EBB
330
2
100
AcDbEntity
  8
PCB_OUTLINE
100
AcDbCircle
 10
24.07973535509113
 20
-2.032329153959163
 30
0.0
 40
0.015
  0
CIRCLE
  5
7EBC
330
2
100
AcDbEntity
  8
PCB_OUTLINE
100
AcDbCircle
 10
24.15973535509113
 20
-2.032329153959163
 30
0.0
 40
0.015
  0
CIRCLE
  5
7EBD
330
2
100
AcDbEntity
  8
PCB_OUTLINE
100
AcDbCircle
 10
24.23973535509113
 20
-2.032329153959163
 30
0.0
 40
0.015
  0
CIRCLE
  5
7EBE
330
2
100
AcDbEntity
  8
PCB_OUTLINE
100
AcDbCircle
 10
24.31973535509113
 20
-2.032329153959163
 30
0.0
 40
0.015
  0
CIRCLE
  5
7EBF
330
2
100
AcDbEntity
  8
PCB_OUTLINE
100
AcDbCircle
 10
24.39973535509113
 20
-2.032329153959163
 30
0.0
 40
0.015
  0
CIRCLE
  5
7EC0
330
2
100
AcDbEntity
  8
PCB_OUTLINE
100
AcDbCircle
 10
24.55973535509113
 20
-2.032329153959163
 30
0.0
 40
0.015
  0
CIRCLE
  5
7EC1
330
2
100
AcDbEntity
  8
PCB_OUTLINE
100
AcDbCircle
 10
24.47973535509112
 20
-2.032329153959163
 30
0.0
 40
0.015
  0
CIRCLE
  5
7EC2
330
2
100
AcDbEntity
  8
PCB_OUTLINE
100
AcDbCircle
 10
25.11973535509112
 20
-1.792329153959163
 30
0.0
 40
0.015
  0
CIRCLE
  5
7EC3
330
2
100
AcDbEntity
  8
PCB_OUTLINE
100
AcDbCircle
 10
25.03973535509112
 20
-1.792329153959163
 30
0.0
 40
0.015
  0
CIRCLE
  5
7EC4
330
2
100
AcDbEntity
  8
PCB_OUTLINE
100
AcDbCircle
 10
24.95973535509112
 20
-1.792329153959163
 30
0.0
 40
0.015
  0
CIRCLE
  5
7EC5
330
2
100
AcDbEntity
  8
PCB_OUTLINE
100
AcDbCircle
 10
24.87973535509113
 20
-1.792329153959163
 30
0.0
 40
0.015
  0
CIRCLE
  5
7EC6
330
2
100
AcDbEntity
  8
PCB_OUTLINE
100
AcDbCircle
 10
24.79973535509112
 20
-1.792329153959163
 30
0.0
 40
0.015
  0
CIRCLE
  5
7EC7
330
2
100
AcDbEntity
  8
PCB_OUTLINE
100
AcDbCircle
 10
24.71973535509112
 20
-1.792329153959163
 30
0.0
 40
0.015
  0
CIRCLE
  5
7EC8
330
2
100
AcDbEntity
  8
PCB_OUTLINE
100
AcDbCircle
 10
24.63973535509113
 20
-1.792329153959163
 30
0.0
 40
0.015
  0
CIRCLE
  5
7EC9
330
2
100
AcDbEntity
  8
PCB_OUTLINE
100
AcDbCircle
 10
25.11973535509112
 20
-1.872329153959164
 30
0.0
 40
0.015
  0
CIRCLE
  5
7ECA
330
2
100
AcDbEntity
  8
PCB_OUTLINE
100
AcDbCircle
 10
25.11973535509112
 20
-1.952329153959164
 30
0.0
 40
0.015
  0
CIRCLE
  5
7ECB
330
2
100
AcDbEntity
  8
PCB_OUTLINE
100
AcDbCircle
 10
25.03973535509112
 20
-1.872329153959164
 30
0.0
 40
0.015
  0
CIRCLE
  5
7ECC
330
2
100
AcDbEntity
  8
PCB_OUTLINE
100
AcDbCircle
 10
25.03973535509112
 20
-1.952329153959164
 30
0.0
 40
0.015
  0
CIRCLE
  5
7ECD
330
2
100
AcDbEntity
  8
PCB_OUTLINE
100
AcDbCircle
 10
24.95973535509112
 20
-1.872329153959164
 30
0.0
 40
0.015
  0
CIRCLE
  5
7ECE
330
2
100
AcDbEntity
  8
PCB_OUTLINE
100
AcDbCircle
 10
24.95973535509112
 20
-1.952329153959164
 30
0.0
 40
0.015
  0
CIRCLE
  5
7ECF
330
2
100
AcDbEntity
  8
PCB_OUTLINE
100
AcDbCircle
 10
24.87973535509113
 20
-1.872329153959164
 30
0.0
 40
0.015
  0
CIRCLE
  5
7ED0
330
2
100
AcDbEntity
  8
PCB_OUTLINE
100
AcDbCircle
 10
24.87973535509113
 20
-1.952329153959164
 30
0.0
 40
0.015
  0
CIRCLE
  5
7ED1
330
2
100
AcDbEntity
  8
PCB_OUTLINE
100
AcDbCircle
 10
24.79973535509112
 20
-1.872329153959164
 30
0.0
 40
0.015
  0
CIRCLE
  5
7ED2
330
2
100
AcDbEntity
  8
PCB_OUTLINE
100
AcDbCircle
 10
24.79973535509112
 20
-1.952329153959164
 30
0.0
 40
0.015
  0
CIRCLE
  5
7ED3
330
2
100
AcDbEntity
  8
PCB_OUTLINE
100
AcDbCircle
 10
24.71973535509112
 20
-1.872329153959164
 30
0.0
 40
0.015
  0
CIRCLE
  5
7ED4
330
2
100
AcDbEntity
  8
PCB_OUTLINE
100
AcDbCircle
 10
24.71973535509112
 20
-1.952329153959164
 30
0.0
 40
0.015
  0
CIRCLE
  5
7ED5
330
2
100
AcDbEntity
  8
PCB_OUTLINE
100
AcDbCircle
 10
24.63973535509113
 20
-1.872329153959164
 30
0.0
 40
0.015
  0
CIRCLE
  5
7ED6
330
2
100
AcDbEntity
  8
PCB_OUTLINE
100
AcDbCircle
 10
24.63973535509113
 20
-1.952329153959164
 30
0.0
 40
0.015
  0
CIRCLE
  5
7ED7
330
2
100
AcDbEntity
  8
PCB_OUTLINE
100
AcDbCircle
 10
25.11973535509112
 20
-2.032329153959163
 30
0.0
 40
0.015
  0
CIRCLE
  5
7ED8
330
2
100
AcDbEntity
  8
PCB_OUTLINE
100
AcDbCircle
 10
25.03973535509112
 20
-2.032329153959163
 30
0.0
 40
0.015
  0
CIRCLE
  5
7ED9
330
2
100
AcDbEntity
  8
PCB_OUTLINE
100
AcDbCircle
 10
24.95973535509112
 20
-2.032329153959163
 30
0.0
 40
0.015
  0
CIRCLE
  5
7EDA
330
2
100
AcDbEntity
  8
PCB_OUTLINE
100
AcDbCircle
 10
24.87973535509113
 20
-2.032329153959163
 30
0.0
 40
0.015
  0
CIRCLE
  5
7EDB
330
2
100
AcDbEntity
  8
PCB_OUTLINE
100
AcDbCircle
 10
24.79973535509112
 20
-2.032329153959163
 30
0.0
 40
0.015
  0
CIRCLE
  5
7EDC
330
2
100
AcDbEntity
  8
PCB_OUTLINE
100
AcDbCircle
 10
24.71973535509112
 20
-2.032329153959163
 30
0.0
 40
0.015
  0
CIRCLE
  5
7EDD
330
2
100
AcDbEntity
  8
PCB_OUTLINE
100
AcDbCircle
 10
24.63973535509113
 20
-2.032329153959163
 30
0.0
 40
0.015
  0
CIRCLE
  5
7EDE
330
2
100
AcDbEntity
  8
PCB_OUTLINE
100
AcDbCircle
 10
25.67973535509112
 20
-1.792329153959163
 30
0.0
 40
0.015
  0
CIRCLE
  5
7EDF
330
2
100
AcDbEntity
  8
PCB_OUTLINE
100
AcDbCircle
 10
25.67973535509112
 20
-1.872329153959164
 30
0.0
 40
0.015
  0
CIRCLE
  5
7EE0
330
2
100
AcDbEntity
  8
PCB_OUTLINE
100
AcDbCircle
 10
25.67973535509112
 20
-1.952329153959164
 30
0.0
 40
0.015
  0
CIRCLE
  5
7EE1
330
2
100
AcDbEntity
  8
PCB_OUTLINE
100
AcDbCircle
 10
25.67973535509112
 20
-2.032329153959163
 30
0.0
 40
0.015
  0
CIRCLE
  5
7EE2
330
2
100
AcDbEntity
  8
PCB_OUTLINE
100
AcDbCircle
 10
25.43973535509112
 20
-1.792329153959163
 30
0.0
 40
0.015
  0
CIRCLE
  5
7EE3
330
2
100
AcDbEntity
  8
PCB_OUTLINE
100
AcDbCircle
 10
25.51973535509112
 20
-1.792329153959163
 30
0.0
 40
0.015
  0
CIRCLE
  5
7EE4
330
2
100
AcDbEntity
  8
PCB_OUTLINE
100
AcDbCircle
 10
25.59973535509111
 20
-1.792329153959163
 30
0.0
 40
0.015
  0
CIRCLE
  5
7EE5
330
2
100
AcDbEntity
  8
PCB_OUTLINE
100
AcDbCircle
 10
25.43973535509112
 20
-1.872329153959164
 30
0.0
 40
0.015
  0
CIRCLE
  5
7EE6
330
2
100
AcDbEntity
  8
PCB_OUTLINE
100
AcDbCircle
 10
25.43973535509112
 20
-1.952329153959164
 30
0.0
 40
0.015
  0
CIRCLE
  5
7EE7
330
2
100
AcDbEntity
  8
PCB_OUTLINE
100
AcDbCircle
 10
25.51973535509112
 20
-1.872329153959164
 30
0.0
 40
0.015
  0
CIRCLE
  5
7EE8
330
2
100
AcDbEntity
  8
PCB_OUTLINE
100
AcDbCircle
 10
25.51973535509112
 20
-1.952329153959164
 30
0.0
 40
0.015
  0
CIRCLE
  5
7EE9
330
2
100
AcDbEntity
  8
PCB_OUTLINE
100
AcDbCircle
 10
25.59973535509111
 20
-1.872329153959164
 30
0.0
 40
0.015
  0
CIRCLE
  5
7EEA
330
2
100
AcDbEntity
  8
PCB_OUTLINE
100
AcDbCircle
 10
25.59973535509111
 20
-1.952329153959164
 30
0.0
 40
0.015
  0
CIRCLE
  5
7EEB
330
2
100
AcDbEntity
  8
PCB_OUTLINE
100
AcDbCircle
 10
25.43973535509112
 20
-2.032329153959163
 30
0.0
 40
0.015
  0
CIRCLE
  5
7EEC
330
2
100
AcDbEntity
  8
PCB_OUTLINE
100
AcDbCircle
 10
25.51973535509112
 20
-2.032329153959163
 30
0.0
 40
0.015
  0
CIRCLE
  5
7EED
330
2
100
AcDbEntity
  8
PCB_OUTLINE
100
AcDbCircle
 10
25.59973535509111
 20
-2.032329153959163
 30
0.0
 40
0.015
  0
CIRCLE
  5
7EEE
330
2
100
AcDbEntity
  8
PCB_OUTLINE
100
AcDbCircle
 10
23.67973535509113
 20
-1.792329153959163
 30
0.0
 40
0.015
  0
CIRCLE
  5
7EEF
330
2
100
AcDbEntity
  8
PCB_OUTLINE
100
AcDbCircle
 10
23.59973535509113
 20
-1.792329153959163
 30
0.0
 40
0.015
  0
CIRCLE
  5
7EF0
330
2
100
AcDbEntity
  8
PCB_OUTLINE
100
AcDbCircle
 10
23.43973535509114
 20
-1.792329153959163
 30
0.0
 40
0.015
  0
CIRCLE
  5
7EF1
330
2
100
AcDbEntity
  8
PCB_OUTLINE
100
AcDbCircle
 10
23.51973535509114
 20
-1.792329153959163
 30
0.0
 40
0.015
  0
CIRCLE
  5
7EF2
330
2
100
AcDbEntity
  8
PCB_OUTLINE
100
AcDbCircle
 10
23.67973535509113
 20
-1.872329153959164
 30
0.0
 40
0.015
  0
CIRCLE
  5
7EF3
330
2
100
AcDbEntity
  8
PCB_OUTLINE
100
AcDbCircle
 10
23.67973535509113
 20
-1.952329153959164
 30
0.0
 40
0.015
  0
CIRCLE
  5
7EF4
330
2
100
AcDbEntity
  8
PCB_OUTLINE
100
AcDbCircle
 10
23.59973535509113
 20
-1.872329153959164
 30
0.0
 40
0.015
  0
CIRCLE
  5
7EF5
330
2
100
AcDbEntity
  8
PCB_OUTLINE
100
AcDbCircle
 10
23.59973535509113
 20
-1.952329153959164
 30
0.0
 40
0.015
  0
CIRCLE
  5
7EF6
330
2
100
AcDbEntity
  8
PCB_OUTLINE
100
AcDbCircle
 10
23.43973535509114
 20
-1.872329153959164
 30
0.0
 40
0.015
  0
CIRCLE
  5
7EF7
330
2
100
AcDbEntity
  8
PCB_OUTLINE
100
AcDbCircle
 10
23.43973535509114
 20
-1.952329153959164
 30
0.0
 40
0.015
  0
CIRCLE
  5
7EF8
330
2
100
AcDbEntity
  8
PCB_OUTLINE
100
AcDbCircle
 10
23.51973535509114
 20
-1.872329153959164
 30
0.0
 40
0.015
  0
CIRCLE
  5
7EF9
330
2
100
AcDbEntity
  8
PCB_OUTLINE
100
AcDbCircle
 10
23.51973535509114
 20
-1.952329153959164
 30
0.0
 40
0.015
  0
CIRCLE
  5
7EFA
330
2
100
AcDbEntity
  8
PCB_OUTLINE
100
AcDbCircle
 10
23.67973535509113
 20
-2.032329153959163
 30
0.0
 40
0.015
  0
CIRCLE
  5
7EFB
330
2
100
AcDbEntity
  8
PCB_OUTLINE
100
AcDbCircle
 10
23.59973535509113
 20
-2.032329153959163
 30
0.0
 40
0.015
  0
CIRCLE
  5
7EFC
330
2
100
AcDbEntity
  8
PCB_OUTLINE
100
AcDbCircle
 10
23.43973535509114
 20
-2.032329153959163
 30
0.0
 40
0.015
  0
CIRCLE
  5
7EFD
330
2
100
AcDbEntity
  8
PCB_OUTLINE
100
AcDbCircle
 10
23.51973535509114
 20
-2.032329153959163
 30
0.0
 40
0.015
  0
CIRCLE
  5
7EFE
330
2
100
AcDbEntity
  8
PCB_OUTLINE
100
AcDbCircle
 10
23.99973535509113
 20
-1.712329153959164
 30
0.0
 40
0.015
  0
CIRCLE
  5
7EFF
330
2
100
AcDbEntity
  8
PCB_OUTLINE
100
AcDbCircle
 10
23.99973535509113
 20
-1.632329153959164
 30
0.0
 40
0.015
  0
CIRCLE
  5
7F00
330
2
100
AcDbEntity
  8
PCB_OUTLINE
100
AcDbCircle
 10
24.07973535509113
 20
-1.712329153959164
 30
0.0
 40
0.015
  0
CIRCLE
  5
7F01
330
2
100
AcDbEntity
  8
PCB_OUTLINE
100
AcDbCircle
 10
24.07973535509113
 20
-1.632329153959164
 30
0.0
 40
0.015
  0
CIRCLE
  5
7F02
330
2
100
AcDbEntity
  8
PCB_OUTLINE
100
AcDbCircle
 10
24.15973535509113
 20
-1.712329153959164
 30
0.0
 40
0.015
  0
CIRCLE
  5
7F03
330
2
100
AcDbEntity
  8
PCB_OUTLINE
100
AcDbCircle
 10
24.15973535509113
 20
-1.632329153959164
 30
0.0
 40
0.015
  0
CIRCLE
  5
7F04
330
2
100
AcDbEntity
  8
PCB_OUTLINE
100
AcDbCircle
 10
24.23973535509113
 20
-1.712329153959164
 30
0.0
 40
0.015
  0
CIRCLE
  5
7F05
330
2
100
AcDbEntity
  8
PCB_OUTLINE
100
AcDbCircle
 10
24.23973535509113
 20
-1.632329153959164
 30
0.0
 40
0.015
  0
CIRCLE
  5
7F06
330
2
100
AcDbEntity
  8
PCB_OUTLINE
100
AcDbCircle
 10
24.31973535509113
 20
-1.712329153959164
 30
0.0
 40
0.015
  0
CIRCLE
  5
7F07
330
2
100
AcDbEntity
  8
PCB_OUTLINE
100
AcDbCircle
 10
24.31973535509113
 20
-1.632329153959164
 30
0.0
 40
0.015
  0
CIRCLE
  5
7F08
330
2
100
AcDbEntity
  8
PCB_OUTLINE
100
AcDbCircle
 10
24.39973535509113
 20
-1.712329153959164
 30
0.0
 40
0.015
  0
CIRCLE
  5
7F09
330
2
100
AcDbEntity
  8
PCB_OUTLINE
100
AcDbCircle
 10
24.39973535509113
 20
-1.632329153959164
 30
0.0
 40
0.015
  0
CIRCLE
  5
7F0A
330
2
100
AcDbEntity
  8
PCB_OUTLINE
100
AcDbCircle
 10
24.55973535509113
 20
-1.712329153959164
 30
0.0
 40
0.015
  0
CIRCLE
  5
7F0B
330
2
100
AcDbEntity
  8
PCB_OUTLINE
100
AcDbCircle
 10
24.55973535509113
 20
-1.632329153959164
 30
0.0
 40
0.015
  0
CIRCLE
  5
7F0C
330
2
100
AcDbEntity
  8
PCB_OUTLINE
100
AcDbCircle
 10
24.47973535509112
 20
-1.712329153959164
 30
0.0
 40
0.015
  0
CIRCLE
  5
7F0D
330
2
100
AcDbEntity
  8
PCB_OUTLINE
100
AcDbCircle
 10
24.47973535509112
 20
-1.632329153959164
 30
0.0
 40
0.015
  0
CIRCLE
  5
7F0E
330
2
100
AcDbEntity
  8
PCB_OUTLINE
100
AcDbCircle
 10
23.99973535509113
 20
-1.552329153959163
 30
0.0
 40
0.015
  0
CIRCLE
  5
7F0F
330
2
100
AcDbEntity
  8
PCB_OUTLINE
100
AcDbCircle
 10
24.07973535509113
 20
-1.552329153959163
 30
0.0
 40
0.015
  0
CIRCLE
  5
7F10
330
2
100
AcDbEntity
  8
PCB_OUTLINE
100
AcDbCircle
 10
24.15973535509113
 20
-1.552329153959163
 30
0.0
 40
0.015
  0
CIRCLE
  5
7F11
330
2
100
AcDbEntity
  8
PCB_OUTLINE
100
AcDbCircle
 10
24.23973535509113
 20
-1.552329153959163
 30
0.0
 40
0.015
  0
CIRCLE
  5
7F12
330
2
100
AcDbEntity
  8
PCB_OUTLINE
100
AcDbCircle
 10
24.31973535509113
 20
-1.552329153959163
 30
0.0
 40
0.015
  0
CIRCLE
  5
7F13
330
2
100
AcDbEntity
  8
PCB_OUTLINE
100
AcDbCircle
 10
24.39973535509113
 20
-1.552329153959163
 30
0.0
 40
0.015
  0
CIRCLE
  5
7F14
330
2
100
AcDbEntity
  8
PCB_OUTLINE
100
AcDbCircle
 10
24.55973535509113
 20
-1.552329153959163
 30
0.0
 40
0.015
  0
CIRCLE
  5
7F15
330
2
100
AcDbEntity
  8
PCB_OUTLINE
100
AcDbCircle
 10
24.47973535509112
 20
-1.552329153959163
 30
0.0
 40
0.015
  0
CIRCLE
  5
7F16
330
2
100
AcDbEntity
  8
PCB_OUTLINE
100
AcDbCircle
 10
25.11973535509112
 20
-1.712329153959164
 30
0.0
 40
0.015
  0
CIRCLE
  5
7F17
330
2
100
AcDbEntity
  8
PCB_OUTLINE
100
AcDbCircle
 10
25.11973535509112
 20
-1.632329153959164
 30
0.0
 40
0.015
  0
CIRCLE
  5
7F18
330
2
100
AcDbEntity
  8
PCB_OUTLINE
100
AcDbCircle
 10
25.03973535509112
 20
-1.712329153959164
 30
0.0
 40
0.015
  0
CIRCLE
  5
7F19
330
2
100
AcDbEntity
  8
PCB_OUTLINE
100
AcDbCircle
 10
25.03973535509112
 20
-1.632329153959164
 30
0.0
 40
0.015
  0
CIRCLE
  5
7F1A
330
2
100
AcDbEntity
  8
PCB_OUTLINE
100
AcDbCircle
 10
24.95973535509112
 20
-1.712329153959164
 30
0.0
 40
0.015
  0
CIRCLE
  5
7F1B
330
2
100
AcDbEntity
  8
PCB_OUTLINE
100
AcDbCircle
 10
24.95973535509112
 20
-1.632329153959164
 30
0.0
 40
0.015
  0
CIRCLE
  5
7F1C
330
2
100
AcDbEntity
  8
PCB_OUTLINE
100
AcDbCircle
 10
24.87973535509113
 20
-1.712329153959164
 30
0.0
 40
0.015
  0
CIRCLE
  5
7F1D
330
2
100
AcDbEntity
  8
PCB_OUTLINE
100
AcDbCircle
 10
24.87973535509113
 20
-1.632329153959164
 30
0.0
 40
0.015
  0
CIRCLE
  5
7F1E
330
2
100
AcDbEntity
  8
PCB_OUTLINE
100
AcDbCircle
 10
24.79973535509112
 20
-1.712329153959164
 30
0.0
 40
0.015
  0
CIRCLE
  5
7F1F
330
2
100
AcDbEntity
  8
PCB_OUTLINE
100
AcDbCircle
 10
24.79973535509112
 20
-1.632329153959164
 30
0.0
 40
0.015
  0
CIRCLE
  5
7F20
330
2
100
AcDbEntity
  8
PCB_OUTLINE
100
AcDbCircle
 10
24.71973535509112
 20
-1.712329153959164
 30
0.0
 40
0.015
  0
CIRCLE
  5
7F21
330
2
100
AcDbEntity
  8
PCB_OUTLINE
100
AcDbCircle
 10
24.71973535509112
 20
-1.632329153959164
 30
0.0
 40
0.015
  0
CIRCLE
  5
7F22
330
2
100
AcDbEntity
  8
PCB_OUTLINE
100
AcDbCircle
 10
24.63973535509113
 20
-1.712329153959164
 30
0.0
 40
0.015
  0
CIRCLE
  5
7F23
330
2
100
AcDbEntity
  8
PCB_OUTLINE
100
AcDbCircle
 10
24.63973535509113
 20
-1.632329153959164
 30
0.0
 40
0.015
  0
CIRCLE
  5
7F24
330
2
100
AcDbEntity
  8
PCB_OUTLINE
100
AcDbCircle
 10
25.11973535509112
 20
-1.552329153959163
 30
0.0
 40
0.015
  0
CIRCLE
  5
7F25
330
2
100
AcDbEntity
  8
PCB_OUTLINE
100
AcDbCircle
 10
25.03973535509112
 20
-1.552329153959163
 30
0.0
 40
0.015
  0
CIRCLE
  5
7F26
330
2
100
AcDbEntity
  8
PCB_OUTLINE
100
AcDbCircle
 10
24.95973535509112
 20
-1.552329153959163
 30
0.0
 40
0.015
  0
CIRCLE
  5
7F27
330
2
100
AcDbEntity
  8
PCB_OUTLINE
100
AcDbCircle
 10
24.87973535509113
 20
-1.552329153959163
 30
0.0
 40
0.015
  0
CIRCLE
  5
7F28
330
2
100
AcDbEntity
  8
PCB_OUTLINE
100
AcDbCircle
 10
24.79973535509112
 20
-1.552329153959163
 30
0.0
 40
0.015
  0
CIRCLE
  5
7F29
330
2
100
AcDbEntity
  8
PCB_OUTLINE
100
AcDbCircle
 10
24.71973535509112
 20
-1.552329153959163
 30
0.0
 40
0.015
  0
CIRCLE
  5
7F2A
330
2
100
AcDbEntity
  8
PCB_OUTLINE
100
AcDbCircle
 10
24.63973535509113
 20
-1.552329153959163
 30
0.0
 40
0.015
  0
CIRCLE
  5
7F2B
330
2
100
AcDbEntity
  8
PCB_OUTLINE
100
AcDbCircle
 10
25.67973535509112
 20
-1.712329153959164
 30
0.0
 40
0.015
  0
CIRCLE
  5
7F2C
330
2
100
AcDbEntity
  8
PCB_OUTLINE
100
AcDbCircle
 10
25.67973535509112
 20
-1.632329153959164
 30
0.0
 40
0.015
  0
CIRCLE
  5
7F2D
330
2
100
AcDbEntity
  8
PCB_OUTLINE
100
AcDbCircle
 10
25.67973535509112
 20
-1.552329153959163
 30
0.0
 40
0.015
  0
CIRCLE
  5
7F2E
330
2
100
AcDbEntity
  8
PCB_OUTLINE
100
AcDbCircle
 10
25.43973535509112
 20
-1.712329153959164
 30
0.0
 40
0.015
  0
CIRCLE
  5
7F2F
330
2
100
AcDbEntity
  8
PCB_OUTLINE
100
AcDbCircle
 10
25.43973535509112
 20
-1.632329153959164
 30
0.0
 40
0.015
  0
CIRCLE
  5
7F30
330
2
100
AcDbEntity
  8
PCB_OUTLINE
100
AcDbCircle
 10
25.51973535509112
 20
-1.712329153959164
 30
0.0
 40
0.015
  0
CIRCLE
  5
7F31
330
2
100
AcDbEntity
  8
PCB_OUTLINE
100
AcDbCircle
 10
25.51973535509112
 20
-1.632329153959164
 30
0.0
 40
0.015
  0
CIRCLE
  5
7F32
330
2
100
AcDbEntity
  8
PCB_OUTLINE
100
AcDbCircle
 10
25.59973535509111
 20
-1.712329153959164
 30
0.0
 40
0.015
  0
CIRCLE
  5
7F33
330
2
100
AcDbEntity
  8
PCB_OUTLINE
100
AcDbCircle
 10
25.59973535509111
 20
-1.632329153959164
 30
0.0
 40
0.015
  0
CIRCLE
  5
7F34
330
2
100
AcDbEntity
  8
PCB_OUTLINE
100
AcDbCircle
 10
25.19973535509112
 20
-1.552329153959163
 30
0.0
 40
0.015
  0
CIRCLE
  5
7F35
330
2
100
AcDbEntity
  8
PCB_OUTLINE
100
AcDbCircle
 10
25.27973535509112
 20
-1.552329153959163
 30
0.0
 40
0.015
  0
CIRCLE
  5
7F36
330
2
100
AcDbEntity
  8
PCB_OUTLINE
100
AcDbCircle
 10
25.35973535509111
 20
-1.552329153959163
 30
0.0
 40
0.015
  0
CIRCLE
  5
7F37
330
2
100
AcDbEntity
  8
PCB_OUTLINE
100
AcDbCircle
 10
25.43973535509112
 20
-1.552329153959163
 30
0.0
 40
0.015
  0
CIRCLE
  5
7F38
330
2
100
AcDbEntity
  8
PCB_OUTLINE
100
AcDbCircle
 10
25.51973535509112
 20
-1.552329153959163
 30
0.0
 40
0.015
  0
CIRCLE
  5
7F39
330
2
100
AcDbEntity
  8
PCB_OUTLINE
100
AcDbCircle
 10
25.59973535509111
 20
-1.552329153959163
 30
0.0
 40
0.015
  0
CIRCLE
  5
7F3A
330
2
100
AcDbEntity
  8
PCB_OUTLINE
100
AcDbCircle
 10
23.67973535509113
 20
-1.712329153959164
 30
0.0
 40
0.015
  0
CIRCLE
  5
7F3B
330
2
100
AcDbEntity
  8
PCB_OUTLINE
100
AcDbCircle
 10
23.67973535509113
 20
-1.632329153959164
 30
0.0
 40
0.015
  0
CIRCLE
  5
7F3C
330
2
100
AcDbEntity
  8
PCB_OUTLINE
100
AcDbCircle
 10
23.59973535509113
 20
-1.712329153959164
 30
0.0
 40
0.015
  0
CIRCLE
  5
7F3D
330
2
100
AcDbEntity
  8
PCB_OUTLINE
100
AcDbCircle
 10
23.59973535509113
 20
-1.632329153959164
 30
0.0
 40
0.015
  0
CIRCLE
  5
7F3E
330
2
100
AcDbEntity
  8
PCB_OUTLINE
100
AcDbCircle
 10
23.43973535509114
 20
-1.712329153959164
 30
0.0
 40
0.015
  0
CIRCLE
  5
7F3F
330
2
100
AcDbEntity
  8
PCB_OUTLINE
100
AcDbCircle
 10
23.43973535509114
 20
-1.632329153959164
 30
0.0
 40
0.015
  0
CIRCLE
  5
7F40
330
2
100
AcDbEntity
  8
PCB_OUTLINE
100
AcDbCircle
 10
23.51973535509114
 20
-1.712329153959164
 30
0.0
 40
0.015
  0
CIRCLE
  5
7F41
330
2
100
AcDbEntity
  8
PCB_OUTLINE
100
AcDbCircle
 10
23.51973535509114
 20
-1.632329153959164
 30
0.0
 40
0.015
  0
CIRCLE
  5
7F42
330
2
100
AcDbEntity
  8
PCB_OUTLINE
100
AcDbCircle
 10
23.67973535509113
 20
-1.552329153959163
 30
0.0
 40
0.015
  0
CIRCLE
  5
7F43
330
2
100
AcDbEntity
  8
PCB_OUTLINE
100
AcDbCircle
 10
23.59973535509113
 20
-1.552329153959163
 30
0.0
 40
0.015
  0
CIRCLE
  5
7F44
330
2
100
AcDbEntity
  8
PCB_OUTLINE
100
AcDbCircle
 10
23.43973535509114
 20
-1.552329153959163
 30
0.0
 40
0.015
  0
CIRCLE
  5
7F45
330
2
100
AcDbEntity
  8
PCB_OUTLINE
100
AcDbCircle
 10
23.51973535509114
 20
-1.552329153959163
 30
0.0
 40
0.015
  0
CIRCLE
  5
7F46
330
2
100
AcDbEntity
  8
PCB_OUTLINE
100
AcDbCircle
 10
23.75973535509113
 20
-1.552329153959163
 30
0.0
 40
0.015
  0
CIRCLE
  5
7F47
330
2
100
AcDbEntity
  8
PCB_OUTLINE
100
AcDbCircle
 10
23.91973535509112
 20
-1.552329153959163
 30
0.0
 40
0.015
  0
CIRCLE
  5
7F48
330
2
100
AcDbEntity
  8
PCB_OUTLINE
100
AcDbCircle
 10
23.83973535509112
 20
-1.552329153959163
 30
0.0
 40
0.015
  0
CIRCLE
  5
7F49
330
2
100
AcDbEntity
  8
PCB_OUTLINE
100
AcDbCircle
 10
23.67973535509113
 20
-1.392329153959164
 30
0.0
 40
0.015
  0
CIRCLE
  5
7F4A
330
2
100
AcDbEntity
  8
PCB_OUTLINE
100
AcDbCircle
 10
23.67973535509113
 20
-1.472329153959164
 30
0.0
 40
0.015
  0
CIRCLE
  5
7F4B
330
2
100
AcDbEntity
  8
PCB_OUTLINE
100
AcDbCircle
 10
23.59973535509113
 20
-1.392329153959164
 30
0.0
 40
0.015
  0
CIRCLE
  5
7F4C
330
2
100
AcDbEntity
  8
PCB_OUTLINE
100
AcDbCircle
 10
23.59973535509113
 20
-1.472329153959164
 30
0.0
 40
0.015
  0
CIRCLE
  5
7F4D
330
2
100
AcDbEntity
  8
PCB_OUTLINE
100
AcDbCircle
 10
23.43973535509114
 20
-1.392329153959164
 30
0.0
 40
0.015
  0
CIRCLE
  5
7F4E
330
2
100
AcDbEntity
  8
PCB_OUTLINE
100
AcDbCircle
 10
23.43973535509114
 20
-1.472329153959164
 30
0.0
 40
0.015
  0
CIRCLE
  5
7F4F
330
2
100
AcDbEntity
  8
PCB_OUTLINE
100
AcDbCircle
 10
23.51973535509114
 20
-1.392329153959164
 30
0.0
 40
0.015
  0
CIRCLE
  5
7F50
330
2
100
AcDbEntity
  8
PCB_OUTLINE
100
AcDbCircle
 10
23.51973535509114
 20
-1.472329153959164
 30
0.0
 40
0.015
  0
CIRCLE
  5
7F51
330
2
100
AcDbEntity
  8
PCB_OUTLINE
100
AcDbCircle
 10
23.75973535509113
 20
-1.392329153959164
 30
0.0
 40
0.015
  0
CIRCLE
  5
7F52
330
2
100
AcDbEntity
  8
PCB_OUTLINE
100
AcDbCircle
 10
23.75973535509113
 20
-1.472329153959164
 30
0.0
 40
0.015
  0
CIRCLE
  5
7F53
330
2
100
AcDbEntity
  8
PCB_OUTLINE
100
AcDbCircle
 10
23.91973535509112
 20
-1.392329153959164
 30
0.0
 40
0.015
  0
CIRCLE
  5
7F54
330
2
100
AcDbEntity
  8
PCB_OUTLINE
100
AcDbCircle
 10
23.91973535509112
 20
-1.472329153959164
 30
0.0
 40
0.015
  0
CIRCLE
  5
7F55
330
2
100
AcDbEntity
  8
PCB_OUTLINE
100
AcDbCircle
 10
23.83973535509112
 20
-1.392329153959164
 30
0.0
 40
0.015
  0
CIRCLE
  5
7F56
330
2
100
AcDbEntity
  8
PCB_OUTLINE
100
AcDbCircle
 10
23.83973535509112
 20
-1.472329153959164
 30
0.0
 40
0.015
  0
CIRCLE
  5
7F57
330
2
100
AcDbEntity
  8
PCB_OUTLINE
100
AcDbCircle
 10
24.15973535509112
 20
-1.392329153959164
 30
0.0
 40
0.015
  0
CIRCLE
  5
7F58
330
2
100
AcDbEntity
  8
PCB_OUTLINE
100
AcDbCircle
 10
24.15973535509112
 20
-1.472329153959164
 30
0.0
 40
0.015
  0
CIRCLE
  5
7F59
330
2
100
AcDbEntity
  8
PCB_OUTLINE
100
AcDbCircle
 10
24.23973535509112
 20
-1.392329153959164
 30
0.0
 40
0.015
  0
CIRCLE
  5
7F5A
330
2
100
AcDbEntity
  8
PCB_OUTLINE
100
AcDbCircle
 10
24.23973535509112
 20
-1.472329153959164
 30
0.0
 40
0.015
  0
CIRCLE
  5
7F5B
330
2
100
AcDbEntity
  8
PCB_OUTLINE
100
AcDbCircle
 10
24.39973535509111
 20
-1.392329153959164
 30
0.0
 40
0.015
  0
CIRCLE
  5
7F5C
330
2
100
AcDbEntity
  8
PCB_OUTLINE
100
AcDbCircle
 10
24.39973535509111
 20
-1.472329153959164
 30
0.0
 40
0.015
  0
CIRCLE
  5
7F5D
330
2
100
AcDbEntity
  8
PCB_OUTLINE
100
AcDbCircle
 10
24.31973535509111
 20
-1.392329153959164
 30
0.0
 40
0.015
  0
CIRCLE
  5
7F5E
330
2
100
AcDbEntity
  8
PCB_OUTLINE
100
AcDbCircle
 10
24.31973535509111
 20
-1.472329153959164
 30
0.0
 40
0.015
  0
CIRCLE
  5
7F5F
330
2
100
AcDbEntity
  8
PCB_OUTLINE
100
AcDbCircle
 10
24.07973535509112
 20
-1.392329153959164
 30
0.0
 40
0.015
  0
CIRCLE
  5
7F60
330
2
100
AcDbEntity
  8
PCB_OUTLINE
100
AcDbCircle
 10
24.07973535509112
 20
-1.472329153959164
 30
0.0
 40
0.015
  0
CIRCLE
  5
7F61
330
2
100
AcDbEntity
  8
PCB_OUTLINE
100
AcDbCircle
 10
23.99973535509113
 20
-1.392329153959164
 30
0.0
 40
0.015
  0
CIRCLE
  5
7F62
330
2
100
AcDbEntity
  8
PCB_OUTLINE
100
AcDbCircle
 10
23.99973535509113
 20
-1.472329153959164
 30
0.0
 40
0.015
  0
CIRCLE
  5
7F63
330
2
100
AcDbEntity
  8
PCB_OUTLINE
100
AcDbCircle
 10
24.55973535509113
 20
-1.392329153959164
 30
0.0
 40
0.015
  0
CIRCLE
  5
7F64
330
2
100
AcDbEntity
  8
PCB_OUTLINE
100
AcDbCircle
 10
24.55973535509113
 20
-1.472329153959164
 30
0.0
 40
0.015
  0
CIRCLE
  5
7F65
330
2
100
AcDbEntity
  8
PCB_OUTLINE
100
AcDbCircle
 10
24.47973535509112
 20
-1.392329153959164
 30
0.0
 40
0.015
  0
CIRCLE
  5
7F66
330
2
100
AcDbEntity
  8
PCB_OUTLINE
100
AcDbCircle
 10
24.47973535509112
 20
-1.472329153959164
 30
0.0
 40
0.015
  0
CIRCLE
  5
7F67
330
2
100
AcDbEntity
  8
PCB_OUTLINE
100
AcDbCircle
 10
25.11973535509112
 20
-1.392329153959164
 30
0.0
 40
0.015
  0
CIRCLE
  5
7F68
330
2
100
AcDbEntity
  8
PCB_OUTLINE
100
AcDbCircle
 10
25.11973535509112
 20
-1.472329153959164
 30
0.0
 40
0.015
  0
CIRCLE
  5
7F69
330
2
100
AcDbEntity
  8
PCB_OUTLINE
100
AcDbCircle
 10
25.03973535509112
 20
-1.392329153959164
 30
0.0
 40
0.015
  0
CIRCLE
  5
7F6A
330
2
100
AcDbEntity
  8
PCB_OUTLINE
100
AcDbCircle
 10
25.03973535509112
 20
-1.472329153959164
 30
0.0
 40
0.015
  0
CIRCLE
  5
7F6B
330
2
100
AcDbEntity
  8
PCB_OUTLINE
100
AcDbCircle
 10
24.95973535509112
 20
-1.392329153959164
 30
0.0
 40
0.015
  0
CIRCLE
  5
7F6C
330
2
100
AcDbEntity
  8
PCB_OUTLINE
100
AcDbCircle
 10
24.95973535509112
 20
-1.472329153959164
 30
0.0
 40
0.015
  0
CIRCLE
  5
7F6D
330
2
100
AcDbEntity
  8
PCB_OUTLINE
100
AcDbCircle
 10
24.87973535509113
 20
-1.392329153959164
 30
0.0
 40
0.015
  0
CIRCLE
  5
7F6E
330
2
100
AcDbEntity
  8
PCB_OUTLINE
100
AcDbCircle
 10
24.87973535509113
 20
-1.472329153959164
 30
0.0
 40
0.015
  0
CIRCLE
  5
7F6F
330
2
100
AcDbEntity
  8
PCB_OUTLINE
100
AcDbCircle
 10
24.79973535509112
 20
-1.392329153959164
 30
0.0
 40
0.015
  0
CIRCLE
  5
7F70
330
2
100
AcDbEntity
  8
PCB_OUTLINE
100
AcDbCircle
 10
24.79973535509112
 20
-1.472329153959164
 30
0.0
 40
0.015
  0
CIRCLE
  5
7F71
330
2
100
AcDbEntity
  8
PCB_OUTLINE
100
AcDbCircle
 10
24.71973535509112
 20
-1.392329153959164
 30
0.0
 40
0.015
  0
CIRCLE
  5
7F72
330
2
100
AcDbEntity
  8
PCB_OUTLINE
100
AcDbCircle
 10
24.71973535509112
 20
-1.472329153959164
 30
0.0
 40
0.015
  0
CIRCLE
  5
7F73
330
2
100
AcDbEntity
  8
PCB_OUTLINE
100
AcDbCircle
 10
24.63973535509113
 20
-1.392329153959164
 30
0.0
 40
0.015
  0
CIRCLE
  5
7F74
330
2
100
AcDbEntity
  8
PCB_OUTLINE
100
AcDbCircle
 10
24.63973535509113
 20
-1.472329153959164
 30
0.0
 40
0.015
  0
CIRCLE
  5
7F75
330
2
100
AcDbEntity
  8
PCB_OUTLINE
100
AcDbCircle
 10
25.67973535509112
 20
-1.392329153959164
 30
0.0
 40
0.015
  0
CIRCLE
  5
7F76
330
2
100
AcDbEntity
  8
PCB_OUTLINE
100
AcDbCircle
 10
25.67973535509112
 20
-1.472329153959164
 30
0.0
 40
0.015
  0
CIRCLE
  5
7F77
330
2
100
AcDbEntity
  8
PCB_OUTLINE
100
AcDbCircle
 10
25.19973535509112
 20
-1.392329153959164
 30
0.0
 40
0.015
  0
CIRCLE
  5
7F78
330
2
100
AcDbEntity
  8
PCB_OUTLINE
100
AcDbCircle
 10
25.19973535509112
 20
-1.472329153959164
 30
0.0
 40
0.015
  0
CIRCLE
  5
7F79
330
2
100
AcDbEntity
  8
PCB_OUTLINE
100
AcDbCircle
 10
25.27973535509112
 20
-1.392329153959164
 30
0.0
 40
0.015
  0
CIRCLE
  5
7F7A
330
2
100
AcDbEntity
  8
PCB_OUTLINE
100
AcDbCircle
 10
25.27973535509112
 20
-1.472329153959164
 30
0.0
 40
0.015
  0
CIRCLE
  5
7F7B
330
2
100
AcDbEntity
  8
PCB_OUTLINE
100
AcDbCircle
 10
25.35973535509111
 20
-1.392329153959164
 30
0.0
 40
0.015
  0
CIRCLE
  5
7F7C
330
2
100
AcDbEntity
  8
PCB_OUTLINE
100
AcDbCircle
 10
25.35973535509111
 20
-1.472329153959164
 30
0.0
 40
0.015
  0
CIRCLE
  5
7F7D
330
2
100
AcDbEntity
  8
PCB_OUTLINE
100
AcDbCircle
 10
25.43973535509112
 20
-1.392329153959164
 30
0.0
 40
0.015
  0
CIRCLE
  5
7F7E
330
2
100
AcDbEntity
  8
PCB_OUTLINE
100
AcDbCircle
 10
25.43973535509112
 20
-1.472329153959164
 30
0.0
 40
0.015
  0
CIRCLE
  5
7F7F
330
2
100
AcDbEntity
  8
PCB_OUTLINE
100
AcDbCircle
 10
25.51973535509112
 20
-1.392329153959164
 30
0.0
 40
0.015
  0
CIRCLE
  5
7F80
330
2
100
AcDbEntity
  8
PCB_OUTLINE
100
AcDbCircle
 10
25.51973535509112
 20
-1.472329153959164
 30
0.0
 40
0.015
  0
CIRCLE
  5
7F81
330
2
100
AcDbEntity
  8
PCB_OUTLINE
100
AcDbCircle
 10
25.59973535509111
 20
-1.392329153959164
 30
0.0
 40
0.015
  0
CIRCLE
  5
7F82
330
2
100
AcDbEntity
  8
PCB_OUTLINE
100
AcDbCircle
 10
25.59973535509111
 20
-1.472329153959164
 30
0.0
 40
0.015
  0
CIRCLE
  5
7F83
330
2
100
AcDbEntity
  8
PCB_OUTLINE
100
AcDbCircle
 10
23.99973535509113
 20
-1.232329153959164
 30
0.0
 40
0.015
  0
CIRCLE
  5
7F84
330
2
100
AcDbEntity
  8
PCB_OUTLINE
100
AcDbCircle
 10
24.07973535509113
 20
-1.232329153959164
 30
0.0
 40
0.015
  0
CIRCLE
  5
7F85
330
2
100
AcDbEntity
  8
PCB_OUTLINE
100
AcDbCircle
 10
24.15973535509113
 20
-1.232329153959164
 30
0.0
 40
0.015
  0
CIRCLE
  5
7F86
330
2
100
AcDbEntity
  8
PCB_OUTLINE
100
AcDbCircle
 10
24.23973535509113
 20
-1.232329153959164
 30
0.0
 40
0.015
  0
CIRCLE
  5
7F87
330
2
100
AcDbEntity
  8
PCB_OUTLINE
100
AcDbCircle
 10
24.31973535509113
 20
-1.232329153959164
 30
0.0
 40
0.015
  0
CIRCLE
  5
7F88
330
2
100
AcDbEntity
  8
PCB_OUTLINE
100
AcDbCircle
 10
24.39973535509113
 20
-1.232329153959164
 30
0.0
 40
0.015
  0
CIRCLE
  5
7F89
330
2
100
AcDbEntity
  8
PCB_OUTLINE
100
AcDbCircle
 10
24.55973535509113
 20
-1.232329153959164
 30
0.0
 40
0.015
  0
CIRCLE
  5
7F8A
330
2
100
AcDbEntity
  8
PCB_OUTLINE
100
AcDbCircle
 10
24.47973535509112
 20
-1.232329153959164
 30
0.0
 40
0.015
  0
CIRCLE
  5
7F8B
330
2
100
AcDbEntity
  8
PCB_OUTLINE
100
AcDbCircle
 10
25.11973535509112
 20
-1.232329153959164
 30
0.0
 40
0.015
  0
CIRCLE
  5
7F8C
330
2
100
AcDbEntity
  8
PCB_OUTLINE
100
AcDbCircle
 10
25.03973535509112
 20
-1.232329153959164
 30
0.0
 40
0.015
  0
CIRCLE
  5
7F8D
330
2
100
AcDbEntity
  8
PCB_OUTLINE
100
AcDbCircle
 10
24.95973535509112
 20
-1.232329153959164
 30
0.0
 40
0.015
  0
CIRCLE
  5
7F8E
330
2
100
AcDbEntity
  8
PCB_OUTLINE
100
AcDbCircle
 10
24.87973535509113
 20
-1.232329153959164
 30
0.0
 40
0.015
  0
CIRCLE
  5
7F8F
330
2
100
AcDbEntity
  8
PCB_OUTLINE
100
AcDbCircle
 10
24.79973535509112
 20
-1.232329153959164
 30
0.0
 40
0.015
  0
CIRCLE
  5
7F90
330
2
100
AcDbEntity
  8
PCB_OUTLINE
100
AcDbCircle
 10
24.71973535509112
 20
-1.232329153959164
 30
0.0
 40
0.015
  0
CIRCLE
  5
7F91
330
2
100
AcDbEntity
  8
PCB_OUTLINE
100
AcDbCircle
 10
24.63973535509113
 20
-1.232329153959164
 30
0.0
 40
0.015
  0
CIRCLE
  5
7F92
330
2
100
AcDbEntity
  8
PCB_OUTLINE
100
AcDbCircle
 10
23.91973535509112
 20
-1.312329153959163
 30
0.0
 40
0.015
  0
CIRCLE
  5
7F93
330
2
100
AcDbEntity
  8
PCB_OUTLINE
100
AcDbCircle
 10
23.83973535509112
 20
-1.312329153959163
 30
0.0
 40
0.015
  0
CIRCLE
  5
7F94
330
2
100
AcDbEntity
  8
PCB_OUTLINE
100
AcDbCircle
 10
24.15973535509112
 20
-1.312329153959163
 30
0.0
 40
0.015
  0
CIRCLE
  5
7F95
330
2
100
AcDbEntity
  8
PCB_OUTLINE
100
AcDbCircle
 10
24.23973535509112
 20
-1.312329153959163
 30
0.0
 40
0.015
  0
CIRCLE
  5
7F96
330
2
100
AcDbEntity
  8
PCB_OUTLINE
100
AcDbCircle
 10
24.39973535509111
 20
-1.312329153959163
 30
0.0
 40
0.015
  0
CIRCLE
  5
7F97
330
2
100
AcDbEntity
  8
PCB_OUTLINE
100
AcDbCircle
 10
24.31973535509111
 20
-1.312329153959163
 30
0.0
 40
0.015
  0
CIRCLE
  5
7F98
330
2
100
AcDbEntity
  8
PCB_OUTLINE
100
AcDbCircle
 10
24.07973535509112
 20
-1.312329153959163
 30
0.0
 40
0.015
  0
CIRCLE
  5
7F99
330
2
100
AcDbEntity
  8
PCB_OUTLINE
100
AcDbCircle
 10
23.99973535509113
 20
-1.312329153959163
 30
0.0
 40
0.015
  0
CIRCLE
  5
7F9A
330
2
100
AcDbEntity
  8
PCB_OUTLINE
100
AcDbCircle
 10
24.55973535509113
 20
-1.312329153959163
 30
0.0
 40
0.015
  0
CIRCLE
  5
7F9B
330
2
100
AcDbEntity
  8
PCB_OUTLINE
100
AcDbCircle
 10
24.47973535509112
 20
-1.312329153959163
 30
0.0
 40
0.015
  0
CIRCLE
  5
7F9C
330
2
100
AcDbEntity
  8
PCB_OUTLINE
100
AcDbCircle
 10
25.11973535509112
 20
-1.312329153959163
 30
0.0
 40
0.015
  0
CIRCLE
  5
7F9D
330
2
100
AcDbEntity
  8
PCB_OUTLINE
100
AcDbCircle
 10
25.03973535509112
 20
-1.312329153959163
 30
0.0
 40
0.015
  0
CIRCLE
  5
7F9E
330
2
100
AcDbEntity
  8
PCB_OUTLINE
100
AcDbCircle
 10
24.95973535509112
 20
-1.312329153959163
 30
0.0
 40
0.015
  0
CIRCLE
  5
7F9F
330
2
100
AcDbEntity
  8
PCB_OUTLINE
100
AcDbCircle
 10
24.87973535509113
 20
-1.312329153959163
 30
0.0
 40
0.015
  0
CIRCLE
  5
7FA0
330
2
100
AcDbEntity
  8
PCB_OUTLINE
100
AcDbCircle
 10
24.79973535509112
 20
-1.312329153959163
 30
0.0
 40
0.015
  0
CIRCLE
  5
7FA1
330
2
100
AcDbEntity
  8
PCB_OUTLINE
100
AcDbCircle
 10
24.71973535509112
 20
-1.312329153959163
 30
0.0
 40
0.015
  0
CIRCLE
  5
7FA2
330
2
100
AcDbEntity
  8
PCB_OUTLINE
100
AcDbCircle
 10
24.63973535509113
 20
-1.312329153959163
 30
0.0
 40
0.015
  0
CIRCLE
  5
7FA3
330
2
100
AcDbEntity
  8
PCB_OUTLINE
100
AcDbCircle
 10
25.19973535509112
 20
-1.312329153959163
 30
0.0
 40
0.015
  0
CIRCLE
  5
7FA4
330
2
100
AcDbEntity
  8
PCB_OUTLINE
100
AcDbCircle
 10
25.27973535509112
 20
-1.312329153959163
 30
0.0
 40
0.015
  0
CIRCLE
  5
7FA5
330
2
100
AcDbEntity
  8
PCB_OUTLINE
100
AcDbCircle
 10
23.91973535509112
 20
-1.072329153959163
 30
0.0
 40
0.015
  0
CIRCLE
  5
7FA6
330
2
100
AcDbEntity
  8
PCB_OUTLINE
100
AcDbCircle
 10
23.91973535509112
 20
-0.9923291539591636
 30
0.0
 40
0.015
  0
CIRCLE
  5
7FA7
330
2
100
AcDbEntity
  8
PCB_OUTLINE
100
AcDbCircle
 10
23.83973535509112
 20
-1.072329153959163
 30
0.0
 40
0.015
  0
CIRCLE
  5
7FA8
330
2
100
AcDbEntity
  8
PCB_OUTLINE
100
AcDbCircle
 10
23.83973535509112
 20
-0.9923291539591636
 30
0.0
 40
0.015
  0
CIRCLE
  5
7FA9
330
2
100
AcDbEntity
  8
PCB_OUTLINE
100
AcDbCircle
 10
24.15973535509112
 20
-1.072329153959163
 30
0.0
 40
0.015
  0
CIRCLE
  5
7FAA
330
2
100
AcDbEntity
  8
PCB_OUTLINE
100
AcDbCircle
 10
24.15973535509112
 20
-0.9923291539591636
 30
0.0
 40
0.015
  0
CIRCLE
  5
7FAB
330
2
100
AcDbEntity
  8
PCB_OUTLINE
100
AcDbCircle
 10
24.23973535509112
 20
-1.072329153959163
 30
0.0
 40
0.015
  0
CIRCLE
  5
7FAC
330
2
100
AcDbEntity
  8
PCB_OUTLINE
100
AcDbCircle
 10
24.23973535509112
 20
-0.9923291539591636
 30
0.0
 40
0.015
  0
CIRCLE
  5
7FAD
330
2
100
AcDbEntity
  8
PCB_OUTLINE
100
AcDbCircle
 10
24.39973535509111
 20
-1.072329153959163
 30
0.0
 40
0.015
  0
CIRCLE
  5
7FAE
330
2
100
AcDbEntity
  8
PCB_OUTLINE
100
AcDbCircle
 10
24.39973535509111
 20
-0.9923291539591636
 30
0.0
 40
0.015
  0
CIRCLE
  5
7FAF
330
2
100
AcDbEntity
  8
PCB_OUTLINE
100
AcDbCircle
 10
24.31973535509111
 20
-1.072329153959163
 30
0.0
 40
0.015
  0
CIRCLE
  5
7FB0
330
2
100
AcDbEntity
  8
PCB_OUTLINE
100
AcDbCircle
 10
24.31973535509111
 20
-0.9923291539591636
 30
0.0
 40
0.015
  0
CIRCLE
  5
7FB1
330
2
100
AcDbEntity
  8
PCB_OUTLINE
100
AcDbCircle
 10
24.07973535509112
 20
-1.072329153959163
 30
0.0
 40
0.015
  0
CIRCLE
  5
7FB2
330
2
100
AcDbEntity
  8
PCB_OUTLINE
100
AcDbCircle
 10
24.07973535509112
 20
-0.9923291539591636
 30
0.0
 40
0.015
  0
CIRCLE
  5
7FB3
330
2
100
AcDbEntity
  8
PCB_OUTLINE
100
AcDbCircle
 10
23.99973535509113
 20
-1.072329153959163
 30
0.0
 40
0.015
  0
CIRCLE
  5
7FB4
330
2
100
AcDbEntity
  8
PCB_OUTLINE
100
AcDbCircle
 10
23.99973535509113
 20
-0.9923291539591636
 30
0.0
 40
0.015
  0
CIRCLE
  5
7FB5
330
2
100
AcDbEntity
  8
PCB_OUTLINE
100
AcDbCircle
 10
24.55973535509113
 20
-1.072329153959163
 30
0.0
 40
0.015
  0
CIRCLE
  5
7FB6
330
2
100
AcDbEntity
  8
PCB_OUTLINE
100
AcDbCircle
 10
24.55973535509113
 20
-0.9923291539591636
 30
0.0
 40
0.015
  0
CIRCLE
  5
7FB7
330
2
100
AcDbEntity
  8
PCB_OUTLINE
100
AcDbCircle
 10
24.47973535509112
 20
-1.072329153959163
 30
0.0
 40
0.015
  0
CIRCLE
  5
7FB8
330
2
100
AcDbEntity
  8
PCB_OUTLINE
100
AcDbCircle
 10
24.47973535509112
 20
-0.9923291539591636
 30
0.0
 40
0.015
  0
CIRCLE
  5
7FB9
330
2
100
AcDbEntity
  8
PCB_OUTLINE
100
AcDbCircle
 10
25.11973535509112
 20
-1.072329153959163
 30
0.0
 40
0.015
  0
CIRCLE
  5
7FBA
330
2
100
AcDbEntity
  8
PCB_OUTLINE
100
AcDbCircle
 10
25.11973535509112
 20
-0.9923291539591636
 30
0.0
 40
0.015
  0
CIRCLE
  5
7FBB
330
2
100
AcDbEntity
  8
PCB_OUTLINE
100
AcDbCircle
 10
25.03973535509112
 20
-1.072329153959163
 30
0.0
 40
0.015
  0
CIRCLE
  5
7FBC
330
2
100
AcDbEntity
  8
PCB_OUTLINE
100
AcDbCircle
 10
25.03973535509112
 20
-0.9923291539591636
 30
0.0
 40
0.015
  0
CIRCLE
  5
7FBD
330
2
100
AcDbEntity
  8
PCB_OUTLINE
100
AcDbCircle
 10
24.95973535509112
 20
-1.072329153959163
 30
0.0
 40
0.015
  0
CIRCLE
  5
7FBE
330
2
100
AcDbEntity
  8
PCB_OUTLINE
100
AcDbCircle
 10
24.95973535509112
 20
-0.9923291539591636
 30
0.0
 40
0.015
  0
CIRCLE
  5
7FBF
330
2
100
AcDbEntity
  8
PCB_OUTLINE
100
AcDbCircle
 10
24.87973535509113
 20
-1.072329153959163
 30
0.0
 40
0.015
  0
CIRCLE
  5
7FC0
330
2
100
AcDbEntity
  8
PCB_OUTLINE
100
AcDbCircle
 10
24.87973535509113
 20
-0.9923291539591636
 30
0.0
 40
0.015
  0
CIRCLE
  5
7FC1
330
2
100
AcDbEntity
  8
PCB_OUTLINE
100
AcDbCircle
 10
24.79973535509112
 20
-1.072329153959163
 30
0.0
 40
0.015
  0
CIRCLE
  5
7FC2
330
2
100
AcDbEntity
  8
PCB_OUTLINE
100
AcDbCircle
 10
24.79973535509112
 20
-0.9923291539591636
 30
0.0
 40
0.015
  0
CIRCLE
  5
7FC3
330
2
100
AcDbEntity
  8
PCB_OUTLINE
100
AcDbCircle
 10
24.71973535509112
 20
-1.072329153959163
 30
0.0
 40
0.015
  0
CIRCLE
  5
7FC4
330
2
100
AcDbEntity
  8
PCB_OUTLINE
100
AcDbCircle
 10
24.71973535509112
 20
-0.9923291539591636
 30
0.0
 40
0.015
  0
CIRCLE
  5
7FC5
330
2
100
AcDbEntity
  8
PCB_OUTLINE
100
AcDbCircle
 10
24.63973535509113
 20
-1.072329153959163
 30
0.0
 40
0.015
  0
CIRCLE
  5
7FC6
330
2
100
AcDbEntity
  8
PCB_OUTLINE
100
AcDbCircle
 10
24.63973535509113
 20
-0.9923291539591636
 30
0.0
 40
0.015
  0
CIRCLE
  5
7FC7
330
2
100
AcDbEntity
  8
PCB_OUTLINE
100
AcDbCircle
 10
25.19973535509112
 20
-1.072329153959163
 30
0.0
 40
0.015
  0
CIRCLE
  5
7FC8
330
2
100
AcDbEntity
  8
PCB_OUTLINE
100
AcDbCircle
 10
25.19973535509112
 20
-0.9923291539591636
 30
0.0
 40
0.015
  0
CIRCLE
  5
7FC9
330
2
100
AcDbEntity
  8
PCB_OUTLINE
100
AcDbCircle
 10
25.27973535509112
 20
-1.072329153959163
 30
0.0
 40
0.015
  0
CIRCLE
  5
7FCA
330
2
100
AcDbEntity
  8
PCB_OUTLINE
100
AcDbCircle
 10
25.27973535509112
 20
-0.9923291539591636
 30
0.0
 40
0.015
  0
CIRCLE
  5
7FCB
330
2
100
AcDbEntity
  8
PCB_OUTLINE
100
AcDbCircle
 10
24.15973535509112
 20
-1.152329153959164
 30
0.0
 40
0.015
  0
CIRCLE
  5
7FCC
330
2
100
AcDbEntity
  8
PCB_OUTLINE
100
AcDbCircle
 10
24.23973535509112
 20
-1.152329153959164
 30
0.0
 40
0.015
  0
CIRCLE
  5
7FCD
330
2
100
AcDbEntity
  8
PCB_OUTLINE
100
AcDbCircle
 10
24.39973535509111
 20
-1.152329153959164
 30
0.0
 40
0.015
  0
CIRCLE
  5
7FCE
330
2
100
AcDbEntity
  8
PCB_OUTLINE
100
AcDbCircle
 10
24.31973535509111
 20
-1.152329153959164
 30
0.0
 40
0.015
  0
CIRCLE
  5
7FCF
330
2
100
AcDbEntity
  8
PCB_OUTLINE
100
AcDbCircle
 10
24.07973535509112
 20
-1.152329153959164
 30
0.0
 40
0.015
  0
CIRCLE
  5
7FD0
330
2
100
AcDbEntity
  8
PCB_OUTLINE
100
AcDbCircle
 10
23.99973535509113
 20
-1.152329153959164
 30
0.0
 40
0.015
  0
CIRCLE
  5
7FD1
330
2
100
AcDbEntity
  8
PCB_OUTLINE
100
AcDbCircle
 10
24.55973535509113
 20
-1.152329153959164
 30
0.0
 40
0.015
  0
CIRCLE
  5
7FD2
330
2
100
AcDbEntity
  8
PCB_OUTLINE
100
AcDbCircle
 10
24.47973535509112
 20
-1.152329153959164
 30
0.0
 40
0.015
  0
CIRCLE
  5
7FD3
330
2
100
AcDbEntity
  8
PCB_OUTLINE
100
AcDbCircle
 10
25.11973535509112
 20
-1.152329153959164
 30
0.0
 40
0.015
  0
CIRCLE
  5
7FD4
330
2
100
AcDbEntity
  8
PCB_OUTLINE
100
AcDbCircle
 10
25.03973535509112
 20
-1.152329153959164
 30
0.0
 40
0.015
  0
CIRCLE
  5
7FD5
330
2
100
AcDbEntity
  8
PCB_OUTLINE
100
AcDbCircle
 10
24.95973535509112
 20
-1.152329153959164
 30
0.0
 40
0.015
  0
CIRCLE
  5
7FD6
330
2
100
AcDbEntity
  8
PCB_OUTLINE
100
AcDbCircle
 10
24.87973535509113
 20
-1.152329153959164
 30
0.0
 40
0.015
  0
CIRCLE
  5
7FD7
330
2
100
AcDbEntity
  8
PCB_OUTLINE
100
AcDbCircle
 10
24.79973535509112
 20
-1.152329153959164
 30
0.0
 40
0.015
  0
CIRCLE
  5
7FD8
330
2
100
AcDbEntity
  8
PCB_OUTLINE
100
AcDbCircle
 10
24.71973535509112
 20
-1.152329153959164
 30
0.0
 40
0.015
  0
CIRCLE
  5
7FD9
330
2
100
AcDbEntity
  8
PCB_OUTLINE
100
AcDbCircle
 10
24.63973535509113
 20
-1.152329153959164
 30
0.0
 40
0.015
  0
CIRCLE
  5
7FDA
330
2
100
AcDbEntity
  8
PCB_OUTLINE
100
AcDbCircle
 10
23.91973535509112
 20
-0.9123291539591635
 30
0.0
 40
0.015
  0
CIRCLE
  5
7FDB
330
2
100
AcDbEntity
  8
PCB_OUTLINE
100
AcDbCircle
 10
23.83973535509112
 20
-0.9123291539591635
 30
0.0
 40
0.015
  0
CIRCLE
  5
7FDC
330
2
100
AcDbEntity
  8
PCB_OUTLINE
100
AcDbCircle
 10
24.15973535509112
 20
-0.9123291539591635
 30
0.0
 40
0.015
  0
CIRCLE
  5
7FDD
330
2
100
AcDbEntity
  8
PCB_OUTLINE
100
AcDbCircle
 10
24.23973535509112
 20
-0.9123291539591635
 30
0.0
 40
0.015
  0
CIRCLE
  5
7FDE
330
2
100
AcDbEntity
  8
PCB_OUTLINE
100
AcDbCircle
 10
24.39973535509111
 20
-0.9123291539591635
 30
0.0
 40
0.015
  0
CIRCLE
  5
7FDF
330
2
100
AcDbEntity
  8
PCB_OUTLINE
100
AcDbCircle
 10
24.31973535509111
 20
-0.9123291539591635
 30
0.0
 40
0.015
  0
CIRCLE
  5
7FE0
330
2
100
AcDbEntity
  8
PCB_OUTLINE
100
AcDbCircle
 10
24.07973535509112
 20
-0.9123291539591635
 30
0.0
 40
0.015
  0
CIRCLE
  5
7FE1
330
2
100
AcDbEntity
  8
PCB_OUTLINE
100
AcDbCircle
 10
23.99973535509113
 20
-0.9123291539591635
 30
0.0
 40
0.015
  0
CIRCLE
  5
7FE2
330
2
100
AcDbEntity
  8
PCB_OUTLINE
100
AcDbCircle
 10
24.55973535509113
 20
-0.9123291539591635
 30
0.0
 40
0.015
  0
CIRCLE
  5
7FE3
330
2
100
AcDbEntity
  8
PCB_OUTLINE
100
AcDbCircle
 10
24.47973535509112
 20
-0.9123291539591635
 30
0.0
 40
0.015
  0
CIRCLE
  5
7FE4
330
2
100
AcDbEntity
  8
PCB_OUTLINE
100
AcDbCircle
 10
25.11973535509112
 20
-0.9123291539591635
 30
0.0
 40
0.015
  0
CIRCLE
  5
7FE5
330
2
100
AcDbEntity
  8
PCB_OUTLINE
100
AcDbCircle
 10
25.03973535509112
 20
-0.9123291539591635
 30
0.0
 40
0.015
  0
CIRCLE
  5
7FE6
330
2
100
AcDbEntity
  8
PCB_OUTLINE
100
AcDbCircle
 10
24.95973535509112
 20
-0.9123291539591635
 30
0.0
 40
0.015
  0
CIRCLE
  5
7FE7
330
2
100
AcDbEntity
  8
PCB_OUTLINE
100
AcDbCircle
 10
24.87973535509113
 20
-0.9123291539591635
 30
0.0
 40
0.015
  0
CIRCLE
  5
7FE8
330
2
100
AcDbEntity
  8
PCB_OUTLINE
100
AcDbCircle
 10
24.79973535509112
 20
-0.9123291539591635
 30
0.0
 40
0.015
  0
CIRCLE
  5
7FE9
330
2
100
AcDbEntity
  8
PCB_OUTLINE
100
AcDbCircle
 10
24.71973535509112
 20
-0.9123291539591635
 30
0.0
 40
0.015
  0
CIRCLE
  5
7FEA
330
2
100
AcDbEntity
  8
PCB_OUTLINE
100
AcDbCircle
 10
24.63973535509113
 20
-0.9123291539591635
 30
0.0
 40
0.015
  0
CIRCLE
  5
7FEB
330
2
100
AcDbEntity
  8
PCB_OUTLINE
100
AcDbCircle
 10
25.19973535509112
 20
-0.9123291539591635
 30
0.0
 40
0.015
  0
CIRCLE
  5
7FEC
330
2
100
AcDbEntity
  8
PCB_OUTLINE
100
AcDbCircle
 10
25.27973535509112
 20
-0.9123291539591635
 30
0.0
 40
0.015
  0
CIRCLE
  5
7FED
330
2
100
AcDbEntity
  8
PCB_OUTLINE
100
AcDbCircle
 10
23.91973535509112
 20
-0.8323291539591636
 30
0.0
 40
0.015
  0
CIRCLE
  5
7FEE
330
2
100
AcDbEntity
  8
PCB_OUTLINE
100
AcDbCircle
 10
23.83973535509112
 20
-0.8323291539591636
 30
0.0
 40
0.015
  0
CIRCLE
  5
7FEF
330
2
100
AcDbEntity
  8
PCB_OUTLINE
100
AcDbCircle
 10
24.15973535509112
 20
-0.7523291539591637
 30
0.0
 40
0.015
  0
CIRCLE
  5
7FF0
330
2
100
AcDbEntity
  8
PCB_OUTLINE
100
AcDbCircle
 10
24.15973535509112
 20
-0.8323291539591636
 30
0.0
 40
0.015
  0
CIRCLE
  5
7FF1
330
2
100
AcDbEntity
  8
PCB_OUTLINE
100
AcDbCircle
 10
24.23973535509112
 20
-0.7523291539591637
 30
0.0
 40
0.015
  0
CIRCLE
  5
7FF2
330
2
100
AcDbEntity
  8
PCB_OUTLINE
100
AcDbCircle
 10
24.23973535509112
 20
-0.8323291539591636
 30
0.0
 40
0.015
  0
CIRCLE
  5
7FF3
330
2
100
AcDbEntity
  8
PCB_OUTLINE
100
AcDbCircle
 10
24.39973535509111
 20
-0.7523291539591637
 30
0.0
 40
0.015
  0
CIRCLE
  5
7FF4
330
2
100
AcDbEntity
  8
PCB_OUTLINE
100
AcDbCircle
 10
24.39973535509111
 20
-0.8323291539591636
 30
0.0
 40
0.015
  0
CIRCLE
  5
7FF5
330
2
100
AcDbEntity
  8
PCB_OUTLINE
100
AcDbCircle
 10
24.31973535509111
 20
-0.7523291539591637
 30
0.0
 40
0.015
  0
CIRCLE
  5
7FF6
330
2
100
AcDbEntity
  8
PCB_OUTLINE
100
AcDbCircle
 10
24.31973535509111
 20
-0.8323291539591636
 30
0.0
 40
0.015
  0
CIRCLE
  5
7FF7
330
2
100
AcDbEntity
  8
PCB_OUTLINE
100
AcDbCircle
 10
24.07973535509112
 20
-0.7523291539591637
 30
0.0
 40
0.015
  0
CIRCLE
  5
7FF8
330
2
100
AcDbEntity
  8
PCB_OUTLINE
100
AcDbCircle
 10
24.07973535509112
 20
-0.8323291539591636
 30
0.0
 40
0.015
  0
CIRCLE
  5
7FF9
330
2
100
AcDbEntity
  8
PCB_OUTLINE
100
AcDbCircle
 10
23.99973535509113
 20
-0.7523291539591637
 30
0.0
 40
0.015
  0
CIRCLE
  5
7FFA
330
2
100
AcDbEntity
  8
PCB_OUTLINE
100
AcDbCircle
 10
23.99973535509113
 20
-0.8323291539591636
 30
0.0
 40
0.015
  0
CIRCLE
  5
7FFB
330
2
100
AcDbEntity
  8
PCB_OUTLINE
100
AcDbCircle
 10
24.55973535509113
 20
-0.7523291539591637
 30
0.0
 40
0.015
  0
CIRCLE
  5
7FFC
330
2
100
AcDbEntity
  8
PCB_OUTLINE
100
AcDbCircle
 10
24.55973535509113
 20
-0.8323291539591636
 30
0.0
 40
0.015
  0
CIRCLE
  5
7FFD
330
2
100
AcDbEntity
  8
PCB_OUTLINE
100
AcDbCircle
 10
24.47973535509112
 20
-0.7523291539591637
 30
0.0
 40
0.015
  0
CIRCLE
  5
7FFE
330
2
100
AcDbEntity
  8
PCB_OUTLINE
100
AcDbCircle
 10
24.47973535509112
 20
-0.8323291539591636
 30
0.0
 40
0.015
  0
CIRCLE
  5
7FFF
330
2
100
AcDbEntity
  8
PCB_OUTLINE
100
AcDbCircle
 10
25.11973535509112
 20
-0.7523291539591637
 30
0.0
 40
0.015
  0
CIRCLE
  5
8000
330
2
100
AcDbEntity
  8
PCB_OUTLINE
100
AcDbCircle
 10
25.11973535509112
 20
-0.8323291539591636
 30
0.0
 40
0.015
  0
CIRCLE
  5
8001
330
2
100
AcDbEntity
  8
PCB_OUTLINE
100
AcDbCircle
 10
25.03973535509112
 20
-0.7523291539591637
 30
0.0
 40
0.015
  0
CIRCLE
  5
8002
330
2
100
AcDbEntity
  8
PCB_OUTLINE
100
AcDbCircle
 10
25.03973535509112
 20
-0.8323291539591636
 30
0.0
 40
0.015
  0
CIRCLE
  5
8003
330
2
100
AcDbEntity
  8
PCB_OUTLINE
100
AcDbCircle
 10
24.95973535509112
 20
-0.7523291539591637
 30
0.0
 40
0.015
  0
CIRCLE
  5
8004
330
2
100
AcDbEntity
  8
PCB_OUTLINE
100
AcDbCircle
 10
24.95973535509112
 20
-0.8323291539591636
 30
0.0
 40
0.015
  0
CIRCLE
  5
8005
330
2
100
AcDbEntity
  8
PCB_OUTLINE
100
AcDbCircle
 10
24.87973535509113
 20
-0.7523291539591637
 30
0.0
 40
0.015
  0
CIRCLE
  5
8006
330
2
100
AcDbEntity
  8
PCB_OUTLINE
100
AcDbCircle
 10
24.87973535509113
 20
-0.8323291539591636
 30
0.0
 40
0.015
  0
CIRCLE
  5
8007
330
2
100
AcDbEntity
  8
PCB_OUTLINE
100
AcDbCircle
 10
24.79973535509112
 20
-0.7523291539591637
 30
0.0
 40
0.015
  0
CIRCLE
  5
8008
330
2
100
AcDbEntity
  8
PCB_OUTLINE
100
AcDbCircle
 10
24.79973535509112
 20
-0.8323291539591636
 30
0.0
 40
0.015
  0
CIRCLE
  5
8009
330
2
100
AcDbEntity
  8
PCB_OUTLINE
100
AcDbCircle
 10
24.71973535509112
 20
-0.7523291539591637
 30
0.0
 40
0.015
  0
CIRCLE
  5
800A
330
2
100
AcDbEntity
  8
PCB_OUTLINE
100
AcDbCircle
 10
24.71973535509112
 20
-0.8323291539591636
 30
0.0
 40
0.015
  0
CIRCLE
  5
800B
330
2
100
AcDbEntity
  8
PCB_OUTLINE
100
AcDbCircle
 10
24.63973535509113
 20
-0.7523291539591637
 30
0.0
 40
0.015
  0
CIRCLE
  5
800C
330
2
100
AcDbEntity
  8
PCB_OUTLINE
100
AcDbCircle
 10
24.63973535509113
 20
-0.8323291539591636
 30
0.0
 40
0.015
  0
CIRCLE
  5
800D
330
2
100
AcDbEntity
  8
PCB_OUTLINE
100
AcDbCircle
 10
25.19973535509112
 20
-0.8323291539591636
 30
0.0
 40
0.015
  0
CIRCLE
  5
800E
330
2
100
AcDbEntity
  8
PCB_OUTLINE
100
AcDbCircle
 10
25.27973535509112
 20
-0.8323291539591636
 30
0.0
 40
0.015
  0
CIRCLE
  5
800F
330
2
100
AcDbEntity
  8
PCB_OUTLINE
100
AcDbCircle
 10
23.75973535509111
 20
-0.9923291539591636
 30
0.0
 40
0.015
  0
CIRCLE
  5
8010
330
2
100
AcDbEntity
  8
PCB_OUTLINE
100
AcDbCircle
 10
23.51973535509112
 20
-0.9923291539591636
 30
0.0
 40
0.015
  0
CIRCLE
  5
8011
330
2
100
AcDbEntity
  8
PCB_OUTLINE
100
AcDbCircle
 10
23.43973535509112
 20
-0.9923291539591636
 30
0.0
 40
0.015
  0
CIRCLE
  5
8012
330
2
100
AcDbEntity
  8
PCB_OUTLINE
100
AcDbCircle
 10
23.59973535509112
 20
-0.9923291539591636
 30
0.0
 40
0.015
  0
CIRCLE
  5
8013
330
2
100
AcDbEntity
  8
PCB_OUTLINE
100
AcDbCircle
 10
23.67973535509111
 20
-0.9923291539591636
 30
0.0
 40
0.015
  0
CIRCLE
  5
8014
330
2
100
AcDbEntity
  8
PCB_OUTLINE
100
AcDbCircle
 10
23.75973535509111
 20
-0.9123291539591635
 30
0.0
 40
0.015
  0
CIRCLE
  5
8015
330
2
100
AcDbEntity
  8
PCB_OUTLINE
100
AcDbCircle
 10
23.51973535509112
 20
-0.9123291539591635
 30
0.0
 40
0.015
  0
CIRCLE
  5
8016
330
2
100
AcDbEntity
  8
PCB_OUTLINE
100
AcDbCircle
 10
23.43973535509112
 20
-0.9123291539591635
 30
0.0
 40
0.015
  0
CIRCLE
  5
8017
330
2
100
AcDbEntity
  8
PCB_OUTLINE
100
AcDbCircle
 10
23.59973535509112
 20
-0.9123291539591635
 30
0.0
 40
0.015
  0
CIRCLE
  5
8018
330
2
100
AcDbEntity
  8
PCB_OUTLINE
100
AcDbCircle
 10
23.67973535509111
 20
-0.9123291539591635
 30
0.0
 40
0.015
  0
CIRCLE
  5
8019
330
2
100
AcDbEntity
  8
PCB_OUTLINE
100
AcDbCircle
 10
23.75973535509111
 20
-0.8323291539591636
 30
0.0
 40
0.015
  0
CIRCLE
  5
801A
330
2
100
AcDbEntity
  8
PCB_OUTLINE
100
AcDbCircle
 10
23.51973535509112
 20
-0.7523291539591637
 30
0.0
 40
0.015
  0
CIRCLE
  5
801B
330
2
100
AcDbEntity
  8
PCB_OUTLINE
100
AcDbCircle
 10
23.51973535509112
 20
-0.8323291539591636
 30
0.0
 40
0.015
  0
CIRCLE
  5
801C
330
2
100
AcDbEntity
  8
PCB_OUTLINE
100
AcDbCircle
 10
23.43973535509112
 20
-0.7523291539591637
 30
0.0
 40
0.015
  0
CIRCLE
  5
801D
330
2
100
AcDbEntity
  8
PCB_OUTLINE
100
AcDbCircle
 10
23.43973535509112
 20
-0.8323291539591636
 30
0.0
 40
0.015
  0
CIRCLE
  5
801E
330
2
100
AcDbEntity
  8
PCB_OUTLINE
100
AcDbCircle
 10
23.59973535509112
 20
-0.7523291539591637
 30
0.0
 40
0.015
  0
CIRCLE
  5
801F
330
2
100
AcDbEntity
  8
PCB_OUTLINE
100
AcDbCircle
 10
23.59973535509112
 20
-0.8323291539591636
 30
0.0
 40
0.015
  0
CIRCLE
  5
8020
330
2
100
AcDbEntity
  8
PCB_OUTLINE
100
AcDbCircle
 10
23.67973535509111
 20
-0.7523291539591637
 30
0.0
 40
0.015
  0
CIRCLE
  5
8021
330
2
100
AcDbEntity
  8
PCB_OUTLINE
100
AcDbCircle
 10
23.67973535509111
 20
-0.8323291539591636
 30
0.0
 40
0.015
  0
CIRCLE
  5
8022
330
2
100
AcDbEntity
  8
PCB_OUTLINE
100
AcDbCircle
 10
25.43973535509111
 20
-0.9923291539591636
 30
0.0
 40
0.015
  0
CIRCLE
  5
8023
330
2
100
AcDbEntity
  8
PCB_OUTLINE
100
AcDbCircle
 10
25.51973535509111
 20
-0.9923291539591636
 30
0.0
 40
0.015
  0
CIRCLE
  5
8024
330
2
100
AcDbEntity
  8
PCB_OUTLINE
100
AcDbCircle
 10
25.59973535509111
 20
-0.9923291539591636
 30
0.0
 40
0.015
  0
CIRCLE
  5
8025
330
2
100
AcDbEntity
  8
PCB_OUTLINE
100
AcDbCircle
 10
25.35973535509111
 20
-0.9923291539591636
 30
0.0
 40
0.015
  0
CIRCLE
  5
8026
330
2
100
AcDbEntity
  8
PCB_OUTLINE
100
AcDbCircle
 10
25.43973535509111
 20
-0.9123291539591635
 30
0.0
 40
0.015
  0
CIRCLE
  5
8027
330
2
100
AcDbEntity
  8
PCB_OUTLINE
100
AcDbCircle
 10
25.51973535509111
 20
-0.9123291539591635
 30
0.0
 40
0.015
  0
CIRCLE
  5
8028
330
2
100
AcDbEntity
  8
PCB_OUTLINE
100
AcDbCircle
 10
25.59973535509111
 20
-0.9123291539591635
 30
0.0
 40
0.015
  0
CIRCLE
  5
8029
330
2
100
AcDbEntity
  8
PCB_OUTLINE
100
AcDbCircle
 10
25.35973535509111
 20
-0.9123291539591635
 30
0.0
 40
0.015
  0
CIRCLE
  5
802A
330
2
100
AcDbEntity
  8
PCB_OUTLINE
100
AcDbCircle
 10
25.43973535509111
 20
-0.8323291539591636
 30
0.0
 40
0.015
  0
CIRCLE
  5
802B
330
2
100
AcDbEntity
  8
PCB_OUTLINE
100
AcDbCircle
 10
25.51973535509111
 20
-0.8323291539591636
 30
0.0
 40
0.015
  0
CIRCLE
  5
802C
330
2
100
AcDbEntity
  8
PCB_OUTLINE
100
AcDbCircle
 10
25.59973535509111
 20
-0.8323291539591636
 30
0.0
 40
0.015
  0
CIRCLE
  5
802D
330
2
100
AcDbEntity
  8
PCB_OUTLINE
100
AcDbCircle
 10
25.35973535509111
 20
-0.8323291539591636
 30
0.0
 40
0.015
  0
CIRCLE
  5
802E
330
2
100
AcDbEntity
  8
PCB_OUTLINE
100
AcDbCircle
 10
25.67973535509111
 20
-0.9123291539591635
 30
0.0
 40
0.015
  0
CIRCLE
  5
802F
330
2
100
AcDbEntity
  8
PCB_OUTLINE
100
AcDbCircle
 10
25.67973535509111
 20
-0.8323291539591636
 30
0.0
 40
0.015
  0
CIRCLE
  5
8030
330
2
100
AcDbEntity
  8
PCB_OUTLINE
100
AcDbCircle
 10
25.43973535509111
 20
-0.5923291539591637
 30
0.0
 40
0.015
  0
CIRCLE
  5
8031
330
2
100
AcDbEntity
  8
PCB_OUTLINE
100
AcDbCircle
 10
25.43973535509111
 20
-0.6723291539591636
 30
0.0
 40
0.015
  0
CIRCLE
  5
8032
330
2
100
AcDbEntity
  8
PCB_OUTLINE
100
AcDbCircle
 10
25.51973535509111
 20
-0.5923291539591637
 30
0.0
 40
0.015
  0
CIRCLE
  5
8033
330
2
100
AcDbEntity
  8
PCB_OUTLINE
100
AcDbCircle
 10
25.51973535509111
 20
-0.6723291539591636
 30
0.0
 40
0.015
  0
CIRCLE
  5
8034
330
2
100
AcDbEntity
  8
PCB_OUTLINE
100
AcDbCircle
 10
25.59973535509111
 20
-0.5923291539591637
 30
0.0
 40
0.015
  0
CIRCLE
  5
8035
330
2
100
AcDbEntity
  8
PCB_OUTLINE
100
AcDbCircle
 10
25.59973535509111
 20
-0.6723291539591636
 30
0.0
 40
0.015
  0
CIRCLE
  5
8036
330
2
100
AcDbEntity
  8
PCB_OUTLINE
100
AcDbCircle
 10
25.43973535509111
 20
-0.7523291539591637
 30
0.0
 40
0.015
  0
CIRCLE
  5
8037
330
2
100
AcDbEntity
  8
PCB_OUTLINE
100
AcDbCircle
 10
25.51973535509111
 20
-0.7523291539591637
 30
0.0
 40
0.015
  0
CIRCLE
  5
8038
330
2
100
AcDbEntity
  8
PCB_OUTLINE
100
AcDbCircle
 10
25.59973535509111
 20
-0.7523291539591637
 30
0.0
 40
0.015
  0
CIRCLE
  5
8039
330
2
100
AcDbEntity
  8
PCB_OUTLINE
100
AcDbCircle
 10
25.67973535509111
 20
-0.5923291539591637
 30
0.0
 40
0.015
  0
CIRCLE
  5
803A
330
2
100
AcDbEntity
  8
PCB_OUTLINE
100
AcDbCircle
 10
25.67973535509111
 20
-0.6723291539591636
 30
0.0
 40
0.015
  0
CIRCLE
  5
803B
330
2
100
AcDbEntity
  8
PCB_OUTLINE
100
AcDbCircle
 10
25.67973535509111
 20
-0.7523291539591637
 30
0.0
 40
0.015
  0
CIRCLE
  5
803C
330
2
100
AcDbEntity
  8
PCB_OUTLINE
100
AcDbCircle
 10
24.15973535509112
 20
-0.5923291539591637
 30
0.0
 40
0.015
  0
CIRCLE
  5
803D
330
2
100
AcDbEntity
  8
PCB_OUTLINE
100
AcDbCircle
 10
24.23973535509112
 20
-0.5923291539591637
 30
0.0
 40
0.015
  0
CIRCLE
  5
803E
330
2
100
AcDbEntity
  8
PCB_OUTLINE
100
AcDbCircle
 10
24.39973535509111
 20
-0.5923291539591637
 30
0.0
 40
0.015
  0
CIRCLE
  5
803F
330
2
100
AcDbEntity
  8
PCB_OUTLINE
100
AcDbCircle
 10
24.31973535509111
 20
-0.5923291539591637
 30
0.0
 40
0.015
  0
CIRCLE
  5
8040
330
2
100
AcDbEntity
  8
PCB_OUTLINE
100
AcDbCircle
 10
24.07973535509112
 20
-0.5923291539591637
 30
0.0
 40
0.015
  0
CIRCLE
  5
8041
330
2
100
AcDbEntity
  8
PCB_OUTLINE
100
AcDbCircle
 10
23.99973535509113
 20
-0.5923291539591637
 30
0.0
 40
0.015
  0
CIRCLE
  5
8042
330
2
100
AcDbEntity
  8
PCB_OUTLINE
100
AcDbCircle
 10
24.55973535509113
 20
-0.5923291539591637
 30
0.0
 40
0.015
  0
CIRCLE
  5
8043
330
2
100
AcDbEntity
  8
PCB_OUTLINE
100
AcDbCircle
 10
24.47973535509112
 20
-0.5923291539591637
 30
0.0
 40
0.015
  0
CIRCLE
  5
8044
330
2
100
AcDbEntity
  8
PCB_OUTLINE
100
AcDbCircle
 10
25.11973535509112
 20
-0.5923291539591637
 30
0.0
 40
0.015
  0
CIRCLE
  5
8045
330
2
100
AcDbEntity
  8
PCB_OUTLINE
100
AcDbCircle
 10
25.03973535509112
 20
-0.5923291539591637
 30
0.0
 40
0.015
  0
CIRCLE
  5
8046
330
2
100
AcDbEntity
  8
PCB_OUTLINE
100
AcDbCircle
 10
24.95973535509112
 20
-0.5923291539591637
 30
0.0
 40
0.015
  0
CIRCLE
  5
8047
330
2
100
AcDbEntity
  8
PCB_OUTLINE
100
AcDbCircle
 10
24.87973535509113
 20
-0.5923291539591637
 30
0.0
 40
0.015
  0
CIRCLE
  5
8048
330
2
100
AcDbEntity
  8
PCB_OUTLINE
100
AcDbCircle
 10
24.79973535509112
 20
-0.5923291539591637
 30
0.0
 40
0.015
  0
CIRCLE
  5
8049
330
2
100
AcDbEntity
  8
PCB_OUTLINE
100
AcDbCircle
 10
24.71973535509112
 20
-0.5923291539591637
 30
0.0
 40
0.015
  0
CIRCLE
  5
804A
330
2
100
AcDbEntity
  8
PCB_OUTLINE
100
AcDbCircle
 10
24.63973535509113
 20
-0.5923291539591637
 30
0.0
 40
0.015
  0
CIRCLE
  5
804B
330
2
100
AcDbEntity
  8
PCB_OUTLINE
100
AcDbCircle
 10
24.15973535509112
 20
-0.6723291539591636
 30
0.0
 40
0.015
  0
CIRCLE
  5
804C
330
2
100
AcDbEntity
  8
PCB_OUTLINE
100
AcDbCircle
 10
24.23973535509112
 20
-0.6723291539591636
 30
0.0
 40
0.015
  0
CIRCLE
  5
804D
330
2
100
AcDbEntity
  8
PCB_OUTLINE
100
AcDbCircle
 10
24.39973535509111
 20
-0.6723291539591636
 30
0.0
 40
0.015
  0
CIRCLE
  5
804E
330
2
100
AcDbEntity
  8
PCB_OUTLINE
100
AcDbCircle
 10
24.31973535509111
 20
-0.6723291539591636
 30
0.0
 40
0.015
  0
CIRCLE
  5
804F
330
2
100
AcDbEntity
  8
PCB_OUTLINE
100
AcDbCircle
 10
24.07973535509112
 20
-0.6723291539591636
 30
0.0
 40
0.015
  0
CIRCLE
  5
8050
330
2
100
AcDbEntity
  8
PCB_OUTLINE
100
AcDbCircle
 10
23.99973535509113
 20
-0.6723291539591636
 30
0.0
 40
0.015
  0
CIRCLE
  5
8051
330
2
100
AcDbEntity
  8
PCB_OUTLINE
100
AcDbCircle
 10
24.55973535509113
 20
-0.6723291539591636
 30
0.0
 40
0.015
  0
CIRCLE
  5
8052
330
2
100
AcDbEntity
  8
PCB_OUTLINE
100
AcDbCircle
 10
24.47973535509112
 20
-0.6723291539591636
 30
0.0
 40
0.015
  0
CIRCLE
  5
8053
330
2
100
AcDbEntity
  8
PCB_OUTLINE
100
AcDbCircle
 10
25.11973535509112
 20
-0.6723291539591636
 30
0.0
 40
0.015
  0
CIRCLE
  5
8054
330
2
100
AcDbEntity
  8
PCB_OUTLINE
100
AcDbCircle
 10
25.03973535509112
 20
-0.6723291539591636
 30
0.0
 40
0.015
  0
CIRCLE
  5
8055
330
2
100
AcDbEntity
  8
PCB_OUTLINE
100
AcDbCircle
 10
24.95973535509112
 20
-0.6723291539591636
 30
0.0
 40
0.015
  0
CIRCLE
  5
8056
330
2
100
AcDbEntity
  8
PCB_OUTLINE
100
AcDbCircle
 10
24.87973535509113
 20
-0.6723291539591636
 30
0.0
 40
0.015
  0
CIRCLE
  5
8057
330
2
100
AcDbEntity
  8
PCB_OUTLINE
100
AcDbCircle
 10
24.79973535509112
 20
-0.6723291539591636
 30
0.0
 40
0.015
  0
CIRCLE
  5
8058
330
2
100
AcDbEntity
  8
PCB_OUTLINE
100
AcDbCircle
 10
24.71973535509112
 20
-0.6723291539591636
 30
0.0
 40
0.015
  0
CIRCLE
  5
8059
330
2
100
AcDbEntity
  8
PCB_OUTLINE
100
AcDbCircle
 10
24.63973535509113
 20
-0.6723291539591636
 30
0.0
 40
0.015
  0
CIRCLE
  5
805A
330
2
100
AcDbEntity
  8
PCB_OUTLINE
100
AcDbCircle
 10
23.51973535509112
 20
-0.5923291539591637
 30
0.0
 40
0.015
  0
CIRCLE
  5
805B
330
2
100
AcDbEntity
  8
PCB_OUTLINE
100
AcDbCircle
 10
23.43973535509112
 20
-0.5923291539591637
 30
0.0
 40
0.015
  0
CIRCLE
  5
805C
330
2
100
AcDbEntity
  8
PCB_OUTLINE
100
AcDbCircle
 10
23.59973535509112
 20
-0.5923291539591637
 30
0.0
 40
0.015
  0
CIRCLE
  5
805D
330
2
100
AcDbEntity
  8
PCB_OUTLINE
100
AcDbCircle
 10
23.67973535509111
 20
-0.5923291539591637
 30
0.0
 40
0.015
  0
CIRCLE
  5
805E
330
2
100
AcDbEntity
  8
PCB_OUTLINE
100
AcDbCircle
 10
23.51973535509112
 20
-0.6723291539591636
 30
0.0
 40
0.015
  0
CIRCLE
  5
805F
330
2
100
AcDbEntity
  8
PCB_OUTLINE
100
AcDbCircle
 10
23.43973535509112
 20
-0.6723291539591636
 30
0.0
 40
0.015
  0
CIRCLE
  5
8060
330
2
100
AcDbEntity
  8
PCB_OUTLINE
100
AcDbCircle
 10
23.59973535509112
 20
-0.6723291539591636
 30
0.0
 40
0.015
  0
CIRCLE
  5
8061
330
2
100
AcDbEntity
  8
PCB_OUTLINE
100
AcDbCircle
 10
23.67973535509111
 20
-0.6723291539591636
 30
0.0
 40
0.015
  0
CIRCLE
  5
8062
330
2
100
AcDbEntity
  8
PCB_OUTLINE
100
AcDbCircle
 10
24.15973535509112
 20
-0.4323291539591634
 30
0.0
 40
0.015
  0
CIRCLE
  5
8063
330
2
100
AcDbEntity
  8
PCB_OUTLINE
100
AcDbCircle
 10
24.15973535509112
 20
-0.3523291539591633
 30
0.0
 40
0.015
  0
CIRCLE
  5
8064
330
2
100
AcDbEntity
  8
PCB_OUTLINE
100
AcDbCircle
 10
24.23973535509112
 20
-0.4323291539591634
 30
0.0
 40
0.015
  0
CIRCLE
  5
8065
330
2
100
AcDbEntity
  8
PCB_OUTLINE
100
AcDbCircle
 10
24.23973535509112
 20
-0.3523291539591633
 30
0.0
 40
0.015
  0
CIRCLE
  5
8066
330
2
100
AcDbEntity
  8
PCB_OUTLINE
100
AcDbCircle
 10
24.39973535509111
 20
-0.4323291539591634
 30
0.0
 40
0.015
  0
CIRCLE
  5
8067
330
2
100
AcDbEntity
  8
PCB_OUTLINE
100
AcDbCircle
 10
24.39973535509111
 20
-0.3523291539591633
 30
0.0
 40
0.015
  0
CIRCLE
  5
8068
330
2
100
AcDbEntity
  8
PCB_OUTLINE
100
AcDbCircle
 10
24.31973535509111
 20
-0.4323291539591634
 30
0.0
 40
0.015
  0
CIRCLE
  5
8069
330
2
100
AcDbEntity
  8
PCB_OUTLINE
100
AcDbCircle
 10
24.31973535509111
 20
-0.3523291539591633
 30
0.0
 40
0.015
  0
CIRCLE
  5
806A
330
2
100
AcDbEntity
  8
PCB_OUTLINE
100
AcDbCircle
 10
24.07973535509112
 20
-0.4323291539591634
 30
0.0
 40
0.015
  0
CIRCLE
  5
806B
330
2
100
AcDbEntity
  8
PCB_OUTLINE
100
AcDbCircle
 10
23.99973535509113
 20
-0.4323291539591634
 30
0.0
 40
0.015
  0
CIRCLE
  5
806C
330
2
100
AcDbEntity
  8
PCB_OUTLINE
100
AcDbCircle
 10
24.55973535509113
 20
-0.4323291539591634
 30
0.0
 40
0.015
  0
CIRCLE
  5
806D
330
2
100
AcDbEntity
  8
PCB_OUTLINE
100
AcDbCircle
 10
24.55973535509113
 20
-0.3523291539591633
 30
0.0
 40
0.015
  0
CIRCLE
  5
806E
330
2
100
AcDbEntity
  8
PCB_OUTLINE
100
AcDbCircle
 10
24.47973535509112
 20
-0.4323291539591634
 30
0.0
 40
0.015
  0
CIRCLE
  5
806F
330
2
100
AcDbEntity
  8
PCB_OUTLINE
100
AcDbCircle
 10
24.47973535509112
 20
-0.3523291539591633
 30
0.0
 40
0.015
  0
CIRCLE
  5
8070
330
2
100
AcDbEntity
  8
PCB_OUTLINE
100
AcDbCircle
 10
25.11973535509112
 20
-0.4323291539591634
 30
0.0
 40
0.015
  0
CIRCLE
  5
8071
330
2
100
AcDbEntity
  8
PCB_OUTLINE
100
AcDbCircle
 10
25.11973535509112
 20
-0.3523291539591633
 30
0.0
 40
0.015
  0
CIRCLE
  5
8072
330
2
100
AcDbEntity
  8
PCB_OUTLINE
100
AcDbCircle
 10
25.03973535509112
 20
-0.4323291539591634
 30
0.0
 40
0.015
  0
CIRCLE
  5
8073
330
2
100
AcDbEntity
  8
PCB_OUTLINE
100
AcDbCircle
 10
25.03973535509112
 20
-0.3523291539591633
 30
0.0
 40
0.015
  0
CIRCLE
  5
8074
330
2
100
AcDbEntity
  8
PCB_OUTLINE
100
AcDbCircle
 10
24.95973535509112
 20
-0.4323291539591634
 30
0.0
 40
0.015
  0
CIRCLE
  5
8075
330
2
100
AcDbEntity
  8
PCB_OUTLINE
100
AcDbCircle
 10
24.95973535509112
 20
-0.3523291539591633
 30
0.0
 40
0.015
  0
CIRCLE
  5
8076
330
2
100
AcDbEntity
  8
PCB_OUTLINE
100
AcDbCircle
 10
24.87973535509113
 20
-0.4323291539591634
 30
0.0
 40
0.015
  0
CIRCLE
  5
8077
330
2
100
AcDbEntity
  8
PCB_OUTLINE
100
AcDbCircle
 10
24.87973535509113
 20
-0.3523291539591633
 30
0.0
 40
0.015
  0
CIRCLE
  5
8078
330
2
100
AcDbEntity
  8
PCB_OUTLINE
100
AcDbCircle
 10
24.79973535509112
 20
-0.4323291539591634
 30
0.0
 40
0.015
  0
CIRCLE
  5
8079
330
2
100
AcDbEntity
  8
PCB_OUTLINE
100
AcDbCircle
 10
24.79973535509112
 20
-0.3523291539591633
 30
0.0
 40
0.015
  0
CIRCLE
  5
807A
330
2
100
AcDbEntity
  8
PCB_OUTLINE
100
AcDbCircle
 10
24.71973535509112
 20
-0.4323291539591634
 30
0.0
 40
0.015
  0
CIRCLE
  5
807B
330
2
100
AcDbEntity
  8
PCB_OUTLINE
100
AcDbCircle
 10
24.71973535509112
 20
-0.3523291539591633
 30
0.0
 40
0.015
  0
CIRCLE
  5
807C
330
2
100
AcDbEntity
  8
PCB_OUTLINE
100
AcDbCircle
 10
24.63973535509113
 20
-0.4323291539591634
 30
0.0
 40
0.015
  0
CIRCLE
  5
807D
330
2
100
AcDbEntity
  8
PCB_OUTLINE
100
AcDbCircle
 10
24.63973535509113
 20
-0.3523291539591633
 30
0.0
 40
0.015
  0
CIRCLE
  5
807E
330
2
100
AcDbEntity
  8
PCB_OUTLINE
100
AcDbCircle
 10
23.51973535509112
 20
-0.4323291539591634
 30
0.0
 40
0.015
  0
CIRCLE
  5
807F
330
2
100
AcDbEntity
  8
PCB_OUTLINE
100
AcDbCircle
 10
23.51973535509112
 20
-0.3523291539591633
 30
0.0
 40
0.015
  0
CIRCLE
  5
8080
330
2
100
AcDbEntity
  8
PCB_OUTLINE
100
AcDbCircle
 10
23.43973535509112
 20
-0.4323291539591634
 30
0.0
 40
0.015
  0
CIRCLE
  5
8081
330
2
100
AcDbEntity
  8
PCB_OUTLINE
100
AcDbCircle
 10
23.43973535509112
 20
-0.3523291539591633
 30
0.0
 40
0.015
  0
CIRCLE
  5
8082
330
2
100
AcDbEntity
  8
PCB_OUTLINE
100
AcDbCircle
 10
23.59973535509112
 20
-0.4323291539591634
 30
0.0
 40
0.015
  0
CIRCLE
  5
8083
330
2
100
AcDbEntity
  8
PCB_OUTLINE
100
AcDbCircle
 10
23.59973535509112
 20
-0.3523291539591633
 30
0.0
 40
0.015
  0
CIRCLE
  5
8084
330
2
100
AcDbEntity
  8
PCB_OUTLINE
100
AcDbCircle
 10
23.67973535509111
 20
-0.4323291539591634
 30
0.0
 40
0.015
  0
CIRCLE
  5
8085
330
2
100
AcDbEntity
  8
PCB_OUTLINE
100
AcDbCircle
 10
23.67973535509111
 20
-0.3523291539591633
 30
0.0
 40
0.015
  0
CIRCLE
  5
8086
330
2
100
AcDbEntity
  8
PCB_OUTLINE
100
AcDbCircle
 10
25.43973535509111
 20
-0.3523291539591633
 30
0.0
 40
0.015
  0
CIRCLE
  5
8087
330
2
100
AcDbEntity
  8
PCB_OUTLINE
100
AcDbCircle
 10
25.51973535509111
 20
-0.3523291539591633
 30
0.0
 40
0.015
  0
CIRCLE
  5
8088
330
2
100
AcDbEntity
  8
PCB_OUTLINE
100
AcDbCircle
 10
25.59973535509111
 20
-0.3523291539591633
 30
0.0
 40
0.015
  0
CIRCLE
  5
8089
330
2
100
AcDbEntity
  8
PCB_OUTLINE
100
AcDbCircle
 10
25.67973535509111
 20
-0.3523291539591633
 30
0.0
 40
0.015
  0
CIRCLE
  5
808A
330
2
100
AcDbEntity
  8
PCB_OUTLINE
100
AcDbCircle
 10
25.43973535509111
 20
-0.5123291539591635
 30
0.0
 40
0.015
  0
CIRCLE
  5
808B
330
2
100
AcDbEntity
  8
PCB_OUTLINE
100
AcDbCircle
 10
25.51973535509111
 20
-0.5123291539591635
 30
0.0
 40
0.015
  0
CIRCLE
  5
808C
330
2
100
AcDbEntity
  8
PCB_OUTLINE
100
AcDbCircle
 10
25.59973535509111
 20
-0.5123291539591635
 30
0.0
 40
0.015
  0
CIRCLE
  5
808D
330
2
100
AcDbEntity
  8
PCB_OUTLINE
100
AcDbCircle
 10
25.43973535509111
 20
-0.4323291539591634
 30
0.0
 40
0.015
  0
CIRCLE
  5
808E
330
2
100
AcDbEntity
  8
PCB_OUTLINE
100
AcDbCircle
 10
25.51973535509111
 20
-0.4323291539591634
 30
0.0
 40
0.015
  0
CIRCLE
  5
808F
330
2
100
AcDbEntity
  8
PCB_OUTLINE
100
AcDbCircle
 10
25.59973535509111
 20
-0.4323291539591634
 30
0.0
 40
0.015
  0
CIRCLE
  5
8090
330
2
100
AcDbEntity
  8
PCB_OUTLINE
100
AcDbCircle
 10
25.67973535509111
 20
-0.5123291539591635
 30
0.0
 40
0.015
  0
CIRCLE
  5
8091
330
2
100
AcDbEntity
  8
PCB_OUTLINE
100
AcDbCircle
 10
25.67973535509111
 20
-0.4323291539591634
 30
0.0
 40
0.015
  0
CIRCLE
  5
8092
330
2
100
AcDbEntity
  8
PCB_OUTLINE
100
AcDbCircle
 10
24.15973535509112
 20
-0.5123291539591635
 30
0.0
 40
0.015
  0
CIRCLE
  5
8093
330
2
100
AcDbEntity
  8
PCB_OUTLINE
100
AcDbCircle
 10
24.23973535509112
 20
-0.5123291539591635
 30
0.0
 40
0.015
  0
CIRCLE
  5
8094
330
2
100
AcDbEntity
  8
PCB_OUTLINE
100
AcDbCircle
 10
24.39973535509111
 20
-0.5123291539591635
 30
0.0
 40
0.015
  0
CIRCLE
  5
8095
330
2
100
AcDbEntity
  8
PCB_OUTLINE
100
AcDbCircle
 10
24.31973535509111
 20
-0.5123291539591635
 30
0.0
 40
0.015
  0
CIRCLE
  5
8096
330
2
100
AcDbEntity
  8
PCB_OUTLINE
100
AcDbCircle
 10
24.07973535509112
 20
-0.5123291539591635
 30
0.0
 40
0.015
  0
CIRCLE
  5
8097
330
2
100
AcDbEntity
  8
PCB_OUTLINE
100
AcDbCircle
 10
23.99973535509113
 20
-0.5123291539591635
 30
0.0
 40
0.015
  0
CIRCLE
  5
8098
330
2
100
AcDbEntity
  8
PCB_OUTLINE
100
AcDbCircle
 10
24.55973535509113
 20
-0.5123291539591635
 30
0.0
 40
0.015
  0
CIRCLE
  5
8099
330
2
100
AcDbEntity
  8
PCB_OUTLINE
100
AcDbCircle
 10
24.47973535509112
 20
-0.5123291539591635
 30
0.0
 40
0.015
  0
CIRCLE
  5
809A
330
2
100
AcDbEntity
  8
PCB_OUTLINE
100
AcDbCircle
 10
25.11973535509112
 20
-0.5123291539591635
 30
0.0
 40
0.015
  0
CIRCLE
  5
809B
330
2
100
AcDbEntity
  8
PCB_OUTLINE
100
AcDbCircle
 10
25.03973535509112
 20
-0.5123291539591635
 30
0.0
 40
0.015
  0
CIRCLE
  5
809C
330
2
100
AcDbEntity
  8
PCB_OUTLINE
100
AcDbCircle
 10
24.95973535509112
 20
-0.5123291539591635
 30
0.0
 40
0.015
  0
CIRCLE
  5
809D
330
2
100
AcDbEntity
  8
PCB_OUTLINE
100
AcDbCircle
 10
24.87973535509113
 20
-0.5123291539591635
 30
0.0
 40
0.015
  0
CIRCLE
  5
809E
330
2
100
AcDbEntity
  8
PCB_OUTLINE
100
AcDbCircle
 10
24.79973535509112
 20
-0.5123291539591635
 30
0.0
 40
0.015
  0
CIRCLE
  5
809F
330
2
100
AcDbEntity
  8
PCB_OUTLINE
100
AcDbCircle
 10
24.71973535509112
 20
-0.5123291539591635
 30
0.0
 40
0.015
  0
CIRCLE
  5
80A0
330
2
100
AcDbEntity
  8
PCB_OUTLINE
100
AcDbCircle
 10
24.63973535509113
 20
-0.5123291539591635
 30
0.0
 40
0.015
  0
CIRCLE
  5
80A1
330
2
100
AcDbEntity
  8
PCB_OUTLINE
100
AcDbCircle
 10
23.51973535509112
 20
-0.5123291539591635
 30
0.0
 40
0.015
  0
CIRCLE
  5
80A2
330
2
100
AcDbEntity
  8
PCB_OUTLINE
100
AcDbCircle
 10
23.43973535509112
 20
-0.5123291539591635
 30
0.0
 40
0.015
  0
CIRCLE
  5
80A3
330
2
100
AcDbEntity
  8
PCB_OUTLINE
100
AcDbCircle
 10
23.59973535509112
 20
-0.5123291539591635
 30
0.0
 40
0.015
  0
CIRCLE
  5
80A4
330
2
100
AcDbEntity
  8
PCB_OUTLINE
100
AcDbCircle
 10
23.67973535509111
 20
-0.5123291539591635
 30
0.0
 40
0.015
  0
CIRCLE
  5
80D3
330
2
100
AcDbEntity
  8
PCB_OUTLINE
100
AcDbCircle
 10
25.35973535509111
 20
-1.312329153959163
 30
0.0
 40
0.015
  0
CIRCLE
  5
80D4
330
2
100
AcDbEntity
  8
PCB_OUTLINE
100
AcDbCircle
 10
25.43973535509112
 20
-1.312329153959163
 30
0.0
 40
0.015
  0
CIRCLE
  5
80D5
330
2
100
AcDbEntity
  8
PCB_OUTLINE
100
AcDbCircle
 10
25.51973535509112
 20
-1.312329153959163
 30
0.0
 40
0.015
  0
CIRCLE
  5
80D6
330
2
100
AcDbEntity
  8
PCB_OUTLINE
100
AcDbCircle
 10
25.59973535509111
 20
-1.312329153959163
 30
0.0
 40
0.015
  0
CIRCLE
  5
80D7
330
2
100
AcDbEntity
  8
PCB_OUTLINE
100
AcDbCircle
 10
25.19973535509112
 20
-1.232329153959164
 30
0.0
 40
0.015
  0
CIRCLE
  5
80D8
330
2
100
AcDbEntity
  8
PCB_OUTLINE
100
AcDbCircle
 10
25.27973535509112
 20
-1.232329153959164
 30
0.0
 40
0.015
  0
CIRCLE
  5
80D9
330
2
100
AcDbEntity
  8
PCB_OUTLINE
100
AcDbCircle
 10
25.35973535509111
 20
-1.232329153959164
 30
0.0
 40
0.015
  0
CIRCLE
  5
80DA
330
2
100
AcDbEntity
  8
PCB_OUTLINE
100
AcDbCircle
 10
25.43973535509112
 20
-1.232329153959164
 30
0.0
 40
0.015
  0
CIRCLE
  5
80DB
330
2
100
AcDbEntity
  8
PCB_OUTLINE
100
AcDbCircle
 10
25.51973535509112
 20
-1.232329153959164
 30
0.0
 40
0.015
  0
CIRCLE
  5
80DC
330
2
100
AcDbEntity
  8
PCB_OUTLINE
100
AcDbCircle
 10
25.59973535509111
 20
-1.232329153959164
 30
0.0
 40
0.015
  0
CIRCLE
  5
80DD
330
2
100
AcDbEntity
  8
PCB_OUTLINE
100
AcDbCircle
 10
25.19973535509112
 20
-1.152329153959164
 30
0.0
 40
0.015
  0
CIRCLE
  5
80DE
330
2
100
AcDbEntity
  8
PCB_OUTLINE
100
AcDbCircle
 10
25.27973535509112
 20
-1.152329153959164
 30
0.0
 40
0.015
  0
CIRCLE
  5
80DF
330
2
100
AcDbEntity
  8
PCB_OUTLINE
100
AcDbCircle
 10
25.35973535509111
 20
-1.152329153959164
 30
0.0
 40
0.015
  0
CIRCLE
  5
80E0
330
2
100
AcDbEntity
  8
PCB_OUTLINE
100
AcDbCircle
 10
25.43973535509112
 20
-1.152329153959164
 30
0.0
 40
0.015
  0
CIRCLE
  5
80E1
330
2
100
AcDbEntity
  8
PCB_OUTLINE
100
AcDbCircle
 10
25.51973535509112
 20
-1.152329153959164
 30
0.0
 40
0.015
  0
CIRCLE
  5
80E2
330
2
100
AcDbEntity
  8
PCB_OUTLINE
100
AcDbCircle
 10
25.59973535509111
 20
-1.152329153959164
 30
0.0
 40
0.015
  0
CIRCLE
  5
80E3
330
2
100
AcDbEntity
  8
PCB_OUTLINE
100
AcDbCircle
 10
25.35973535509111
 20
-1.072329153959163
 30
0.0
 40
0.015
  0
CIRCLE
  5
80E4
330
2
100
AcDbEntity
  8
PCB_OUTLINE
100
AcDbCircle
 10
25.43973535509112
 20
-1.072329153959163
 30
0.0
 40
0.015
  0
CIRCLE
  5
80E5
330
2
100
AcDbEntity
  8
PCB_OUTLINE
100
AcDbCircle
 10
25.51973535509112
 20
-1.072329153959163
 30
0.0
 40
0.015
  0
CIRCLE
  5
80E6
330
2
100
AcDbEntity
  8
PCB_OUTLINE
100
AcDbCircle
 10
25.59973535509111
 20
-1.072329153959163
 30
0.0
 40
0.015
  0
CIRCLE
  5
80E7
330
2
100
AcDbEntity
  8
PCB_OUTLINE
100
AcDbCircle
 10
23.67973535509113
 20
-1.312329153959163
 30
0.0
 40
0.015
  0
CIRCLE
  5
80E8
330
2
100
AcDbEntity
  8
PCB_OUTLINE
100
AcDbCircle
 10
23.59973535509113
 20
-1.312329153959163
 30
0.0
 40
0.015
  0
CIRCLE
  5
80E9
330
2
100
AcDbEntity
  8
PCB_OUTLINE
100
AcDbCircle
 10
23.43973535509114
 20
-1.312329153959163
 30
0.0
 40
0.015
  0
CIRCLE
  5
80EA
330
2
100
AcDbEntity
  8
PCB_OUTLINE
100
AcDbCircle
 10
23.51973535509114
 20
-1.312329153959163
 30
0.0
 40
0.015
  0
CIRCLE
  5
80EB
330
2
100
AcDbEntity
  8
PCB_OUTLINE
100
AcDbCircle
 10
23.75973535509113
 20
-1.312329153959163
 30
0.0
 40
0.015
  0
CIRCLE
  5
80EC
330
2
100
AcDbEntity
  8
PCB_OUTLINE
100
AcDbCircle
 10
23.91973535509112
 20
-1.232329153959164
 30
0.0
 40
0.015
  0
CIRCLE
  5
80ED
330
2
100
AcDbEntity
  8
PCB_OUTLINE
100
AcDbCircle
 10
23.83973535509112
 20
-1.232329153959164
 30
0.0
 40
0.015
  0
CIRCLE
  5
80EE
330
2
100
AcDbEntity
  8
PCB_OUTLINE
100
AcDbCircle
 10
23.67973535509113
 20
-1.232329153959164
 30
0.0
 40
0.015
  0
CIRCLE
  5
80EF
330
2
100
AcDbEntity
  8
PCB_OUTLINE
100
AcDbCircle
 10
23.59973535509113
 20
-1.232329153959164
 30
0.0
 40
0.015
  0
CIRCLE
  5
80F0
330
2
100
AcDbEntity
  8
PCB_OUTLINE
100
AcDbCircle
 10
23.43973535509114
 20
-1.232329153959164
 30
0.0
 40
0.015
  0
CIRCLE
  5
80F1
330
2
100
AcDbEntity
  8
PCB_OUTLINE
100
AcDbCircle
 10
23.51973535509114
 20
-1.232329153959164
 30
0.0
 40
0.015
  0
CIRCLE
  5
80F2
330
2
100
AcDbEntity
  8
PCB_OUTLINE
100
AcDbCircle
 10
23.75973535509113
 20
-1.232329153959164
 30
0.0
 40
0.015
  0
CIRCLE
  5
80F3
330
2
100
AcDbEntity
  8
PCB_OUTLINE
100
AcDbCircle
 10
23.91973535509112
 20
-1.152329153959164
 30
0.0
 40
0.015
  0
CIRCLE
  5
80F4
330
2
100
AcDbEntity
  8
PCB_OUTLINE
100
AcDbCircle
 10
23.83973535509112
 20
-1.152329153959164
 30
0.0
 40
0.015
  0
CIRCLE
  5
80F5
330
2
100
AcDbEntity
  8
PCB_OUTLINE
100
AcDbCircle
 10
23.67973535509113
 20
-1.152329153959164
 30
0.0
 40
0.015
  0
CIRCLE
  5
80F6
330
2
100
AcDbEntity
  8
PCB_OUTLINE
100
AcDbCircle
 10
23.59973535509113
 20
-1.152329153959164
 30
0.0
 40
0.015
  0
CIRCLE
  5
80F7
330
2
100
AcDbEntity
  8
PCB_OUTLINE
100
AcDbCircle
 10
23.43973535509114
 20
-1.152329153959164
 30
0.0
 40
0.015
  0
CIRCLE
  5
80F8
330
2
100
AcDbEntity
  8
PCB_OUTLINE
100
AcDbCircle
 10
23.51973535509114
 20
-1.152329153959164
 30
0.0
 40
0.015
  0
CIRCLE
  5
80F9
330
2
100
AcDbEntity
  8
PCB_OUTLINE
100
AcDbCircle
 10
23.75973535509113
 20
-1.152329153959164
 30
0.0
 40
0.015
  0
CIRCLE
  5
80FA
330
2
100
AcDbEntity
  8
PCB_OUTLINE
100
AcDbCircle
 10
23.67973535509113
 20
-1.072329153959163
 30
0.0
 40
0.015
  0
CIRCLE
  5
80FB
330
2
100
AcDbEntity
  8
PCB_OUTLINE
100
AcDbCircle
 10
23.59973535509113
 20
-1.072329153959163
 30
0.0
 40
0.015
  0
CIRCLE
  5
80FC
330
2
100
AcDbEntity
  8
PCB_OUTLINE
100
AcDbCircle
 10
23.43973535509114
 20
-1.072329153959163
 30
0.0
 40
0.015
  0
CIRCLE
  5
80FD
330
2
100
AcDbEntity
  8
PCB_OUTLINE
100
AcDbCircle
 10
23.51973535509114
 20
-1.072329153959163
 30
0.0
 40
0.015
  0
CIRCLE
  5
80FE
330
2
100
AcDbEntity
  8
PCB_OUTLINE
100
AcDbCircle
 10
23.75973535509113
 20
-1.072329153959163
 30
0.0
 40
0.015
  0
CIRCLE
  5
8482
330
2
100
AcDbEntity
  8
PCB_OUTLINE
100
AcDbCircle
 10
24.07973535509112
 20
-0.3523291539591633
 30
0.0
 40
0.015
  0
CIRCLE
  5
8483
330
2
100
AcDbEntity
  8
PCB_OUTLINE
100
AcDbCircle
 10
23.99973535509113
 20
-0.3523291539591633
 30
0.0
 40
0.015
  0
LINE
  5
8BEF
330
2
100
AcDbEntity
  8
PCB_TOP
100
AcDbLine
 10
23.40973527980025
 20
-0.3173145804486097
 30
0.0
 11
23.40973537104911
 21
-2.067329128479125
 31
0.0
  0
LINE
  5
8BF0
330
2
100
AcDbEntity
  8
PCB_TOP
100
AcDbLine
 10
23.40973537104911
 20
-2.067329128479125
 30
0.0
 11
23.74373535509112
 21
-2.067329128424122
 31
0.0
  0
LINE
  5
8BF1
330
2
100
AcDbEntity
  8
PCB_TOP
100
AcDbLine
 10
23.74373535509112
 20
-2.067329128424122
 30
0.0
 11
23.74373535509112
 21
-1.572342851362274
 31
0.0
  0
LINE
  5
8BF2
330
2
100
AcDbEntity
  8
PCB_TOP
100
AcDbLine
 10
23.74373535509112
 20
-1.572342851362274
 30
0.0
 11
23.92973535509113
 21
-1.572342851362274
 31
0.0
  0
LINE
  5
8BF3
330
2
100
AcDbEntity
  8
PCB_TOP
100
AcDbLine
 10
23.92973535509113
 20
-1.572342851362274
 30
0.0
 11
23.92973535509111
 21
-1.692342851362283
 31
0.0
  0
LINE
  5
8BF4
330
2
100
AcDbEntity
  8
PCB_TOP
100
AcDbLine
 10
23.92973535509111
 20
-1.692342851362283
 30
0.0
 11
23.96473535509112
 21
-1.692342851362286
 31
0.0
  0
LINE
  5
8BF5
330
2
100
AcDbEntity
  8
PCB_TOP
100
AcDbLine
 10
23.96473535509112
 20
-1.692342851362286
 30
0.0
 11
23.96473535509112
 21
-2.067329128424122
 31
0.0
  0
LWPOLYLINE
  5
8BF6
330
2
100
AcDbEntity
  8
PCB_TOP
100
AcDbPolyline
 90
        6
 70
     1
 43
0.0
 10
23.81473535509112
 20
-1.612342851362271
 10
23.88973535509112
 20
-1.612342851362275
 10
23.88973535509112
 20
-2.057816932092819
 42
-0.2679491924311238
 10
23.81873535509112
 20
-2.057816932092817
 10
23.81873535509112
 20
-1.687342851362274
 10
23.81473535509112
 20
-1.687342851362274
  0
LWPOLYLINE
  5
8BFD
330
2
100
AcDbEntity
  8
PCB_TOP
100
AcDbPolyline
 90
        6
 70
     1
 43
0.0
 10
25.30473483257714
 20
-1.612342851362271
 10
25.22973483257715
 20
-1.612342851362275
 10
25.22973483257715
 20
-2.057816932092819
 42
0.2679491924311238
 10
25.30073483257714
 20
-2.057816932092817
 10
25.30073483257714
 20
-1.687342851362274
 10
25.30473483257714
 20
-1.687342851362274
  0
LWPOLYLINE
  5
8C03
330
2
100
AcDbEntity
  8
PCB_TOP
100
AcDbPolyline
 90
        6
 70
     1
 43
0.0
 10
23.81473535509112
 20
-0.7723008575654653
 10
23.88973535509112
 20
-0.7723008575654599
 10
23.88973535509112
 20
-0.3268267768349169
 42
0.2679491924311238
 10
23.81873535509112
 20
-0.3268267768349191
 10
23.81873535509112
 20
-0.6973008575654607
 10
23.81473535509112
 20
-0.6973008575654607
  0
LWPOLYLINE
  5
8C09
330
2
100
AcDbEntity
  8
PCB_TOP
100
AcDbPolyline
 90
        6
 70
     1
 43
0.0
 10
25.30473483257714
 20
-0.7723007375844233
 10
25.22973483257715
 20
-0.7723007375844179
 10
25.22973483257715
 20
-0.3268266568538749
 42
-0.2679491924311238
 10
25.30073483257714
 20
-0.3268266568538771
 10
25.30073483257714
 20
-0.6973007375844187
 10
25.30473483257714
 20
-0.6973007375844187
  0
LWPOLYLINE
  5
8C53
330
2
100
AcDbEntity
  8
PCB_TOP
100
AcDbPolyline
 90
       22
 70
     0
 43
0.0
 10
23.96476721331397
 20
-2.067329128424122
 10
25.15473483257715
 20
-2.067329128424122
 10
25.15473483257715
 20
-1.692342851362286
 10
25.18973483257715
 20
-1.692342851362283
 10
25.18973483257714
 20
-1.572342851362274
 10
25.37573483257714
 20
-1.572342851362274
 10
25.37573483257714
 20
-2.067329128424122
 10
25.70973481661916
 20
-2.067329128424122
 10
25.70973481661916
 20
-0.3173145804486062
 10
25.37573483257714
 20
-0.3173144605225708
 10
25.37573483257714
 20
-0.8123007375844187
 10
25.18973483257714
 20
-0.8123007375844187
 10
25.18973483257715
 20
-0.6923007375844108
 10
25.15473483257715
 20
-0.6923007375844074
 10
25.15473483257715
 20
-0.3173144605225708
 10
23.96473535509112
 20
-0.3173145804486062
 10
23.96473535509112
 20
-0.6923008575654494
 10
23.92973535509111
 20
-0.6923008575654528
 10
23.92973535509113
 20
-0.8123008575654607
 10
23.74373535509112
 20
-0.8123008575654607
 10
23.74373535509112
 20
-0.3173145805036128
 10
23.40973535073857
 20
-0.3173145804486062
  0
LINE
  5
8EC0
330
2
100
AcDbEntity
  8
Part
100
AcDbLine
 10
23.81473509384395
 20
-1.572321794473356
 30
0.0
 11
23.81473509306822
 21
-1.540795401845394
 31
0.0
  0
LINE
  5
8EC1
330
2
100
AcDbEntity
  8
Part
100
AcDbLine
 10
23.92973509383413
 20
-0.6973217944731758
 30
0.0
 11
23.96126148905592
 21
-0.6973217940724413
 31
0.0
  0
CIRCLE
  5
8EC2
330
2
100
AcDbEntity
  8
Part
100
AcDbCircle
 10
23.86473509383413
 20
-1.637321794473353
 30
0.0
 40
0.015
  0
CIRCLE
  5
8EC3
330
2
100
AcDbEntity
  8
Part
100
AcDbCircle
 10
23.92673508342182
 20
-1.329321794166584
 30
0.0
 40
0.0125
  0
CIRCLE
  5
8EC4
330
2
100
AcDbEntity
  8
Part
100
AcDbCircle
 10
23.92673508342182
 20
-1.384321794166583
 30
0.0
 40
0.0125
  0
CIRCLE
  5
8EC5
330
2
100
AcDbEntity
  8
Part
100
AcDbCircle
 10
23.92673508342182
 20
-1.439321794166581
 30
0.0
 40
0.0125
  0
CIRCLE
  5
8EC6
330
2
100
AcDbEntity
  8
Part
100
AcDbCircle
 10
24.37874010455413
 20
-1.383821794473355
 30
0.0
 40
0.0125
  0
CIRCLE
  5
8EC7
330
2
100
AcDbEntity
  8
Part
100
AcDbCircle
 10
24.37874010455413
 20
-1.438821794473355
 30
0.0
 40
0.0125
  0
CIRCLE
  5
8EC8
330
2
100
AcDbEntity
  8
Part
100
AcDbCircle
 10
24.37874010455413
 20
-1.49382179447335
 30
0.0
 40
0.0125
  0
CIRCLE
  5
8EC9
330
2
100
AcDbEntity
  8
Part
100
AcDbCircle
 10
24.37874010455413
 20
-1.603821794473347
 30
0.0
 40
0.0125
  0
CIRCLE
  5
8ECA
330
2
100
AcDbEntity
  8
Part
100
AcDbCircle
 10
24.37874010455413
 20
-1.54882179447335
 30
0.0
 40
0.0125
  0
CIRCLE
  5
8ECB
330
2
100
AcDbEntity
  8
Part
100
AcDbCircle
 10
24.86423925937103
 20
-1.55131127543064
 30
0.0
 40
0.0125
  0
CIRCLE
  5
8ECC
330
2
100
AcDbEntity
  8
Part
100
AcDbCircle
 10
24.86423925937103
 20
-1.496311275430645
 30
0.0
 40
0.0125
  0
CIRCLE
  5
8ECD
330
2
100
AcDbEntity
  8
Part
100
AcDbCircle
 10
24.86423925937103
 20
-1.60631127543064
 30
0.0
 40
0.0125
  0
CIRCLE
  5
8ECE
330
2
100
AcDbEntity
  8
Part
100
AcDbCircle
 10
24.41374010455412
 20
-1.521321794473351
 30
0.0
 40
0.0125
  0
CIRCLE
  5
8ECF
330
2
100
AcDbEntity
  8
Part
100
AcDbCircle
 10
24.41374010455412
 20
-1.576321794473351
 30
0.0
 40
0.0125
  0
CIRCLE
  5
8ED0
330
2
100
AcDbEntity
  8
Part
100
AcDbCircle
 10
23.98173508342182
 20
-1.329321794166584
 30
0.0
 40
0.0125
  0
CIRCLE
  5
8ED1
330
2
100
AcDbEntity
  8
Part
100
AcDbCircle
 10
25.25472019723566
 20
-0.7473217739027405
 30
0.0
 40
0.015
  0
CIRCLE
  5
8ED2
330
2
100
AcDbEntity
  8
Part
100
AcDbCircle
 10
24.66923928387192
 20
-1.55131127543064
 30
0.0
 40
0.0125
  0
CIRCLE
  5
8ED3
330
2
100
AcDbEntity
  8
Part
100
AcDbCircle
 10
24.66923928387192
 20
-1.496311275430645
 30
0.0
 40
0.0125
  0
CIRCLE
  5
8ED4
330
2
100
AcDbEntity
  8
Part
100
AcDbCircle
 10
24.66923928387192
 20
-1.60631127543064
 30
0.0
 40
0.0125
  0
CIRCLE
  5
8ED5
330
2
100
AcDbEntity
  8
Part
100
AcDbCircle
 10
24.41374010455412
 20
-1.46632179447335
 30
0.0
 40
0.0125
  0
CIRCLE
  5
8ED6
330
2
100
AcDbEntity
  8
Part
100
AcDbCircle
 10
24.41374010455412
 20
-1.411321794473351
 30
0.0
 40
0.0125
  0
CIRCLE
  5
8ED7
330
2
100
AcDbEntity
  8
Part
100
AcDbCircle
 10
24.94923925937104
 20
-1.55131127543064
 30
0.0
 40
0.0125
  0
CIRCLE
  5
8ED8
330
2
100
AcDbEntity
  8
Part
100
AcDbCircle
 10
24.94923925937104
 20
-1.496311275430645
 30
0.0
 40
0.0125
  0
CIRCLE
  5
8ED9
330
2
100
AcDbEntity
  8
Part
100
AcDbCircle
 10
24.94923925937104
 20
-1.60631127543064
 30
0.0
 40
0.0125
  0
CIRCLE
  5
8EDA
330
2
100
AcDbEntity
  8
Part
100
AcDbCircle
 10
25.19273403807128
 20
-1.055321810596165
 30
0.0
 40
0.0125
  0
CIRCLE
  5
8EDB
330
2
100
AcDbEntity
  8
Part
100
AcDbCircle
 10
25.19273403944415
 20
-1.000321810596165
 30
0.0
 40
0.0125
  0
CIRCLE
  5
8EDC
330
2
100
AcDbEntity
  8
Part
100
AcDbCircle
 10
25.19273404081701
 20
-0.9453218105961695
 30
0.0
 40
0.0125
  0
CIRCLE
  5
8EDD
330
2
100
AcDbEntity
  8
Part
100
AcDbCircle
 10
24.74072901829938
 20
-1.000821799006792
 30
0.0
 40
0.0125
  0
CIRCLE
  5
8EDE
330
2
100
AcDbEntity
  8
Part
100
AcDbCircle
 10
24.74072901967224
 20
-0.9458217990067971
 30
0.0
 40
0.0125
  0
CIRCLE
  5
8EDF
330
2
100
AcDbEntity
  8
Part
100
AcDbCircle
 10
24.74072902104512
 20
-0.8908217990067972
 30
0.0
 40
0.0125
  0
CIRCLE
  5
8EE0
330
2
100
AcDbEntity
  8
Part
100
AcDbCircle
 10
24.74072902379085
 20
-0.7808217990068016
 30
0.0
 40
0.0125
  0
CIRCLE
  5
8EE1
330
2
100
AcDbEntity
  8
Part
100
AcDbCircle
 10
24.74072902241798
 20
-0.8358217990068013
 30
0.0
 40
0.0125
  0
CIRCLE
  5
8EE2
330
2
100
AcDbEntity
  8
Part
100
AcDbCircle
 10
24.25522986766321
 20
-0.8333323059308559
 30
0.0
 40
0.0125
  0
CIRCLE
  5
8EE3
330
2
100
AcDbEntity
  8
Part
100
AcDbCircle
 10
24.25522986629033
 20
-0.8883323059308523
 30
0.0
 40
0.0125
  0
CIRCLE
  5
8EE4
330
2
100
AcDbEntity
  8
Part
100
AcDbCircle
 10
24.25522986903607
 20
-0.7783323059308565
 30
0.0
 40
0.0125
  0
CIRCLE
  5
8EE5
330
2
100
AcDbEntity
  8
Part
100
AcDbCircle
 10
24.70572902173155
 20
-0.8633217981331569
 30
0.0
 40
0.0125
  0
CIRCLE
  5
8EE6
330
2
100
AcDbEntity
  8
Part
100
AcDbCircle
 10
24.70572902310441
 20
-0.808321798133157
 30
0.0
 40
0.0125
  0
CIRCLE
  5
8EE7
330
2
100
AcDbEntity
  8
Part
100
AcDbCircle
 10
25.13773403807129
 20
-1.055321809223296
 30
0.0
 40
0.0125
  0
CIRCLE
  5
8EE8
330
2
100
AcDbEntity
  8
Part
100
AcDbCircle
 10
24.45022984316232
 20
-0.8333323107982939
 30
0.0
 40
0.0125
  0
CIRCLE
  5
8EE9
330
2
100
AcDbEntity
  8
Part
100
AcDbCircle
 10
24.45022984178945
 20
-0.8883323107982903
 30
0.0
 40
0.0125
  0
CIRCLE
  5
8EEA
330
2
100
AcDbEntity
  8
Part
100
AcDbCircle
 10
24.45022984453519
 20
-0.7783323107982945
 30
0.0
 40
0.0125
  0
CIRCLE
  5
8EEB
330
2
100
AcDbEntity
  8
Part
100
AcDbCircle
 10
24.70572902035867
 20
-0.9183217981331566
 30
0.0
 40
0.0125
  0
CIRCLE
  5
8EEC
330
2
100
AcDbEntity
  8
Part
100
AcDbCircle
 10
24.70572901898581
 20
-0.9733217981331565
 30
0.0
 40
0.0125
  0
CIRCLE
  5
8EED
330
2
100
AcDbEntity
  8
Part
100
AcDbCircle
 10
24.1702298676632
 20
-0.8333323038091505
 30
0.0
 40
0.0125
  0
CIRCLE
  5
8EEE
330
2
100
AcDbEntity
  8
Part
100
AcDbCircle
 10
24.17022986629034
 20
-0.8883323038091468
 30
0.0
 40
0.0125
  0
CIRCLE
  5
8EEF
330
2
100
AcDbEntity
  8
Part
100
AcDbCircle
 10
24.17022986903607
 20
-0.7783323038091509
 30
0.0
 40
0.0125
  0
LWPOLYLINE
  5
8EF0
330
2
100
AcDbEntity
  8
Part
100
AcDbPolyline
 90
        5
 70
     0
 43
0.0
 10
23.81473509383413
 20
-1.654905190463384
 10
23.81473509383413
 20
-1.612321794473356
 10
23.88973509383413
 20
-1.612321794473356
 10
23.88973509383413
 20
-1.687321794473355
 10
23.84715169784411
 20
-1.687321794473355
  0
LWPOLYLINE
  5
8EF1
330
2
100
AcDbEntity
  8
Part
100
AcDbPolyline
 90
        8
 70
     1
 43
0.0
 10
23.95923508335025
 20
-1.587321794473349
 10
23.95923508335025
 20
-1.393821794473353
 42
-0.4142135623730951
 10
23.98923508335025
 20
-1.363821794473355
 10
24.31124010455415
 20
-1.363821794473355
 42
-0.4142135623730951
 10
24.34124010455414
 20
-1.393821794473356
 10
24.34124010455412
 20
-1.587321794473356
 42
-0.4142135623730951
 10
24.31124010455415
 20
-1.617321794473357
 10
23.98923508335025
 20
-1.617321794473355
 42
-0.414213562373093
  0
LWPOLYLINE
  5
8EF2
330
2
100
AcDbEntity
  8
Part
100
AcDbPolyline
 90
        8
 70
     1
 43
0.0
 10
24.70173927162148
 20
-1.587311275430639
 10
24.70173927162148
 20
-1.38381127543064
 42
-0.4142135623730971
 10
24.73173927162148
 20
-1.353811275430643
 10
24.80173927162148
 20
-1.353811275430643
 42
-0.4142135623730951
 10
24.83173927162147
 20
-1.38381127543064
 10
24.83173927162148
 20
-1.587311275430639
 42
-0.414213562373102
 10
24.80173927162148
 20
-1.61731127543064
 10
24.73173927162149
 20
-1.61731127543064
 42
-0.414213562373094
  0
LWPOLYLINE
  5
8EF3
330
2
100
AcDbEntity
  8
Part
100
AcDbPolyline
 90
        5
 70
     0
 43
0.0
 10
25.3047350942684
 20
-0.729738396681432
 10
25.30473509476261
 20
-0.7723217771227377
 10
25.22973509476261
 20
-0.7723217779931666
 10
25.22973509389217
 20
-0.6973217779931673
 10
25.27231848360179
 20
-0.6973217774989564
  0
LINE
  5
8EF4
330
2
100
AcDbEntity
  8
Part
100
AcDbLine
 10
25.18972019575574
 20
-0.6973217784574395
 30
0.0
 11
25.18972019915953
 21
-0.8123217758266392
 31
0.0
  0
LINE
  5
8EF5
330
2
100
AcDbEntity
  8
Part
100
AcDbLine
 10
25.18972019915953
 20
-0.8123217758266392
 30
0.0
 11
25.30479529685462
 21
-0.8123217724206098
 31
0.0
  0
LINE
  5
8EF6
330
2
100
AcDbEntity
  8
Part
100
AcDbLine
 10
25.30479529685462
 20
-0.8123217724206098
 30
0.0
 11
25.30479257549524
 21
-0.8437797412031802
 31
0.0
  0
LINE
  5
8EF7
330
2
100
AcDbEntity
  8
Part
100
AcDbLine
 10
25.18973509383414
 20
-1.687321794473348
 30
0.0
 11
25.15820870029159
 21
-1.68732179447335
 31
0.0
  0
LINE
  5
8EF8
330
2
100
AcDbEntity
  8
Part
100
AcDbLine
 10
23.96126148737649
 20
-1.687321794473514
 30
0.0
 11
23.92973509383413
 21
-1.687321794473518
 31
0.0
  0
LINE
  5
8EF9
330
2
100
AcDbEntity
  8
Part
100
AcDbLine
 10
23.92973509383413
 20
-1.687321794473518
 30
0.0
 11
23.92973509383415
 21
-1.572321794473356
 31
0.0
  0
LINE
  5
8EFA
330
2
100
AcDbEntity
  8
Part
100
AcDbLine
 10
23.92973509383415
 20
-1.572321794473356
 30
0.0
 11
23.81473507514365
 21
-1.572321794473356
 31
0.0
  0
LWPOLYLINE
  5
8EFB
330
2
100
AcDbEntity
  8
Part
100
AcDbPolyline
 90
        8
 70
     1
 43
0.0
 10
24.80822902412779
 20
-0.7673218006916756
 10
25.1302340453317
 20
-0.7673218087293244
 42
-0.4142135623730934
 10
25.16023404458286
 20
-0.7973218094781595
 10
25.16023403975286
 20
-0.9908218094781558
 42
-0.4142135623730949
 10
25.13023403900402
 20
-1.020821808729315
 10
24.80822901780012
 20
-1.020821800691674
 42
-0.4142135623730955
 10
24.77822901854897
 20
-0.9908217999428392
 10
24.77822902337898
 20
-0.7973217999428393
 42
-0.4142135623730948
  0
LWPOLYLINE
  5
8EFC
330
2
100
AcDbEntity
  8
Part
100
AcDbPolyline
 90
        8
 70
     1
 43
0.0
 10
24.3177298570602
 20
-0.7673323074909321
 42
0.4142135623731022
 10
24.28772985631137
 20
-0.7973323067420992
 10
24.28772985123176
 20
-1.000832306742093
 42
0.4142135623730955
 10
24.31772985048292
 20
-1.030832307490928
 10
24.38772985048292
 20
-1.030832309238217
 42
0.4142135623730969
 10
24.41772985123176
 20
-1.000832309987053
 10
24.41772985631137
 20
-0.7973323099870555
 42
0.4142135623730943
 10
24.38772985706019
 20
-0.7673323092382205
  0
LINE
  5
8EFD
330
2
100
AcDbEntity
  8
Part
100
AcDbLine
 10
25.29773510146203
 20
-1.521549393635158
 30
0.0
 11
25.29773509581627
 21
-0.8631095310307761
 31
0.0
  0
ARC
  5
8EFE
330
2
100
AcDbEntity
  8
Part
100
AcDbCircle
 10
25.32773509581627
 20
-0.8631095306826015
 30
0.0
 40
0.0300000000000011
100
AcDbArc
 50
126.869898310809
 51
180.0000006649649
  0
LINE
  5
8EFF
330
2
100
AcDbEntity
  8
Part
100
AcDbLine
 10
25.30973509553773
 20
-0.8391095308915055
 30
0.0
 11
25.30973509428952
 21
-0.7315581447194363
 31
0.0
  0
ARC
  5
8F00
330
2
100
AcDbEntity
  8
Part
100
AcDbCircle
 10
25.32773509383414
 20
-0.6743217924912095
 30
0.0
 40
0.0599999999999988
100
AcDbArc
 50
197.4575881370437
 51
252.5423973321327
  0
LINE
  5
8F01
330
2
100
AcDbEntity
  8
Part
100
AcDbLine
 10
25.27049873704091
 20
-0.6923217775200749
 30
0.0
 11
25.16294734000736
 21
-0.6923217787682816
 31
0.0
  0
ARC
  5
8F02
330
2
100
AcDbEntity
  8
Part
100
AcDbCircle
 10
25.13894733962438
 20
-0.6743217786986479
 30
0.0
 40
0.0300000003481671
100
AcDbArc
 50
270.0000003324737
 51
323.1301026866297
  0
LINE
  5
8F03
330
2
100
AcDbEntity
  8
Part
100
AcDbLine
 10
25.13894733979846
 20
-0.7043217790468148
 30
0.0
 11
23.98052284780021
 21
-0.7043217924912142
 31
0.0
  0
ARC
  5
8F04
330
2
100
AcDbEntity
  8
Part
100
AcDbCircle
 10
23.98052284745204
 20
-0.6743217924912131
 30
0.0
 40
0.0300000000000011
100
AcDbArc
 50
216.8698983108068
 51
270.0000006649613
  0
LINE
  5
8F05
330
2
100
AcDbEntity
  8
Part
100
AcDbLine
 10
23.95652284766093
 20
-0.6923217927697536
 30
0.0
 11
23.84897144591914
 21
-0.692321794473342
 31
0.0
  0
LINE
  5
8F06
330
2
100
AcDbEntity
  8
Part
100
AcDbLine
 10
23.80973509428952
 20
-0.7315581464151233
 30
0.0
 11
23.80973509553773
 21
-0.8391095483001469
 31
0.0
  0
ARC
  5
8F07
330
2
100
AcDbEntity
  8
Part
100
AcDbCircle
 10
23.79173509581627
 20
-0.8631095485090527
 30
0.0
 40
0.0300000000000011
100
AcDbArc
 50
0.0000006649649284
 51
53.13010301912079
  0
LINE
  5
8F08
330
2
100
AcDbEntity
  8
Part
100
AcDbLine
 10
23.82173509581627
 20
-0.8631095481608781
 30
0.0
 11
23.82173509406337
 21
-1.353821791698859
 31
0.0
  0
LINE
  5
8F09
330
2
100
AcDbEntity
  8
Part
100
AcDbLine
 10
23.8217350901348
 20
-1.353821791698859
 30
0.0
 11
23.82173509383413
 21
-1.521534040646556
 31
0.0
  0
ARC
  5
8F0A
330
2
100
AcDbEntity
  8
Part
100
AcDbCircle
 10
23.79173509383413
 20
-1.521534040646556
 30
0.0
 40
0.0300000000000011
100
AcDbArc
 50
306.8698976458441
 51
0.0
  0
LINE
  5
8F0B
330
2
100
AcDbEntity
  8
Part
100
AcDbLine
 10
23.80973509383414
 20
-1.545534040646558
 30
0.0
 11
23.80973509383414
 21
-1.653085442388356
 31
0.0
  0
ARC
  5
8F0C
330
2
100
AcDbEntity
  8
Part
100
AcDbCircle
 10
23.79173509383413
 20
-1.710321794473375
 30
0.0
 40
0.060000000000003
100
AcDbArc
 50
17.45760312374477
 51
72.54239687627467
  0
LINE
  5
8F0D
330
2
100
AcDbEntity
  8
Part
100
AcDbLine
 10
23.84897144591914
 20
-1.692321794473351
 30
0.0
 11
23.95652284766093
 21
-1.692321794473365
 31
0.0
  0
ARC
  5
8F0E
330
2
100
AcDbEntity
  8
Part
100
AcDbCircle
 10
23.98052284766092
 20
-1.710321794473367
 30
0.0
 40
0.0299999999999994
100
AcDbArc
 50
89.99999999999308
 51
143.1301023541489
  0
LINE
  5
8F0F
330
2
100
AcDbEntity
  8
Part
100
AcDbLine
 10
23.98052284766092
 20
-1.680321794473368
 30
0.0
 11
25.13894734000734
 21
-1.680321794473368
 31
0.0
  0
ARC
  5
8F10
330
2
100
AcDbEntity
  8
Part
100
AcDbCircle
 10
25.13894734000735
 20
-1.710321794473367
 30
0.0
 40
0.0299999999999994
100
AcDbArc
 50
36.86989764585103
 51
90.00000000000651
  0
LINE
  5
8F11
330
2
100
AcDbEntity
  8
Part
100
AcDbLine
 10
25.16294734000734
 20
-1.692321794473365
 30
0.0
 11
25.27049874174912
 21
-1.692321794473351
 31
0.0
  0
LINE
  5
8F12
330
2
100
AcDbEntity
  8
Part
100
AcDbLine
 10
25.30973509383414
 20
-1.653085442388356
 30
0.0
 11
25.30973509383414
 21
-1.545534037872057
 31
0.0
  0
ARC
  5
8F13
330
2
100
AcDbEntity
  8
Part
100
AcDbCircle
 10
25.32773509753347
 20
-1.521534040646545
 30
0.0
 40
0.03000000000001
100
AcDbArc
 50
180.0000000000135
 51
233.1300935226583
  0
CIRCLE
  5
8F14
330
2
100
AcDbEntity
  8
Part
100
AcDbCircle
 10
23.86473509383413
 20
-0.7473217944733399
 30
0.0
 40
0.015
  0
LWPOLYLINE
  5
8F15
330
2
100
AcDbEntity
  8
Part
100
AcDbPolyline
 90
        5
 70
     0
 43
0.0
 10
23.81473509383413
 20
-0.7297383984833097
 10
23.81473509383413
 20
-0.7723217944733385
 10
23.88973509383413
 20
-0.7723217944733385
 10
23.88973509383413
 20
-0.6973217944733392
 10
23.84715169784411
 20
-0.6973217944733392
  0
LINE
  5
8F16
330
2
100
AcDbEntity
  8
Part
100
AcDbLine
 10
23.92973509383413
 20
-0.6973217944731758
 30
0.0
 11
23.92973509383415
 21
-0.8123217944733376
 31
0.0
  0
LINE
  5
8F17
330
2
100
AcDbEntity
  8
Part
100
AcDbLine
 10
23.92973509383415
 20
-0.8123217944733376
 30
0.0
 11
23.81473507514365
 21
-0.8123217944733376
 31
0.0
  0
ARC
  5
8F18
330
2
100
AcDbEntity
  8
Part
100
AcDbCircle
 10
23.79173509383413
 20
-0.6743217944733182
 30
0.0
 40
0.060000000000003
100
AcDbArc
 50
287.4576031237253
 51
342.5423968762553
  0
CIRCLE
  5
8F19
330
2
100
AcDbEntity
  8
Part
100
AcDbCircle
 10
25.25473509383413
 20
-1.637321794473353
 30
0.0
 40
0.015
  0
LWPOLYLINE
  5
8F1A
330
2
100
AcDbEntity
  8
Part
100
AcDbPolyline
 90
        5
 70
     0
 43
0.0
 10
25.30473509383413
 20
-1.654905190463384
 10
25.30473509383413
 20
-1.612321794473356
 10
25.22973509383413
 20
-1.612321794473356
 10
25.22973509383413
 20
-1.687321794473355
 10
25.27231848982415
 20
-1.687321794473355
  0
LINE
  5
8F1B
330
2
100
AcDbEntity
  8
Part
100
AcDbLine
 10
25.18973509383414
 20
-1.687321794473518
 30
0.0
 11
25.18973509383413
 21
-1.572321794473356
 31
0.0
  0
LINE
  5
8F1C
330
2
100
AcDbEntity
  8
Part
100
AcDbLine
 10
25.18973509383413
 20
-1.572321794473356
 30
0.0
 11
25.30473511252461
 21
-1.572321794473356
 31
0.0
  0
ARC
  5
8F1D
330
2
100
AcDbEntity
  8
Part
100
AcDbCircle
 10
25.32773509383414
 20
-1.710321794473375
 30
0.0
 40
0.060000000000003
100
AcDbArc
 50
107.4576031237253
 51
162.5423968762552
  0
TEXT
  5
8F1E
330
2
100
AcDbEntity
  8
Part
100
AcDbText
 10
24.33684256692501
 20
-1.125589238795092
 30
0.0
 40
0.07
  1
Innovative
 51
15.0
  7
ARIAL
 72
     1
 11
24.55973479066307
 21
-1.090589238795093
 31
0.0
100
AcDbText
 73
     2
  0
TEXT
  5
8F1F
330
2
100
AcDbEntity
  8
Part
100
AcDbText
 10
24.38499399906348
 20
-1.223359530464707
 30
0.0
 40
0.06
  1
IPP-8041
  7
ARIAL
 72
     1
 11
24.55973479033224
 21
-1.193359530464707
 31
0.0
100
AcDbText
 73
     2
  0
TEXT
  5
8F20
330
2
100
AcDbEntity
  8
Part
100
AcDbText
 10
24.11714270301982
 20
-1.315835220584447
 30
0.0
 40
0.06
  1
500 - 2500 MHz. 200W 
  7
ARIAL
 72
     1
 11
24.55973479033224
 21
-1.285835220584447
 31
0.0
100
AcDbText
 73
     2
  0
MTEXT
  5
8FC9
330
2
100
AcDbEntity
  8
Text
100
AcDbMText
 10
24.50229573006043
 20
-2.162990535212695
 30
0.0
 40
0.1
 41
2.0564
 71
     2
 72
     5
  1
Er=3.55, 2oz. Cu, Both Sides\P(.032" THK.)
  7
ARIAL
 73
     1
 44
1.0
1001
ACAD
1000
MTEXTBEGIN
1070
    73
1070
     1
1070
    44
1040
1.0
1070
    74
1070
     0
1000
MTEXTEND
  0
TEXT
  5
8FCA
330
2
100
AcDbEntity
  8
Text
100
AcDbText
 10
23.65117493390306
 20
-0.0317665996166239
 30
-0.062
 40
0.06
  1
%%UTOP & BOTTOM ARTWORK SCALE 1:1
  7
ROMANS
 72
     1
 11
24.50217493390306
 21
-0.0317665996166239
 31
-0.062
100
AcDbText
  0
TEXT
  5
8FCB
330
2
100
AcDbEntity
  8
Text
100
AcDbText
 10
23.4750320767602
 20
-0.2117184037670723
 30
-0.062
 40
0.06
  1
VIEW: LOOKING THRU FROM TOP TO BOTTOM
  7
ROMANS
 72
     1
 11
24.50217493390306
 21
-0.2117184037670723
 31
-0.062
100
AcDbText
  0
CIRCLE
  5
8FCD
330
2
100
AcDbEntity
  8
PCB_OUTLINE
100
AcDbCircle
 10
25.67973535509111
 20
-0.9923291539591636
 30
0.0
 40
0.015
  0
CIRCLE
  5
8FCE
330
2
100
AcDbEntity
  8
PCB_OUTLINE
100
AcDbCircle
 10
25.67973535509111
 20
-1.312329153959163
 30
0.0
 40
0.015
  0
CIRCLE
  5
8FCF
330
2
100
AcDbEntity
  8
PCB_OUTLINE
100
AcDbCircle
 10
25.67973535509111
 20
-1.232329153959164
 30
0.0
 40
0.015
  0
CIRCLE
  5
8FD0
330
2
100
AcDbEntity
  8
PCB_OUTLINE
100
AcDbCircle
 10
25.67973535509111
 20
-1.152329153959164
 30
0.0
 40
0.015
  0
CIRCLE
  5
8FD1
330
2
100
AcDbEntity
  8
PCB_OUTLINE
100
AcDbCircle
 10
25.67973535509111
 20
-1.072329153959163
 30
0.0
 40
0.015
  0
ENDSEC
  0
SECTION
  2
OBJECTS
  0
DICTIONARY
  5
7
330
0
100
AcDbDictionary
281
     1
  3
ACAD_2007HEADERVARS_RT
350
8FD8
  3
ACAD_CIP_PREVIOUS_PRODUCT_INFO
350
8F71
  3
ACAD_COLOR
350
43
  3
ACAD_DETAILVIEWSTYLE
350
8F6C
  3
ACAD_GROUP
350
30
  3
ACAD_LAYOUT
350
6
  3
ACAD_MATERIAL
350
13
  3
ACAD_MLEADERSTYLE
350
225
  3
ACAD_MLINESTYLE
350
31
  3
ACAD_PLOTSETTINGS
350
32
  3
ACAD_PLOTSTYLENAME
350
11
  3
ACAD_SCALELIST
350
44
  3
ACAD_SECTIONVIEWSTYLE
350
8F6A
  3
ACAD_TABLESTYLE
350
45
  3
ACAD_VISUALSTYLE
350
29
  3
ACDB_RECOMPOSE_DATA
350
8FD6
  3
AcDbVariableDictionary
350
212
  3
AcmDictionary
350
1B9
  3
AMG
350
1AA
  3
AMGSNAPSETTINGS
350
265
  3
BNS_VARIABLES
350
76F6
  3
DWGPROPS
350
8FD7
  0
DICTIONARY
  5
2A
330
26
100
AcDbDictionary
280
     1
281
     1
  0
DICTIONARY
  5
1C
330
C
100
AcDbDictionary
280
     1
281
     1
  3
ACAD_LAYERFILTERS
360
4810
  3
ACAD_LAYERSTATES
360
1D
  3
ACLYDICTIONARY
360
480F
  0
DICTIONARY
  5
E
330
D
100
AcDbDictionary
280
     1
281
     1
  3
ADSK_XREC_LAYER_RECONCILED
360
F
  0
DICTIONARY
  5
99
330
98
100
AcDbDictionary
280
     1
281
     1
  3
ADSK_XREC_LAYER_RECONCILED
360
9A
  0
DICTIONARY
  5
10D
330
10C
100
AcDbDictionary
280
     1
281
     1
  3
ADSK_XREC_LAYER_RECONCILED
360
10E
  0
DICTIONARY
  5
118
330
117
100
AcDbDictionary
280
     1
281
     1
  3
ADSK_XREC_LAYER_RECONCILED
360
119
  0
DICTIONARY
  5
109
330
108
100
AcDbDictionary
280
     1
281
     1
  3
ADSK_XREC_LAYER_RECONCILED
360
10A
  0
DICTIONARY
  5
32A5
330
2
100
AcDbDictionary
280
     1
281
     1
  3
ACAD_SORTENTS
360
32A6
  0
DICTIONARY
  5
8FD8
102
{ACAD_REACTORS
330
7
102
}
330
7
100
AcDbDictionary
281
     1
  3
DIMARCSYM
350
8FD9
  3
DIMLTEX1
350
8FDB
  3
DIMLTEX2
350
8FDC
  3
DIMLTYPE
350
8FDA
  0
XRECORD
  5
8F71
102
{ACAD_REACTORS
330
7
102
}
330
7
100
AcDbXrecord
280
     1
300
AMECH_PP
300
2013
300
PDSP_F_S
  0
DICTIONARY
  5
43
102
{ACAD_REACTORS
330
7
102
}
330
7
100
AcDbDictionary
281
     1
  0
DICTIONARY
  5
8F6C
102
{ACAD_REACTORS
330
7
102
}
330
7
100
AcDbDictionary
281
     1
  3
Imperial24
350
8F6D
  0
DICTIONARY
  5
30
102
{ACAD_REACTORS
330
7
102
}
330
7
100
AcDbDictionary
281
     1
  0
DICTIONARY
  5
6
102
{ACAD_REACTORS
330
7
102
}
330
7
100
AcDbDictionary
281
     1
  3
Layout1
350
B
  3
Model
350
5
  0
DICTIONARY
  5
13
102
{ACAD_REACTORS
330
7
102
}
330
7
100
AcDbDictionary
281
     1
  3
ByBlock
350
3B
  3
ByLayer
350
33
  3
Global
350
12
  0
DICTIONARY
  5
225
102
{ACAD_REACTORS
330
7
102
}
330
7
100
AcDbDictionary
281
     1
  3
Standard
350
226
  0
DICTIONARY
  5
31
102
{ACAD_REACTORS
330
7
102
}
330
7
100
AcDbDictionary
281
     1
  3
Standard
350
46
  0
DICTIONARY
  5
32
102
{ACAD_REACTORS
330
7
102
}
330
7
100
AcDbDictionary
281
     1
  0
ACDBDICTIONARYWDFLT
  5
11
102
{ACAD_REACTORS
330
7
102
}
330
7
100
AcDbDictionary
281
     1
  3
Normal
350
10
100
AcDbDictionaryWithDefault
340
10
  0
DICTIONARY
  5
44
102
{ACAD_REACTORS
330
7
102
}
330
7
100
AcDbDictionary
281
     1
  3
A0
350
4B
  3
A1
350
4C
  3
A2
350
4D
  3
A3
350
4E
  3
A4
350
4F
  3
A5
350
50
  3
A6
350
51
  3
A7
350
52
  3
A8
350
53
  3
A9
350
54
  3
B0
350
55
  3
B1
350
56
  3
B2
350
57
  3
B3
350
58
  3
B4
350
59
  3
B5
350
5A
  3
B6
350
5B
  3
B7
350
5C
  3
B8
350
5D
  3
B9
350
5E
  3
C0
350
5F
  3
C1
350
60
  3
C2
350
61
  3
C3
350
62
  3
C4
350
63
  3
C5
350
64
  3
C6
350
65
  3
C7
350
66
  3
C8
350
67
  3
C9
350
68
  3
D0
350
69
  3
D1
350
6A
  3
D2
350
6B
  0
DICTIONARY
  5
8F6A
102
{ACAD_REACTORS
330
7
102
}
330
7
100
AcDbDictionary
281
     1
  3
Imperial24
350
8F6B
  0
DICTIONARY
  5
45
102
{ACAD_REACTORS
330
7
102
}
330
7
100
AcDbDictionary
281
     1
  3
Standard
350
47
  0
DICTIONARY
  5
29
102
{ACAD_REACTORS
330
7
102
}
330
7
100
AcDbDictionary
281
     1
  3
2dWireframe
350
28
  3
3D Hidden
350
21D
  3
3dWireframe
350
4A
  3
Basic
350
21C
  3
Brighten
350
220
  3
ColorChange
350
224
  3
Conceptual
350
21E
  3
Dim
350
21F
  3
EdgeColorOff
350
6237
  3
Facepattern
350
223
  3
Flat
350
218
  3
FlatWithEdges
350
219
  3
Gouraud
350
21A
  3
GouraudWithEdges
350
21B
  3
Hidden
350
7A49
  3
JitterOff
350
6235
  3
Linepattern
350
222
  3
OverhangOff
350
6236
  3
Realistic
350
49
  3
Shaded
350
7A4E
  3
Shaded with edges
350
7A4D
  3
Shades of Gray
350
7A4A
  3
Sketchy
350
7A4B
  3
Thicken
350
221
  3
Wireframe
350
7A48
  3
X-Ray
350
7A4C
  0
XRECORD
  5
8FD6
102
{ACAD_REACTORS
330
7
102
}
330
7
100
AcDbXrecord
280
     1
 90
        1
330
47
  0
DICTIONARY
  5
212
102
{ACAD_REACTORS
330
7
102
}
330
7
100
AcDbDictionary
281
     1
  3
CANNOSCALE
350
215
  3
CMLEADERSTYLE
350
214
  3
CTABLESTYLE
350
213
  3
CVIEWDETAILSTYLE
350
8FD2
  3
CVIEWSECTIONSTYLE
350
8FD3
  3
DIMASSOC
350
2EC
  3
HIDETEXT
350
2EB
  3
INDEXCTL
350
2EA
  3
LIGHTINGUNITS
350
216
  3
MSLTSCALE
350
2E8
  3
SORTENTS
350
2E9
  3
XCLIPFRAME
350
8FD4
  0
DICTIONARY
  5
1B9
102
{ACAD_REACTORS
330
7
102
}
330
7
100
AcDbDictionary
281
     1
  3
AcmStdDictionary
350
1BA
  3
AMDTSECTSYM_ARROWCOLOR
350
25B
  0
DICTIONARY
  5
1AA
102
{ACAD_REACTORS
330
7
102
}
330
7
100
AcDbDictionary
281
     1
  0
DICTIONARY
  5
265
102
{ACAD_REACTORS
330
7
102
}
330
7
100
AcDbDictionary
281
     1
  0
DICTIONARY
  5
76F6
102
{ACAD_REACTORS
330
7
102
}
330
7
100
AcDbDictionary
281
     1
  3
ACET-OVERKILL-FUZZ
350
76F7
  3
ACET-OVERKILL-NO-ENDTOEND
350
76FA
  3
ACET-OVERKILL-NO-PARTIAL
350
76F9
  3
ACET-OVERKILL-NO-PLINES
350
76F8
  0
XRECORD
  5
8FD7
102
{ACAD_REACTORS
330
7
102
}
330
7
100
AcDbXrecord
280
     1
  1
DWGPROPS COOKIE
  2

  3

  4

  6

  7

  8
scornell
  9

300
=
301
=
302
=
303
=
304
=
305
=
306
=
307
=
308
=
309
=
 40
0.3570549768518518
 41
2454494.837450614
 42
2456905.702485012
  1

 90
        0
  0
DICTIONARY
  5
4810
102
{ACAD_REACTORS
330
1C
102
}
330
1C
100
AcDbDictionary
281
     1
  0
DICTIONARY
  5
1D
102
{ACAD_REACTORS
330
1C
102
}
330
1C
100
AcDbDictionary
281
     1
  3
_LAYISO_STATE
350
3E68
1001
ACLAYERTOOLS
1000
5
1000
0
  0
DICTIONARY
  5
480F
102
{ACAD_REACTORS
330
1C
102
}
330
1C
100
AcDbDictionary
281
     1
1001
ACAD
1000
<All
  0
XRECORD
  5
F
102
{ACAD_REACTORS
330
E
102
}
330
E
100
AcDbXrecord
280
     1
290
     1
  0
XRECORD
  5
9A
102
{ACAD_REACTORS
330
99
102
}
330
99
100
AcDbXrecord
280
     1
290
     1
  0
XRECORD
  5
10E
102
{ACAD_REACTORS
330
10D
102
}
330
10D
100
AcDbXrecord
280
     1
290
     1
  0
XRECORD
  5
119
102
{ACAD_REACTORS
330
118
102
}
330
118
100
AcDbXrecord
280
     1
290
     1
  0
XRECORD
  5
10A
102
{ACAD_REACTORS
330
109
102
}
330
109
100
AcDbXrecord
280
     1
290
     1
  0
SORTENTSTABLE
  5
32A6
102
{ACAD_REACTORS
330
32A5
102
}
330
32A5
100
AcDbSortentsTable
330
2
331
697C
  5
6A55
331
7FA6
  5
7FBC
331
7EA7
  5
7EBD
331
7FA2
  5
7FB8
331
6978
  5
6A51
331
7EA3
  5
7EB9
331
7F9E
  5
7FB4
331
7FDD
  5
7FF3
331
6974
  5
6A4D
331
6970
  5
6A49
331
7F9A
  5
7FB0
331
7FD9
  5
7FEF
331
8097
  5
80D9
331
801D
  5
8033
331
8093
  5
80D5
331
8019
  5
802F
331
8015
  5
802B
331
8054
  5
806A
331
7F2D
  5
7F43
331
7EBF
  5
7ED5
331
808F
  5
80CC
331
80EE
  5
81C8
331
80EA
  5
8106
331
8011
  5
8027
331
8050
  5
8066
331
7F29
  5
7F3F
331
7EBB
  5
7ED1
331
808B
  5
80A1
331
7EF6
  5
7F0C
331
7F25
  5
7F3B
331
7F64
  5
7F7A
331
7EB7
  5
7ECD
331
7F60
  5
7F76
331
7EB3
  5
7EC9
331
7EF2
  5
7F08
331
7F21
  5
7F37
331
7FD5
  5
7FEB
331
7F96
  5
7FAC
331
7F92
  5
7FA8
331
7FD1
  5
7FE7
331
7F8E
  5
7FA4
331
7FCD
  5
7FE3
331
7F8A
  5
7FA0
331
7FC9
  5
7FDF
331
80E6
  5
80FC
331
800D
  5
8023
331
804C
  5
8062
331
8087
  5
809D
331
8048
  5
805E
331
8083
  5
8099
331
80E2
  5
80F8
331
8009
  5
801F
331
8005
  5
801B
331
8044
  5
805A
331
7F5C
  5
7F72
331
807F
  5
8095
331
80DE
  5
80F4
331
7EAF
  5
7EC5
331
7EEE
  5
7F04
331
7F1D
  5
7F33
331
8001
  5
8017
331
8040
  5
8056
331
7F19
  5
7F2F
331
7F58
  5
7F6E
331
807B
  5
8091
331
7EAB
  5
7EC1
331
7EEA
  5
7F00
331
80DA
  5
80F0
331
7EE6
  5
7EFC
331
7F15
  5
7F2B
331
7F54
  5
7F6A
331
7EE2
  5
7EF8
331
7F11
  5
7F27
331
7F50
  5
7F66
331
8BF4
  5
8BF5
331
8BF0
  5
8BF1
331
69AF
  5
7142
331
7FC5
  5
7FDB
331
69AB
  5
713E
331
7F86
  5
7F9C
331
7F82
  5
7F98
331
7FC1
  5
7FD7
331
69A7
  5
6A64
331
69A3
  5
6A60
331
7F7E
  5
7F94
331
7FBD
  5
7FD3
331
7F7A
  5
7F90
331
7FB9
  5
7FCF
331
80D6
  5
80EC
331
7FFD
  5
8013
331
803C
  5
8052
331
8077
  5
808D
331
8038
  5
804E
331
8073
  5
8089
331
7FF9
  5
800F
331
8034
  5
804A
331
7F4C
  5
7F62
331
806F
  5
8085
331
7EDE
  5
7EF4
331
7F0D
  5
7F23
331
7FF5
  5
800B
331
7FF1
  5
8007
331
8030
  5
8046
331
7F09
  5
7F1F
331
7F48
  5
7F5E
331
806B
  5
8081
331
7EDA
  5
7EF0
331
7ED6
  5
7EEC
331
7F05
  5
7F1B
331
7F44
  5
7F5A
331
7ED2
  5
7EE8
331
7F01
  5
7F17
331
7F40
  5
7F56
331
699F
  5
6A5C
331
7FB5
  5
7FCB
331
7F76
  5
7F8C
331
7FB1
  5
7FC7
331
7F72
  5
7F88
331
7F6E
  5
7F84
331
7FAD
  5
7FC3
331
7F6A
  5
7F80
331
7FA9
  5
7FBF
331
7FED
  5
8003
331
802C
  5
8042
331
8067
  5
807D
331
8063
  5
8079
331
80A2
  5
80E4
331
7FE9
  5
7FFF
331
8028
  5
803E
331
8024
  5
803A
331
7F3C
  5
7F52
331
805F
  5
8075
331
809E
  5
80E0
331
7ECE
  5
7EE4
331
7EFD
  5
7F13
331
7FE5
  5
7FFB
331
7FE1
  5
7FF7
331
8020
  5
8036
331
7EF9
  5
7F0F
331
7F38
  5
7F4E
331
805B
  5
8071
331
7ECA
  5
7EE0
331
809A
  5
80DC
331
7EC6
  5
7EDC
331
7F34
  5
7F4A
331
80FC
  5
81D6
331
80F8
  5
81D2
331
7EC2
  5
7ED8
331
7F30
  5
7F46
331
80F4
  5
81CE
331
8C53
  5
8BEE
331
80F0
  5
81CA
331
697F
  5
6A58
331
697B
  5
6A54
331
7FA5
  5
7FBB
331
7EA6
  5
7EBC
331
7FA1
  5
7FB7
331
6977
  5
6A50
331
6973
  5
6A4C
331
7EA2
  5
7EB8
331
7F9D
  5
7FB3
331
7FDC
  5
7FF2
331
7F99
  5
7FAF
331
7FD8
  5
7FEE
331
8096
  5
80D8
331
801C
  5
8032
331
8057
  5
806D
331
8092
  5
80D4
331
8018
  5
802E
331
8014
  5
802A
331
8053
  5
8069
331
7F2C
  5
7F42
331
7EBE
  5
7ED4
331
808E
  5
80A4
331
80ED
  5
81C7
331
80E9
  5
80FF
331
8010
  5
8026
331
7F28
  5
7F3E
331
7F67
  5
7F7D
331
7EBA
  5
7ED0
331
808A
  5
80A0
331
7EF5
  5
7F0B
331
7F24
  5
7F3A
331
7F63
  5
7F79
331
7EB6
  5
7ECC
331
7EB2
  5
7EC8
331
7EF1
  5
7F07
331
7F20
  5
7F36
331
8C03
  5
8C04
331
696F
  5
6A48
331
7E96
  5
7E96
331
7FD4
  5
7FEA
331
7F95
  5
7FAB
331
7F91
  5
7FA7
331
7FD0
  5
7FE6
331
7F8D
  5
7FA3
331
7FCC
  5
7FE2
331
7F89
  5
7F9F
331
804F
  5
8065
331
7FC8
  5
7FDE
331
8086
  5
809C
331
80E5
  5
80FB
331
800C
  5
8022
331
804B
  5
8061
331
8047
  5
805D
331
7F5F
  5
7F75
331
8082
  5
8098
331
80E1
  5
80F7
331
8008
  5
801E
331
8004
  5
801A
331
8043
  5
8059
331
7F1C
  5
7F32
331
7F5B
  5
7F71
331
807E
  5
8094
331
7EAE
  5
7EC4
331
7EED
  5
7F03
331
80DD
  5
80F3
331
80D9
  5
80EF
331
8000
  5
8016
331
7F18
  5
7F2E
331
7F57
  5
7F6D
331
807A
  5
8090
331
7EAA
  5
7EC0
331
7EE9
  5
7EFF
331
7EE5
  5
7EFB
331
7F14
  5
7F2A
331
7F53
  5
7F69
331
7EE1
  5
7EF7
331
7F10
  5
7F26
331
8BF3
  5
8BF4
331
69AE
  5
7141
331
7FC4
  5
7FDA
331
69AA
  5
6ECE
331
7F85
  5
7F9B
331
7F81
  5
7F97
331
7FC0
  5
7FD6
331
69A6
  5
6A63
331
69A2
  5
6A5F
331
7F7D
  5
7F93
331
7FBC
  5
7FD2
331
7F79
  5
7F8F
331
803F
  5
8055
331
7FB8
  5
7FCE
331
80D5
  5
80EB
331
7FFC
  5
8012
331
803B
  5
8051
331
8076
  5
808C
331
8037
  5
804D
331
7F4F
  5
7F65
331
8072
  5
8088
331
7FF8
  5
800E
331
7FF4
  5
800A
331
8033
  5
8049
331
7F4B
  5
7F61
331
806E
  5
8084
331
7EDD
  5
7EF3
331
7F0C
  5
7F22
331
7FF0
  5
8006
331
7F08
  5
7F1E
331
7F47
  5
7F5D
331
806A
  5
8080
331
8BEF
  5
8BF0
331
7ED9
  5
7EEF
331
7ED5
  5
7EEB
331
7F04
  5
7F1A
331
7F43
  5
7F59
331
7ED1
  5
7EE7
331
7F00
  5
7F16
331
8483
  5
8525
331
699E
  5
6A5B
331
7FB4
  5
7FCA
331
7F75
  5
7F8B
331
7F71
  5
7F87
331
7FB0
  5
7FC6
331
7F6D
  5
7F83
331
7FAC
  5
7FC2
331
7F69
  5
7F7F
331
802F
  5
8045
331
7FA8
  5
7FBE
331
7FEC
  5
8002
331
802B
  5
8041
331
8066
  5
807C
331
8027
  5
803D
331
8062
  5
8078
331
80A1
  5
80E3
331
7FE8
  5
7FFE
331
7F3F
  5
7F55
331
8023
  5
8039
331
7F3B
  5
7F51
331
805E
  5
8074
331
809D
  5
80DF
331
7ECD
  5
7EE3
331
7EFC
  5
7F12
331
7FE4
  5
7FFA
331
7FE0
  5
7FF6
331
7EF8
  5
7F0E
331
7F37
  5
7F4D
331
805A
  5
8070
331
7EC9
  5
7EDF
331
8099
  5
80DB
331
7EC5
  5
7EDB
331
7F33
  5
7F49
331
80FB
  5
81D5
331
80F7
  5
81D1
331
7EC1
  5
7ED7
331
80F3
  5
81CD
331
697E
  5
6A57
331
7FA4
  5
7FBA
331
697A
  5
6A53
331
7EA5
  5
7EBB
331
7FA0
  5
7FB6
331
7FDF
  5
7FF5
331
6976
  5
6A4F
331
6972
  5
6A4B
331
7F9C
  5
7FB2
331
7FDB
  5
7FF1
331
801F
  5
8035
331
7F98
  5
7FAE
331
8095
  5
80D7
331
801B
  5
8031
331
8056
  5
806C
331
8091
  5
80D3
331
7F2F
  5
7F45
331
8017
  5
802D
331
8013
  5
8029
331
8052
  5
8068
331
7F2B
  5
7F41
331
7EBD
  5
7ED3
331
808D
  5
80A3
331
80EC
  5
81C6
331
80E8
  5
80FE
331
7F27
  5
7F3D
331
7F66
  5
7F7C
331
7EB9
  5
7ECF
331
8089
  5
809F
331
7EB5
  5
7ECB
331
7EF4
  5
7F0A
331
7F23
  5
7F39
331
7F62
  5
7F78
331
7EB1
  5
7EC7
331
7EF0
  5
7F06
331
7FD7
  5
7FED
331
7E95
  5
7E95
331
7FD3
  5
7FE9
331
7F94
  5
7FAA
331
7F90
  5
7FA6
331
7FCF
  5
7FE5
331
69B1
  5
7144
331
7F8C
  5
7FA2
331
7FCB
  5
7FE1
331
7F88
  5
7F9E
331
800F
  5
8025
331
804E
  5
8064
331
8085
  5
809B
331
80E4
  5
80FA
331
800B
  5
8021
331
804A
  5
8060
331
8046
  5
805C
331
7F5E
  5
7F74
331
8081
  5
8097
331
80E0
  5
80F6
331
7F1F
  5
7F35
331
8007
  5
801D
331
8003
  5
8019
331
8042
  5
8058
331
7F1B
  5
7F31
331
7F5A
  5
7F70
331
807D
  5
8093
331
7EAD
  5
7EC3
331
7EEC
  5
7F02
331
80DC
  5
80F2
331
80D8
  5
80EE
331
7EE8
  5
7EFE
331
7F17
  5
7F2D
331
7F56
  5
7F6C
331
7EA9
  5
7EBF
331
8079
  5
808F
331
7EE4
  5
7EFA
331
7F13
  5
7F29
331
7F52
  5
7F68
331
8BF6
  5
8BF8
331
7EE0
  5
7EF6
331
8BF2
  5
8BF3
331
69AD
  5
7140
331
7FC7
  5
7FDD
331
7FC3
  5
7FD9
331
69A9
  5
6EB4
331
7F84
  5
7F9A
331
69A5
  5
6A62
331
7F80
  5
7F96
331
7FBF
  5
7FD5
331
69A1
  5
6A5E
331
7F7C
  5
7F92
331
7FBB
  5
7FD1
331
7F78
  5
7F8E
331
7FFF
  5
8015
331
803E
  5
8054
331
8075
  5
808B
331
80D4
  5
80EA
331
7FFB
  5
8011
331
803A
  5
8050
331
8036
  5
804C
331
7F4E
  5
7F64
331
8071
  5
8087
331
7F0F
  5
7F25
331
7FF7
  5
800D
331
7FF3
  5
8009
331
8032
  5
8048
331
7F0B
  5
7F21
331
7F4A
  5
7F60
331
806D
  5
8083
331
7EDC
  5
7EF2
331
7F07
  5
7F1D
331
7F46
  5
7F5C
331
8069
  5
807F
331
7ED8
  5
7EEE
331
7ED4
  5
7EEA
331
7F03
  5
7F19
331
7F42
  5
7F58
331
7ED0
  5
7EE6
331
8482
  5
8524
331
699D
  5
6A5A
331
7FB7
  5
7FCD
331
7FB3
  5
7FC9
331
7F74
  5
7F8A
331
7F70
  5
7F86
331
7FAF
  5
7FC5
331
7F6C
  5
7F82
331
7FAB
  5
7FC1
331
7F68
  5
7F7E
331
7FEF
  5
8005
331
802E
  5
8044
331
80A4
  5
80E6
331
7FEB
  5
8001
331
802A
  5
8040
331
8065
  5
807B
331
8026
  5
803C
331
7F3E
  5
7F54
331
8061
  5
8077
331
80A0
  5
80E2
331
7EFF
  5
7F15
331
7FE7
  5
7FFD
331
7FE3
  5
7FF9
331
8022
  5
8038
331
7F3A
  5
7F50
331
805D
  5
8073
331
809C
  5
80DE
331
7ECC
  5
7EE2
331
7EFB
  5
7F11
331
7F36
  5
7F4C
331
8059
  5
806F
331
80FE
  5
81D8
331
7EC8
  5
7EDE
331
8098
  5
80DA
331
7EC4
  5
7EDA
331
7F32
  5
7F48
331
80FA
  5
81D4
331
80F6
  5
81D0
331
7EC0
  5
7ED6
331
80F2
  5
81CC
331
697D
  5
6A56
331
7FA7
  5
7FBD
331
7FA3
  5
7FB9
331
6979
  5
6A52
331
7EA4
  5
7EBA
331
7F9F
  5
7FB5
331
7FDE
  5
7FF4
331
6975
  5
6A4E
331
6971
  5
6A4A
331
7F9B
  5
7FB1
331
7FDA
  5
7FF0
331
801E
  5
8034
331
8094
  5
80D6
331
801A
  5
8030
331
8016
  5
802C
331
8055
  5
806B
331
8090
  5
80CD
331
80EF
  5
81C9
331
7F2E
  5
7F44
331
8012
  5
8028
331
8051
  5
8067
331
7F2A
  5
7F40
331
7EBC
  5
7ED2
331
808C
  5
80A2
331
80EB
  5
810C
331
7EF7
  5
7F0D
331
7F26
  5
7F3C
331
7F65
  5
7F7B
331
7EB8
  5
7ECE
331
8088
  5
809E
331
7EB4
  5
7ECA
331
8C09
  5
8C0A
331
7EF3
  5
7F09
331
7F22
  5
7F38
331
7F61
  5
7F77
331
7EB0
  5
7EC6
331
7FD6
  5
7FEC
331
7F97
  5
7FAD
331
7F93
  5
7FA9
331
7FD2
  5
7FE8
331
7F8F
  5
7FA5
331
7FCE
  5
7FE4
331
69B0
  5
7143
331
7F8B
  5
7FA1
331
7FCA
  5
7FE0
331
80E7
  5
80FD
331
800E
  5
8024
331
804D
  5
8063
331
8049
  5
805F
331
8084
  5
809A
331
80E3
  5
80F9
331
800A
  5
8020
331
8045
  5
805B
331
7F5D
  5
7F73
331
8080
  5
8096
331
80DF
  5
80F5
331
7EEF
  5
7F05
331
7F1E
  5
7F34
331
8006
  5
801C
331
8002
  5
8018
331
8041
  5
8057
331
7F1A
  5
7F30
331
7F59
  5
7F6F
331
807C
  5
8092
331
7EAC
  5
7EC2
331
7EEB
  5
7F01
331
80DB
  5
80F1
331
7EE7
  5
7EFD
331
7F16
  5
7F2C
331
7F55
  5
7F6B
331
7EA8
  5
7EBE
331
8BFD
  5
8BFE
331
8078
  5
808E
331
7EE3
  5
7EF9
331
7F12
  5
7F28
331
7F51
  5
7F67
331
8BF5
  5
8BF6
331
8BF1
  5
8BF2
331
7FC6
  5
7FDC
331
69AC
  5
713F
331
7F87
  5
7F9D
331
7FC2
  5
7FD8
331
69A8
  5
6A65
331
7F83
  5
7F99
331
69A4
  5
6A61
331
7F7F
  5
7F95
331
7FBE
  5
7FD4
331
69A0
  5
6A5D
331
7F7B
  5
7F91
331
7FBA
  5
7FD0
331
80D7
  5
80ED
331
7FFE
  5
8014
331
803D
  5
8053
331
8074
  5
808A
331
80D3
  5
80E9
331
7FFA
  5
8010
331
8039
  5
804F
331
8035
  5
804B
331
7F4D
  5
7F63
331
8070
  5
8086
331
7EDF
  5
7EF5
331
7F0E
  5
7F24
331
7FF6
  5
800C
331
7FF2
  5
8008
331
8031
  5
8047
331
7F0A
  5
7F20
331
7F49
  5
7F5F
331
806C
  5
8082
331
7EDB
  5
7EF1
331
7ED7
  5
7EED
331
7F06
  5
7F1C
331
7F45
  5
7F5B
331
8068
  5
807E
331
7ED3
  5
7EE9
331
7F02
  5
7F18
331
7F41
  5
7F57
331
7F77
  5
7F8D
331
7FB6
  5
7FCC
331
7FB2
  5
7FC8
331
7F73
  5
7F89
331
7F6F
  5
7F85
331
7FAE
  5
7FC4
331
6980
  5
6A59
331
7F6B
  5
7F81
331
7FAA
  5
7FC0
331
7FEE
  5
8004
331
802D
  5
8043
331
8064
  5
807A
331
80A3
  5
80E5
331
7FEA
  5
8000
331
8029
  5
803F
331
8025
  5
803B
331
7F3D
  5
7F53
331
8060
  5
8076
331
809F
  5
80E1
331
7ECF
  5
7EE5
331
7EFE
  5
7F14
331
7FE6
  5
7FFC
331
7FE2
  5
7FF8
331
8021
  5
8037
331
7EFA
  5
7F10
331
7F39
  5
7F4F
331
805C
  5
8072
331
7ECB
  5
7EE1
331
809B
  5
80DD
331
7F35
  5
7F4B
331
8058
  5
806E
331
80FD
  5
81D7
331
7EC7
  5
7EDD
331
7EC3
  5
7ED9
331
7F31
  5
7F47
331
80F9
  5
81D3
331
80F5
  5
81CF
331
80F1
  5
81CB
  0
XRECORD
  5
8FD9
102
{ACAD_REACTORS
330
8FD8
102
}
330
8FD8
100
AcDbXrecord
280
     1
 70
     1
  0
XRECORD
  5
8FDB
102
{ACAD_REACTORS
330
8FD8
102
}
330
8FD8
100
AcDbXrecord
280
     1
340
22
  0
XRECORD
  5
8FDC
102
{ACAD_REACTORS
330
8FD8
102
}
330
8FD8
100
AcDbXrecord
280
     1
340
22
  0
XRECORD
  5
8FDA
102
{ACAD_REACTORS
330
8FD8
102
}
330
8FD8
100
AcDbXrecord
280
     1
340
22
  0
ACDBDETAILVIEWSTYLE
  5
8F6D
102
{ACAD_REACTORS
330
8F6C
102
}
330
8F6C
100
AcDbModelDocViewStyle
 70
     0
  3
Imperial24
290
     0
100
AcDbDetailViewStyle
 70
     0
 71
     0
 90
        3
 71
     1
340
1F
 40
0.24
340
0
 40
0.24
300

 40
0.36
280
     3
 71
     2
340
1B
 90
       25
 71
     3
340
1F
 40
0.24
 90
        1
 40
0.75
 90
        1
300
%<\AcVar ViewType \f "%tc1">% %<\AcVar ViewDetailId>%\PSCALE %<\AcVar ViewScale \f "%sn">%
 71
     4
340
1B
 90
       25
340
1B
 90
       25
280
     0
  0
LAYOUT
  5
B
102
{ACAD_XDICTIONARY
360
8FDF
102
}
102
{ACAD_REACTORS
330
6
102
}
330
6
100
AcDbPlotSettings
  1

  2
C:\Program Files\AutoCAD 2002\plotters\DWF ePlot (optimized for plotting).pc3
  4

  6

 40
0.0
 41
0.0
 42
0.0
 43
0.0
 44
0.0
 45
0.0
 46
0.0
 47
0.0
 48
0.0
 49
0.0
140
0.0
141
0.0
142
1.0
143
1.0
 70
   688
 72
     0
 73
     0
 74
     5
  7
monochrome.ctb
 75
    16
147
1.0
148
0.0
149
0.0
100
AcDbLayout
  1
Layout1
 70
     1
 71
     1
 10
0.0
 20
0.0
 11
12.0
 21
9.0
 12
0.0
 22
0.0
 32
0.0
 14
1.000000000000000E+20
 24
1.000000000000000E+20
 34
1.000000000000000E+20
 15
-1.000000000000000E+20
 25
-1.000000000000000E+20
 35
-1.000000000000000E+20
146
0.0
 13
0.0
 23
0.0
 33
0.0
 16
1.0
 26
0.0
 36
0.0
 17
0.0
 27
1.0
 37
0.0
 76
     0
330
8
  0
LAYOUT
  5
5
102
{ACAD_XDICTIONARY
360
8FDD
102
}
102
{ACAD_REACTORS
330
6
102
}
330
6
100
AcDbPlotSettings
  1

  2
\\CTBDC\HP LJ P3005
  4
Letter
  6

 40
6.01133346557617
 41
4.233341693878172
 42
6.011322021484375
 43
4.23333740234375
 44
215.8999938964844
 45
279.3999938964844
 46
14.15804419307999
 47
0.0
 48
0.0
 49
0.0
140
0.0
141
0.0
142
1.0
143
0.7987771472915357
 70
 11956
 72
     0
 73
     1
 74
     1
  7
monochrome.ctb
 75
     0
147
1.251913632470287
148
-565.1964851139841
149
130.1031742909926
100
AcDbLayout
  1
Model
 70
     1
 71
     0
 10
0.0
 20
0.0
 11
12.0
 21
9.0
 12
0.0
 22
0.0
 32
0.0
 14
0.0
 24
0.0
 34
0.0
 15
0.0
 25
0.0
 35
0.0
146
0.0
 13
0.0
 23
0.0
 33
0.0
 16
1.0
 26
0.0
 36
0.0
 17
0.0
 27
1.0
 37
0.0
 76
     0
330
2
331
27
1001
ACAD_PSEXT
1000
\\CTBDC\HP LJ P3005
1000
HP LaserJet P3005 PCL 6
1000
Back Office
1000

1070
     0
  0
MATERIAL
  5
3B
102
{ACAD_XDICTIONARY
360
3C
102
}
102
{ACAD_REACTORS
330
13
102
}
330
13
100
AcDbMaterial
  1
ByBlock
 72
     0
 43
0.0208333333333333
 43
0.0
 43
0.0
 43
0.0
 43
0.0
 43
0.0208333333333333
 43
0.0
 43
0.0
 43
0.0
 43
0.0
 43
1.0
 43
0.0
 43
0.0
 43
0.0
 43
0.0
 43
1.0
 77
     0
 47
0.0208333333333333
 47
0.0
 47
0.0
 47
0.0
 47
0.0
 47
0.0208333333333333
 47
0.0
 47
0.0
 47
0.0
 47
0.0
 47
1.0
 47
0.0
 47
0.0
 47
0.0
 47
0.0
 47
1.0
171
     0
 49
0.0208333333333333
 49
0.0
 49
0.0
 49
0.0
 49
0.0
 49
0.0208333333333333
 49
0.0
 49
0.0
 49
0.0
 49
0.0
 49
1.0
 49
0.0
 49
0.0
 49
0.0
 49
0.0
 49
1.0
175
     0
142
0.0208333333333333
142
0.0
142
0.0
142
0.0
142
0.0
142
0.0208333333333333
142
0.0
142
0.0
142
0.0
142
0.0
142
1.0
142
0.0
142
0.0
142
0.0
142
0.0
142
1.0
179
     0
144
0.0208333333333333
144
0.0
144
0.0
144
0.0
144
0.0
144
0.0208333333333333
144
0.0
144
0.0
144
0.0
144
0.0
144
1.0
144
0.0
144
0.0
144
0.0
144
0.0
144
1.0
147
0.0208333333333333
147
0.0
147
0.0
147
0.0
147
0.0
147
0.0208333333333333
147
0.0
147
0.0
147
0.0
147
0.0
147
1.0
147
0.0
147
0.0
147
0.0
147
0.0
147
1.0
  0
MATERIAL
  5
33
102
{ACAD_XDICTIONARY
360
34
102
}
102
{ACAD_REACTORS
330
13
102
}
330
13
100
AcDbMaterial
  1
ByLayer
 72
     0
 43
0.0208333333333333
 43
0.0
 43
0.0
 43
0.0
 43
0.0
 43
0.0208333333333333
 43
0.0
 43
0.0
 43
0.0
 43
0.0
 43
1.0
 43
0.0
 43
0.0
 43
0.0
 43
0.0
 43
1.0
 77
     0
 47
0.0208333333333333
 47
0.0
 47
0.0
 47
0.0
 47
0.0
 47
0.0208333333333333
 47
0.0
 47
0.0
 47
0.0
 47
0.0
 47
1.0
 47
0.0
 47
0.0
 47
0.0
 47
0.0
 47
1.0
171
     0
 49
0.0208333333333333
 49
0.0
 49
0.0
 49
0.0
 49
0.0
 49
0.0208333333333333
 49
0.0
 49
0.0
 49
0.0
 49
0.0
 49
1.0
 49
0.0
 49
0.0
 49
0.0
 49
0.0
 49
1.0
175
     0
142
0.0208333333333333
142
0.0
142
0.0
142
0.0
142
0.0
142
0.0208333333333333
142
0.0
142
0.0
142
0.0
142
0.0
142
1.0
142
0.0
142
0.0
142
0.0
142
0.0
142
1.0
179
     0
144
0.0208333333333333
144
0.0
144
0.0
144
0.0
144
0.0
144
0.0208333333333333
144
0.0
144
0.0
144
0.0
144
0.0
144
1.0
144
0.0
144
0.0
144
0.0
144
0.0
144
1.0
147
0.0208333333333333
147
0.0
147
0.0
147
0.0
147
0.0
147
0.0208333333333333
147
0.0
147
0.0
147
0.0
147
0.0
147
1.0
147
0.0
147
0.0
147
0.0
147
0.0
147
1.0
  0
MATERIAL
  5
12
102
{ACAD_XDICTIONARY
360
14
102
}
102
{ACAD_REACTORS
330
13
102
}
330
13
100
AcDbMaterial
  1
Global
 72
     0
 43
0.0208333333333333
 43
0.0
 43
0.0
 43
0.0
 43
0.0
 43
0.0208333333333333
 43
0.0
 43
0.0
 43
0.0
 43
0.0
 43
1.0
 43
0.0
 43
0.0
 43
0.0
 43
0.0
 43
1.0
 77
     0
 47
0.0208333333333333
 47
0.0
 47
0.0
 47
0.0
 47
0.0
 47
0.0208333333333333
 47
0.0
 47
0.0
 47
0.0
 47
0.0
 47
1.0
 47
0.0
 47
0.0
 47
0.0
 47
0.0
 47
1.0
171
     0
 49
0.0208333333333333
 49
0.0
 49
0.0
 49
0.0
 49
0.0
 49
0.0208333333333333
 49
0.0
 49
0.0
 49
0.0
 49
0.0
 49
1.0
 49
0.0
 49
0.0
 49
0.0
 49
0.0
 49
1.0
175
     0
142
0.0208333333333333
142
0.0
142
0.0
142
0.0
142
0.0
142
0.0208333333333333
142
0.0
142
0.0
142
0.0
142
0.0
142
1.0
142
0.0
142
0.0
142
0.0
142
0.0
142
1.0
179
     0
144
0.0208333333333333
144
0.0
144
0.0
144
0.0
144
0.0
144
0.0208333333333333
144
0.0
144
0.0
144
0.0
144
0.0
144
1.0
144
0.0
144
0.0
144
0.0
144
0.0
144
1.0
147
0.0208333333333333
147
0.0
147
0.0
147
0.0
147
0.0
147
0.0208333333333333
147
0.0
147
0.0
147
0.0
147
0.0
147
1.0
147
0.0
147
0.0
147
0.0
147
0.0
147
1.0
  0
MLEADERSTYLE
  5
226
102
{ACAD_REACTORS
330
225
102
}
330
225
100
AcDbMLeaderStyle
170
     2
171
     1
172
     0
 90
        2
 40
0.0
 41
0.0
173
     1
 91
-1056964608
340
22
 92
       -2
290
     1
 42
0.09
291
     1
 43
0.36
  3
Standard
 44
0.18
300

342
1F
174
     1
178
     6
175
     1
176
     0
 93
-1056964608
 45
0.18
292
     0
297
     0
 46
0.18
 94
-1056964608
 47
1.0
 49
1.0
140
1.0
293
     1
141
0.0
294
     1
177
     0
142
1.0
295
     0
296
     0
143
0.125
1001
ACAD_MLEADERVER
1070
     2
  0
MLINESTYLE
  5
46
102
{ACAD_REACTORS
330
31
102
}
330
31
100
AcDbMlineStyle
  2
STANDARD
 70
     0
  3

 62
   256
 51
90.0
 52
90.0
 71
     2
 49
0.5
 62
   256
  6
BYLAYER
 49
-0.5
 62
   256
  6
BYLAYER
  0
ACDBPLACEHOLDER
  5
10
102
{ACAD_REACTORS
330
11
102
}
330
11
  0
SCALE
  5
4B
102
{ACAD_REACTORS
330
44
102
}
330
44
100
AcDbScale
 70
     0
300
1:1
140
1.0
141
1.0
290
     1
  0
SCALE
  5
4C
102
{ACAD_REACTORS
330
44
102
}
330
44
100
AcDbScale
 70
     0
300
1:2
140
1.0
141
2.0
290
     0
  0
SCALE
  5
4D
102
{ACAD_REACTORS
330
44
102
}
330
44
100
AcDbScale
 70
     0
300
1:4
140
1.0
141
4.0
290
     0
  0
SCALE
  5
4E
102
{ACAD_REACTORS
330
44
102
}
330
44
100
AcDbScale
 70
     0
300
1:5
140
1.0
141
5.0
290
     0
  0
SCALE
  5
4F
102
{ACAD_REACTORS
330
44
102
}
330
44
100
AcDbScale
 70
     0
300
1:8
140
1.0
141
8.0
290
     0
  0
SCALE
  5
50
102
{ACAD_REACTORS
330
44
102
}
330
44
100
AcDbScale
 70
     0
300
1:10
140
1.0
141
10.0
290
     0
  0
SCALE
  5
51
102
{ACAD_REACTORS
330
44
102
}
330
44
100
AcDbScale
 70
     0
300
1:16
140
1.0
141
16.0
290
     0
  0
SCALE
  5
52
102
{ACAD_REACTORS
330
44
102
}
330
44
100
AcDbScale
 70
     0
300
1:20
140
1.0
141
20.0
290
     0
  0
SCALE
  5
53
102
{ACAD_REACTORS
330
44
102
}
330
44
100
AcDbScale
 70
     0
300
1:30
140
1.0
141
30.0
290
     0
  0
SCALE
  5
54
102
{ACAD_REACTORS
330
44
102
}
330
44
100
AcDbScale
 70
     0
300
1:40
140
1.0
141
40.0
290
     0
  0
SCALE
  5
55
102
{ACAD_REACTORS
330
44
102
}
330
44
100
AcDbScale
 70
     0
300
1:50
140
1.0
141
50.0
290
     0
  0
SCALE
  5
56
102
{ACAD_REACTORS
330
44
102
}
330
44
100
AcDbScale
 70
     0
300
1:100
140
1.0
141
100.0
290
     0
  0
SCALE
  5
57
102
{ACAD_REACTORS
330
44
102
}
330
44
100
AcDbScale
 70
     0
300
2:1
140
2.0
141
1.0
290
     0
  0
SCALE
  5
58
102
{ACAD_REACTORS
330
44
102
}
330
44
100
AcDbScale
 70
     0
300
4:1
140
4.0
141
1.0
290
     0
  0
SCALE
  5
59
102
{ACAD_REACTORS
330
44
102
}
330
44
100
AcDbScale
 70
     0
300
8:1
140
8.0
141
1.0
290
     0
  0
SCALE
  5
5A
102
{ACAD_REACTORS
330
44
102
}
330
44
100
AcDbScale
 70
     0
300
10:1
140
10.0
141
1.0
290
     0
  0
SCALE
  5
5B
102
{ACAD_REACTORS
330
44
102
}
330
44
100
AcDbScale
 70
     0
300
100:1
140
100.0
141
1.0
290
     0
  0
SCALE
  5
5C
102
{ACAD_REACTORS
330
44
102
}
330
44
100
AcDbScale
 70
     0
300
1/128" = 1'-0"
140
0.0078125
141
12.0
290
     0
  0
SCALE
  5
5D
102
{ACAD_REACTORS
330
44
102
}
330
44
100
AcDbScale
 70
     0
300
1/64" = 1'-0"
140
0.015625
141
12.0
290
     0
  0
SCALE
  5
5E
102
{ACAD_REACTORS
330
44
102
}
330
44
100
AcDbScale
 70
     0
300
1/32" = 1'-0"
140
0.03125
141
12.0
290
     0
  0
SCALE
  5
5F
102
{ACAD_REACTORS
330
44
102
}
330
44
100
AcDbScale
 70
     0
300
1/16" = 1'-0"
140
0.0625
141
12.0
290
     0
  0
SCALE
  5
60
102
{ACAD_REACTORS
330
44
102
}
330
44
100
AcDbScale
 70
     0
300
3/32" = 1'-0"
140
0.09375
141
12.0
290
     0
  0
SCALE
  5
61
102
{ACAD_REACTORS
330
44
102
}
330
44
100
AcDbScale
 70
     0
300
1/8" = 1'-0"
140
0.125
141
12.0
290
     0
  0
SCALE
  5
62
102
{ACAD_REACTORS
330
44
102
}
330
44
100
AcDbScale
 70
     0
300
3/16" = 1'-0"
140
0.1875
141
12.0
290
     0
  0
SCALE
  5
63
102
{ACAD_REACTORS
330
44
102
}
330
44
100
AcDbScale
 70
     0
300
1/4" = 1'-0"
140
0.25
141
12.0
290
     0
  0
SCALE
  5
64
102
{ACAD_REACTORS
330
44
102
}
330
44
100
AcDbScale
 70
     0
300
3/8" = 1'-0"
140
0.375
141
12.0
290
     0
  0
SCALE
  5
65
102
{ACAD_REACTORS
330
44
102
}
330
44
100
AcDbScale
 70
     0
300
1/2" = 1'-0"
140
0.5
141
12.0
290
     0
  0
SCALE
  5
66
102
{ACAD_REACTORS
330
44
102
}
330
44
100
AcDbScale
 70
     0
300
3/4" = 1'-0"
140
0.75
141
12.0
290
     0
  0
SCALE
  5
67
102
{ACAD_REACTORS
330
44
102
}
330
44
100
AcDbScale
 70
     0
300
1" = 1'-0"
140
1.0
141
12.0
290
     0
  0
SCALE
  5
68
102
{ACAD_REACTORS
330
44
102
}
330
44
100
AcDbScale
 70
     0
300
1-1/2" = 1'-0"
140
1.5
141
12.0
290
     0
  0
SCALE
  5
69
102
{ACAD_REACTORS
330
44
102
}
330
44
100
AcDbScale
 70
     0
300
3" = 1'-0"
140
3.0
141
12.0
290
     0
  0
SCALE
  5
6A
102
{ACAD_REACTORS
330
44
102
}
330
44
100
AcDbScale
 70
     0
300
6" = 1'-0"
140
6.0
141
12.0
290
     0
  0
SCALE
  5
6B
102
{ACAD_REACTORS
330
44
102
}
330
44
100
AcDbScale
 70
     0
300
1'-0" = 1'-0"
140
12.0
141
12.0
290
     0
  0
ACDBSECTIONVIEWSTYLE
  5
8F6B
102
{ACAD_REACTORS
330
8F6A
102
}
330
8F6A
100
AcDbModelDocViewStyle
 70
     0
  3
Imperial24
290
     0
100
AcDbSectionViewStyle
 70
     0
 71
     0
 90
       78
 71
     1
340
1F
 40
0.24
340
0
340
0
 40
0.24
300
I, O, Q, S, X, Z
 40
0.48
 90
        3
 40
0.18
 90
        1
 71
     2
340
1AD
 90
       25
340
1B
 90
       50
 40
0.24
 40
0.0
 40
0.24
 71
     3
340
1F
 40
0.24
 90
        1
 40
0.75
 90
        1
300
%<\AcVar ViewType \f "%tc1">% %<\AcVar ViewSectionStartId>%-%<\AcVar ViewSectionEndId>%\PSCALE %<\AcVar ViewScale \f "%sn">%
 71
     4
300
ANSI31
 40
1.0
 90
        0
290
     0
290
     0
 90
        6
 40
0.0
 40
1.570796326794896
 40
0.2617993877991494
 40
1.308996938995747
 40
-0.2617993877991494
 40
1.832595714594046
  0
TABLESTYLE
  5
47
102
{ACAD_XDICTIONARY
360
48
102
}
102
{ACAD_REACTORS
330
45
102
}
330
45
100
AcDbTableStyle
  3
Standard
 70
     0
 71
     0
 40
0.06
 41
0.06
280
     0
281
     0
  7
Standard
140
0.18
170
     2
 62
     0
 63
     7
283
     0
274
    -2
284
     1
 64
     0
275
    -2
285
     1
 65
     0
276
    -2
286
     1
 66
     0
277
    -2
287
     1
 67
     0
278
    -2
288
     1
 68
     0
279
    -2
289
     1
 69
     0
  7
Standard
140
0.25
170
     5
 62
     0
 63
     7
283
     0
274
    -2
284
     1
 64
     0
275
    -2
285
     1
 65
     0
276
    -2
286
     1
 66
     0
277
    -2
287
     1
 67
     0
278
    -2
288
     1
 68
     0
279
    -2
289
     1
 69
     0
  7
Standard
140
0.18
170
     5
 62
     0
 63
     7
283
     0
274
    -2
284
     1
 64
     0
275
    -2
285
     1
 65
     0
276
    -2
286
     1
 66
     0
277
    -2
287
     1
 67
     0
278
    -2
288
     1
 68
     0
279
    -2
289
     1
 69
     0
  0
VISUALSTYLE
  5
28
102
{ACAD_XDICTIONARY
360
8FE1
102
}
102
{ACAD_REACTORS
330
29
102
}
330
29
100
AcDbVisualStyle
  2

 70
     4
 71
     0
 72
     2
 73
     0
 90
        0
 40
-0.6
 41
-30.0
 62
     5
 63
     7
 74
     1
 91
        4
 64
     7
 65
   257
 75
     1
175
     1
 42
1.0
 92
        0
 66
   257
 43
1.0
 76
     1
 77
     6
 78
     2
 67
     7
 79
     5
170
     0
171
     0
290
     0
174
     0
 93
        1
 44
0.0
173
     0
291
     0
 45
0.0
1001
ACAD
1000
AcDbSavedByObjectVersion
1070
     0
  0
VISUALSTYLE
  5
21D
102
{ACAD_XDICTIONARY
360
8FF2
102
}
102
{ACAD_REACTORS
330
29
102
}
330
29
100
AcDbVisualStyle
  2

 70
     6
 71
     1
 72
     2
 73
     2
 90
        0
 40
-0.6
 41
-30.0
 62
     5
 63
     7
 74
     2
 91
        2
 64
     7
 65
   257
 75
     2
175
     1
 42
40.0
 92
        0
 66
   257
 43
1.0
 76
     1
 77
     6
 78
     2
 67
     7
 79
     3
170
     0
171
     0
290
     0
174
     0
 93
        1
 44
0.0
173
     0
291
     0
 45
0.0
1001
ACAD
1000
AcDbSavedByObjectVersion
1070
     0
  0
VISUALSTYLE
  5
4A
102
{ACAD_XDICTIONARY
360
8FE6
102
}
102
{ACAD_REACTORS
330
29
102
}
330
29
100
AcDbVisualStyle
  2

 70
     5
 71
     0
 72
     2
 73
     0
 90
        0
 40
-0.6
 41
-30.0
 62
     5
 63
     7
 74
     1
 91
        4
 64
     7
 65
   257
 75
     1
175
     1
 42
1.0
 92
        0
 66
   257
 43
1.0
 76
     1
 77
     6
 78
     2
 67
     7
 79
     5
170
     0
171
     0
290
     0
174
     0
 93
        1
 44
0.0
173
     0
291
     0
 45
0.0
1001
ACAD
1000
AcDbSavedByObjectVersion
1070
     0
  0
VISUALSTYLE
  5
21C
102
{ACAD_XDICTIONARY
360
8FF0
102
}
102
{ACAD_REACTORS
330
29
102
}
330
29
100
AcDbVisualStyle
  2

 70
     7
 71
     1
 72
     0
 73
     1
 90
        0
 40
-0.6
 41
-30.0
 62
     5
 63
     7
 74
     0
 91
        4
 64
     7
 65
   257
 75
     1
175
     1
 42
1.0
 92
        8
 66
     7
 43
1.0
 76
     1
 77
     6
 78
     2
 67
     7
 79
     5
170
     0
171
     0
290
     0
174
     0
 93
        1
 44
0.0
173
     0
291
     1
 45
0.0
1001
ACAD
1000
AcDbSavedByObjectVersion
1070
     0
  0
VISUALSTYLE
  5
220
102
{ACAD_XDICTIONARY
360
8FF8
102
}
102
{ACAD_REACTORS
330
29
102
}
330
29
100
AcDbVisualStyle
  2

 70
    12
 71
     2
 72
     2
 73
     0
 90
        0
 40
-0.6
 41
-30.0
 62
     5
 63
     7
 74
     1
 91
        4
 64
     7
 65
   257
 75
     1
175
     1
 42
1.0
 92
        8
 66
     7
 43
1.0
 76
     1
 77
     6
 78
     2
 67
     7
 79
     5
170
     0
171
     0
290
     0
174
     0
 93
        1
 44
50.0
173
     0
291
     1
 45
0.0
1001
ACAD
1000
AcDbSavedByObjectVersion
1070
     0
  0
VISUALSTYLE
  5
224
102
{ACAD_XDICTIONARY
360
9000
102
}
102
{ACAD_REACTORS
330
29
102
}
330
29
100
AcDbVisualStyle
  2

 70
    16
 71
     2
 72
     2
 73
     3
 90
        0
 40
-0.6
 41
-30.0
 62
     5
 63
     8
 74
     1
 91
        4
 64
     7
 65
   257
 75
     1
175
     1
 42
1.0
 92
        8
 66
     8
 43
1.0
 76
     1
 77
     6
 78
     2
 67
     7
 79
     5
170
     0
171
     0
290
     0
174
     0
 93
        1
 44
0.0
173
     0
291
     1
 45
0.0
1001
ACAD
1000
AcDbSavedByObjectVersion
1070
     0
  0
VISUALSTYLE
  5
21E
102
{ACAD_XDICTIONARY
360
8FF4
102
}
102
{ACAD_REACTORS
330
29
102
}
330
29
100
AcDbVisualStyle
  2

 70
     9
 71
     3
 72
     2
 73
     0
 90
        0
 40
-0.6
 41
-30.0
 62
     5
 63
     7
 74
     2
 91
        2
 64
     7
 65
   257
 75
     1
175
     1
 42
40.0
 92
        8
 66
     7
 43
1.0
 76
     1
 77
     6
 78
     2
 67
     7
 79
     3
170
     0
171
     0
290
     0
174
     0
 93
        1
 44
0.0
173
     0
291
     0
 45
0.0
1001
ACAD
1000
AcDbSavedByObjectVersion
1070
     0
  0
VISUALSTYLE
  5
21F
102
{ACAD_XDICTIONARY
360
8FF6
102
}
102
{ACAD_REACTORS
330
29
102
}
330
29
100
AcDbVisualStyle
  2

 70
    11
 71
     2
 72
     2
 73
     0
 90
        0
 40
-0.6
 41
-30.0
 62
     5
 63
     7
 74
     1
 91
        4
 64
     7
 65
   257
 75
     1
175
     1
 42
1.0
 92
        8
 66
     7
 43
1.0
 76
     1
 77
     6
 78
     2
 67
     7
 79
     5
170
     0
171
     0
290
     0
174
     0
 93
        1
 44
-50.0
173
     0
291
     1
 45
0.0
1001
ACAD
1000
AcDbSavedByObjectVersion
1070
     0
  0
VISUALSTYLE
  5
6237
102
{ACAD_XDICTIONARY
360
9006
102
}
102
{ACAD_REACTORS
330
29
102
}
330
29
100
AcDbVisualStyle
  2

 70
    22
 71
     2
 72
     2
 73
     0
 90
        0
 40
-0.6
 41
-30.0
 62
     5
 63
     7
 74
     1
 91
        4
 64
     7
 65
   257
 75
     1
175
     1
 42
1.0
 92
        8
 66
     7
 43
1.0
 76
     1
 77
     6
 78
     2
 67
     7
 79
     5
170
     0
171
     0
290
     0
174
     0
 93
        1
 44
0.0
173
     0
291
     1
 45
0.0
1001
ACAD
1000
AcDbSavedByObjectVersion
1070
     0
  0
VISUALSTYLE
  5
223
102
{ACAD_XDICTIONARY
360
8FFE
102
}
102
{ACAD_REACTORS
330
29
102
}
330
29
100
AcDbVisualStyle
  2

 70
    15
 71
     2
 72
     2
 73
     0
 90
        0
 40
-0.6
 41
-30.0
 62
     5
 63
     7
 74
     1
 91
        4
 64
     7
 65
   257
 75
     1
175
     1
 42
1.0
 92
        8
 66
     7
 43
1.0
 76
     1
 77
     6
 78
     2
 67
     7
 79
     5
170
     0
171
     0
290
     0
174
     0
 93
        1
 44
0.0
173
     0
291
     1
 45
0.0
1001
ACAD
1000
AcDbSavedByObjectVersion
1070
     0
  0
VISUALSTYLE
  5
218
102
{ACAD_XDICTIONARY
360
8FE8
102
}
102
{ACAD_REACTORS
330
29
102
}
330
29
100
AcDbVisualStyle
  2

 70
     0
 71
     2
 72
     1
 73
     1
 90
        2
 40
-0.6
 41
30.0
 62
     5
 63
     7
 74
     0
 91
        4
 64
     7
 65
   257
 75
     1
175
     1
 42
1.0
 92
        8
 66
     7
 43
1.0
 76
     1
 77
     6
 78
     2
 67
     7
 79
     5
170
     0
171
     0
290
     0
174
     0
 93
       13
 44
0.0
173
     0
291
     1
 45
0.0
1001
ACAD
1000
AcDbSavedByObjectVersion
1070
     0
  0
VISUALSTYLE
  5
219
102
{ACAD_XDICTIONARY
360
8FEA
102
}
102
{ACAD_REACTORS
330
29
102
}
330
29
100
AcDbVisualStyle
  2

 70
     1
 71
     2
 72
     1
 73
     1
 90
        2
 40
-0.6
 41
30.0
 62
     5
 63
     7
 74
     1
 91
        4
 64
     7
 65
   257
 75
     1
175
     1
 42
1.0
 92
        0
 66
   257
 43
1.0
 76
     1
 77
     6
 78
     2
 67
     7
 79
     5
170
     0
171
     0
290
     0
174
     0
 93
       13
 44
0.0
173
     0
291
     1
 45
0.0
1001
ACAD
1000
AcDbSavedByObjectVersion
1070
     0
  0
VISUALSTYLE
  5
21A
102
{ACAD_XDICTIONARY
360
8FEC
102
}
102
{ACAD_REACTORS
330
29
102
}
330
29
100
AcDbVisualStyle
  2

 70
     2
 71
     2
 72
     2
 73
     1
 90
        2
 40
-0.6
 41
30.0
 62
     5
 63
     7
 74
     0
 91
        4
 64
     7
 65
   257
 75
     1
175
     1
 42
1.0
 92
        0
 66
     7
 43
1.0
 76
     1
 77
     6
 78
     2
 67
     7
 79
     5
170
     0
171
     0
290
     0
174
     0
 93
       13
 44
0.0
173
     0
291
     1
 45
0.0
1001
ACAD
1000
AcDbSavedByObjectVersion
1070
     0
  0
VISUALSTYLE
  5
21B
102
{ACAD_XDICTIONARY
360
8FEE
102
}
102
{ACAD_REACTORS
330
29
102
}
330
29
100
AcDbVisualStyle
  2

 70
     3
 71
     2
 72
     2
 73
     1
 90
        2
 40
-0.6
 41
30.0
 62
     5
 63
     7
 74
     1
 91
        4
 64
     7
 65
   257
 75
     1
175
     1
 42
1.0
 92
        0
 66
   257
 43
1.0
 76
     1
 77
     6
 78
     2
 67
     7
 79
     5
170
     0
171
     0
290
     0
174
     0
 93
       13
 44
0.0
173
     0
291
     1
 45
0.0
1001
ACAD
1000
AcDbSavedByObjectVersion
1070
     0
  0
VISUALSTYLE
  5
7A49
102
{ACAD_XDICTIONARY
360
900A
102
}
102
{ACAD_REACTORS
330
29
102
}
330
29
100
AcDbVisualStyle
  2

 70
     6
 71
     1
 72
     2
 73
     2
 90
        0
 40
-0.6
 41
-30.0
 62
     5
 63
     7
 74
     2
 91
        2
 64
     7
 65
   257
 75
     2
175
     1
 42
40.0
 92
        0
 66
   257
 43
1.0
 76
     1
 77
     6
 78
     2
 67
     7
 79
     3
170
     0
171
     0
290
     0
174
     0
 93
        1
 44
0.0
173
     0
291
     0
 45
0.0
1001
ACAD
1000
AcDbSavedByObjectVersion
1070
     0
  0
VISUALSTYLE
  5
6235
102
{ACAD_XDICTIONARY
360
9002
102
}
102
{ACAD_REACTORS
330
29
102
}
330
29
100
AcDbVisualStyle
  2

 70
    20
 71
     2
 72
     2
 73
     0
 90
        0
 40
-0.6
 41
-30.0
 62
     5
 63
     7
 74
     1
 91
        4
 64
     7
 65
   257
 75
     1
175
     1
 42
1.0
 92
       10
 66
     7
 43
1.0
 76
     1
 77
     6
 78
     2
 67
     7
 79
     5
170
     0
171
     0
290
     0
174
     0
 93
        1
 44
0.0
173
     0
291
     1
 45
0.0
1001
ACAD
1000
AcDbSavedByObjectVersion
1070
     0
  0
VISUALSTYLE
  5
222
102
{ACAD_XDICTIONARY
360
8FFC
102
}
102
{ACAD_REACTORS
330
29
102
}
330
29
100
AcDbVisualStyle
  2

 70
    14
 71
     2
 72
     2
 73
     0
 90
        0
 40
-0.6
 41
-30.0
 62
     5
 63
     7
 74
     1
 91
        4
 64
     7
 65
   257
 75
     7
175
     7
 42
1.0
 92
        8
 66
     7
 43
1.0
 76
     1
 77
     6
 78
     2
 67
     7
 79
     5
170
     0
171
     0
290
     0
174
     0
 93
        1
 44
0.0
173
     0
291
     1
 45
0.0
1001
ACAD
1000
AcDbSavedByObjectVersion
1070
     0
  0
VISUALSTYLE
  5
6236
102
{ACAD_XDICTIONARY
360
9004
102
}
102
{ACAD_REACTORS
330
29
102
}
330
29
100
AcDbVisualStyle
  2

 70
    21
 71
     2
 72
     2
 73
     0
 90
        0
 40
-0.6
 41
-30.0
 62
     5
 63
     7
 74
     1
 91
        4
 64
     7
 65
   257
 75
     1
175
     1
 42
1.0
 92
        9
 66
     7
 43
1.0
 76
     1
 77
     6
 78
     2
 67
     7
 79
     5
170
     0
171
     0
290
     0
174
     0
 93
        1
 44
0.0
173
     0
291
     1
 45
0.0
1001
ACAD
1000
AcDbSavedByObjectVersion
1070
     0
  0
VISUALSTYLE
  5
49
102
{ACAD_XDICTIONARY
360
8FE4
102
}
102
{ACAD_REACTORS
330
29
102
}
330
29
100
AcDbVisualStyle
  2

 70
     8
 71
     2
 72
     2
 73
     0
 90
        0
 40
-0.6
 41
-30.0
 62
     5
 63
     7
 74
     1
 91
        0
 64
     7
 65
   257
 75
     1
175
     1
 42
1.0
 92
        8
 66
     8
 43
1.0
 76
     1
 77
     6
 78
     2
 67
     7
 79
     5
170
     0
171
     0
290
     0
174
     0
 93
       13
 44
0.0
173
     0
291
     0
 45
0.0
1001
ACAD
1000
AcDbSavedByObjectVersion
1070
     0
  0
VISUALSTYLE
  5
7A4E
102
{ACAD_XDICTIONARY
360
9014
102
}
102
{ACAD_REACTORS
330
29
102
}
330
29
100
AcDbVisualStyle
  2

 70
    27
 71
     2
 72
     2
 73
     1
 90
        2
 40
-0.6
 41
30.0
 62
     5
 63
     7
 74
     0
 91
        4
 64
     7
 65
   257
 75
     1
175
     1
 42
1.0
 92
        8
 66
   257
 43
1.0
 76
     1
 77
     6
 78
     2
 67
     8
 79
     3
170
     0
171
     0
290
     0
174
     0
 93
        5
 44
0.0
173
     0
291
     0
 45
0.0
1001
ACAD
1000
AcDbSavedByObjectVersion
1070
     0
  0
VISUALSTYLE
  5
7A4D
102
{ACAD_XDICTIONARY
360
9012
102
}
102
{ACAD_REACTORS
330
29
102
}
330
29
100
AcDbVisualStyle
  2

 70
    26
 71
     2
 72
     2
 73
     1
 90
        2
 40
-0.6
 41
30.0
 62
     5
 63
     7
 74
     1
 91
       10
 64
     7
 65
   257
 75
     2
175
     1
 42
1.0
 92
        8
 66
   257
 43
1.0
 76
     1
 77
     6
 78
     2
 67
     7
 79
     3
170
     0
171
     0
290
     0
174
     0
 93
        5
 44
0.0
173
     0
291
     0
 45
0.0
1001
ACAD
1000
AcDbSavedByObjectVersion
1070
     0
  0
VISUALSTYLE
  5
7A4A
102
{ACAD_XDICTIONARY
360
900C
102
}
102
{ACAD_REACTORS
330
29
102
}
330
29
100
AcDbVisualStyle
  2

 70
    23
 71
     2
 72
     2
 73
     3
 90
        0
 40
-0.6
 41
-30.0
 62
     5
 63
     7
 74
     2
 91
        2
 64
     7
 65
     7
 75
     1
175
     1
 42
40.0
 92
        8
 66
     7
 43
1.0
 76
     1
 77
     6
 78
     2
 67
     7
 79
     3
170
     0
171
     0
290
     0
174
     0
 93
        1
 44
0.0
173
     0
291
     0
 45
0.0
1001
ACAD
1000
AcDbSavedByObjectVersion
1070
     0
  0
VISUALSTYLE
  5
7A4B
102
{ACAD_XDICTIONARY
360
900E
102
}
102
{ACAD_REACTORS
330
29
102
}
330
29
100
AcDbVisualStyle
  2

 70
    24
 71
     1
 72
     2
 73
     2
 90
        0
 40
-0.6
 41
-30.0
 62
     5
 63
     7
 74
     2
 91
        2
 64
     7
 65
     7
 75
     1
175
     1
 42
40.0
 92
       11
 66
     7
 43
1.0
 76
     1
 77
     6
 78
     2
 67
     7
 79
     6
170
     0
171
     0
290
     0
174
     0
 93
        1
 44
0.0
173
     0
291
     0
 45
0.0
1001
ACAD
1000
AcDbSavedByObjectVersion
1070
     0
  0
VISUALSTYLE
  5
221
102
{ACAD_XDICTIONARY
360
8FFA
102
}
102
{ACAD_REACTORS
330
29
102
}
330
29
100
AcDbVisualStyle
  2

 70
    13
 71
     2
 72
     2
 73
     0
 90
        0
 40
-0.6
 41
-30.0
 62
     5
 63
     7
 74
     1
 91
        4
 64
     7
 65
   257
 75
     1
175
     1
 42
1.0
 92
       12
 66
     7
 43
1.0
 76
     1
 77
     6
 78
     2
 67
     7
 79
     5
170
     0
171
     0
290
     0
174
     0
 93
        1
 44
0.0
173
     0
291
     1
 45
0.0
1001
ACAD
1000
AcDbSavedByObjectVersion
1070
     0
  0
VISUALSTYLE
  5
7A48
102
{ACAD_XDICTIONARY
360
9008
102
}
102
{ACAD_REACTORS
330
29
102
}
330
29
100
AcDbVisualStyle
  2

 70
     5
 71
     0
 72
     2
 73
     0
 90
        0
 40
-0.6
 41
-30.0
 62
     5
 63
     7
 74
     1
 91
        4
 64
     7
 65
   257
 75
     1
175
     1
 42
1.0
 92
        0
 66
   257
 43
1.0
 76
     1
 77
     6
 78
     2
 67
     7
 79
     3
170
     0
171
     0
290
     0
174
     0
 93
        1
 44
0.0
173
     0
291
     0
 45
0.0
1001
ACAD
1000
AcDbSavedByObjectVersion
1070
     0
  0
VISUALSTYLE
  5
7A4C
102
{ACAD_XDICTIONARY
360
9010
102
}
102
{ACAD_REACTORS
330
29
102
}
330
29
100
AcDbVisualStyle
  2

 70
    25
 71
     2
 72
     2
 73
     1
 90
        1
 40
0.5
 41
-30.0
 62
     5
 63
     7
 74
     1
 91
        0
 64
     7
 65
   257
 75
     1
175
     1
 42
1.0
 92
        8
 66
     7
 43
1.0
 76
     1
 77
     6
 78
     2
 67
     7
 79
     3
170
     0
171
     0
290
     0
174
     0
 93
       13
 44
0.0
173
     0
291
     0
 45
0.0
1001
ACAD
1000
AcDbSavedByObjectVersion
1070
     0
  0
DICTIONARYVAR
  5
215
102
{ACAD_REACTORS
330
212
102
}
330
212
100
DictionaryVariables
280
     0
  1
1:1
  0
DICTIONARYVAR
  5
214
102
{ACAD_REACTORS
330
212
102
}
330
212
100
DictionaryVariables
280
     0
  1
STANDARD
  0
DICTIONARYVAR
  5
213
102
{ACAD_REACTORS
330
212
102
}
330
212
100
DictionaryVariables
280
     0
  1
STANDARD
  0
DICTIONARYVAR
  5
8FD2
102
{ACAD_REACTORS
330
212
102
}
330
212
100
DictionaryVariables
280
     0
  1
Imperial24
  0
DICTIONARYVAR
  5
8FD3
102
{ACAD_REACTORS
330
212
102
}
330
212
100
DictionaryVariables
280
     0
  1
Imperial24
  0
DICTIONARYVAR
  5
2EC
102
{ACAD_REACTORS
330
212
102
}
330
212
100
DictionaryVariables
280
     0
  1
2
  0
DICTIONARYVAR
  5
2EB
102
{ACAD_REACTORS
330
212
102
}
330
212
100
DictionaryVariables
280
     0
  1
1
  0
DICTIONARYVAR
  5
2EA
102
{ACAD_REACTORS
330
212
102
}
330
212
100
DictionaryVariables
280
     0
  1
0
  0
DICTIONARYVAR
  5
216
102
{ACAD_REACTORS
330
212
102
}
330
212
100
DictionaryVariables
280
     0
  1
0
  0
DICTIONARYVAR
  5
2E8
102
{ACAD_REACTORS
330
212
102
}
330
212
100
DictionaryVariables
280
     0
  1
1
  0
DICTIONARYVAR
  5
2E9
102
{ACAD_REACTORS
330
212
102
}
330
212
100
DictionaryVariables
280
     0
  1
127
  0
DICTIONARYVAR
  5
8FD4
102
{ACAD_REACTORS
330
212
102
}
330
212
100
DictionaryVariables
280
     0
  1
2
  0
DICTIONARY
  5
1BA
102
{ACAD_REACTORS
330
1B9
102
}
330
1B9
100
AcDbDictionary
281
     1
  0
XRECORD
  5
25B
102
{ACAD_REACTORS
330
1B9
102
}
330
1B9
100
AcDbXrecord
280
     1
 90
-1023410169
  0
XRECORD
  5
76F7
102
{ACAD_REACTORS
330
76F6
102
}
330
76F6
100
AcDbXrecord
280
     1
 40
0.000001
  0
XRECORD
  5
76FA
102
{ACAD_REACTORS
330
76F6
102
}
330
76F6
100
AcDbXrecord
280
     1
 70
     0
  0
XRECORD
  5
76F9
102
{ACAD_REACTORS
330
76F6
102
}
330
76F6
100
AcDbXrecord
280
     1
 70
     0
  0
XRECORD
  5
76F8
102
{ACAD_REACTORS
330
76F6
102
}
330
76F6
100
AcDbXrecord
280
     1
 70
     0
  0
XRECORD
  5
3E68
102
{ACAD_XDICTIONARY
360
3E69
102
}
102
{ACAD_REACTORS
330
1D
102
}
330
1D
100
AcDbXrecord
280
     1
 91
      535
301

290
     0
302
0
330
0
 90
        8
 62
   241
370
    -3
331
1B
  1
Color_241
330
212B
 90
        8
 62
   255
370
    -3
331
1B
  1
Color_255
330
6F
 90
        8
 62
     3
370
    15
331
1B
  1
Color_3
330
BF
 90
        8
 62
     1
370
    -3
331
1B
  1
Color_1
330
108
 90
        8
 62
   142
370
    -3
331
1B
  1
Color_142
330
117
 90
        8
 62
     1
370
    -3
331
1B
  1
Color_1
330
10C
 90
        8
 62
     5
370
    -3
331
1B
  1
Color_5
330
7E
 90
        0
 62
     7
370
    -3
331
1B
  1
Color_7
330
98
 90
        8
 62
     3
370
    -3
331
1B
  1
Color_3
330
94
 90
        8
 62
     5
370
    -3
331
1B
  1
Color_5
330
D
 90
        8
 62
     7
370
    -3
331
1B
  1
Color_7
  0
DICTIONARY
  5
8FDF
330
B
100
AcDbDictionary
280
     1
281
     1
  3
ACAD_XREC_ROUNDTRIP
360
8FE0
  0
DICTIONARY
  5
8FDD
330
5
100
AcDbDictionary
280
     1
281
     1
  3
ACAD_XREC_ROUNDTRIP
360
8FDE
  0
DICTIONARY
  5
3C
330
3B
100
AcDbDictionary
280
     1
281
     1
  3
ACAD_XREC_ROUNDTRIP
360
8F32
  3
BUMPTILE
360
3D
  3
DIFFUSETILE
360
3E
  3
OPACITYTILE
360
3F
  3
REFLECTIONTILE
360
40
  3
REFRACTIONTILE
360
41
  3
SPECULARTILE
360
42
  0
DICTIONARY
  5
34
330
33
100
AcDbDictionary
280
     1
281
     1
  3
ACAD_XREC_ROUNDTRIP
360
8F31
  3
BUMPTILE
360
35
  3
DIFFUSETILE
360
36
  3
OPACITYTILE
360
37
  3
REFLECTIONTILE
360
38
  3
REFRACTIONTILE
360
39
  3
SPECULARTILE
360
3A
  0
DICTIONARY
  5
14
330
12
100
AcDbDictionary
280
     1
281
     1
  3
ACAD_XREC_ROUNDTRIP
360
8F2E
  3
BUMPTILE
360
15
  3
DIFFUSETILE
360
16
  3
OPACITYTILE
360
17
  3
REFLECTIONTILE
360
18
  3
REFRACTIONTILE
360
19
  3
SPECULARTILE
360
1A
  0
DICTIONARY
  5
48
330
47
100
AcDbDictionary
280
     1
281
     1
  3
ACAD_ROUNDTRIP_2008_TABLESTYLE_CELLSTYLEMAP
360
8FD5
  3
ACAD_XREC_ROUNDTRIP
360
8FE3
  0
DICTIONARY
  5
8FE1
330
28
100
AcDbDictionary
280
     1
281
     1
  3
ACAD_XREC_ROUNDTRIP
360
8FE2
  0
DICTIONARY
  5
8FF2
330
21D
100
AcDbDictionary
280
     1
281
     1
  3
ACAD_XREC_ROUNDTRIP
360
8FF3
  0
DICTIONARY
  5
8FE6
330
4A
100
AcDbDictionary
280
     1
281
     1
  3
ACAD_XREC_ROUNDTRIP
360
8FE7
  0
DICTIONARY
  5
8FF0
330
21C
100
AcDbDictionary
280
     1
281
     1
  3
ACAD_XREC_ROUNDTRIP
360
8FF1
  0
DICTIONARY
  5
8FF8
330
220
100
AcDbDictionary
280
     1
281
     1
  3
ACAD_XREC_ROUNDTRIP
360
8FF9
  0
DICTIONARY
  5
9000
330
224
100
AcDbDictionary
280
     1
281
     1
  3
ACAD_XREC_ROUNDTRIP
360
9001
  0
DICTIONARY
  5
8FF4
330
21E
100
AcDbDictionary
280
     1
281
     1
  3
ACAD_XREC_ROUNDTRIP
360
8FF5
  0
DICTIONARY
  5
8FF6
330
21F
100
AcDbDictionary
280
     1
281
     1
  3
ACAD_XREC_ROUNDTRIP
360
8FF7
  0
DICTIONARY
  5
9006
330
6237
100
AcDbDictionary
280
     1
281
     1
  3
ACAD_XREC_ROUNDTRIP
360
9007
  0
DICTIONARY
  5
8FFE
330
223
100
AcDbDictionary
280
     1
281
     1
  3
ACAD_XREC_ROUNDTRIP
360
8FFF
  0
DICTIONARY
  5
8FE8
330
218
100
AcDbDictionary
280
     1
281
     1
  3
ACAD_XREC_ROUNDTRIP
360
8FE9
  0
DICTIONARY
  5
8FEA
330
219
100
AcDbDictionary
280
     1
281
     1
  3
ACAD_XREC_ROUNDTRIP
360
8FEB
  0
DICTIONARY
  5
8FEC
330
21A
100
AcDbDictionary
280
     1
281
     1
  3
ACAD_XREC_ROUNDTRIP
360
8FED
  0
DICTIONARY
  5
8FEE
330
21B
100
AcDbDictionary
280
     1
281
     1
  3
ACAD_XREC_ROUNDTRIP
360
8FEF
  0
DICTIONARY
  5
900A
330
7A49
100
AcDbDictionary
280
     1
281
     1
  3
ACAD_XREC_ROUNDTRIP
360
900B
  0
DICTIONARY
  5
9002
330
6235
100
AcDbDictionary
280
     1
281
     1
  3
ACAD_XREC_ROUNDTRIP
360
9003
  0
DICTIONARY
  5
8FFC
330
222
100
AcDbDictionary
280
     1
281
     1
  3
ACAD_XREC_ROUNDTRIP
360
8FFD
  0
DICTIONARY
  5
9004
330
6236
100
AcDbDictionary
280
     1
281
     1
  3
ACAD_XREC_ROUNDTRIP
360
9005
  0
DICTIONARY
  5
8FE4
330
49
100
AcDbDictionary
280
     1
281
     1
  3
ACAD_XREC_ROUNDTRIP
360
8FE5
  0
DICTIONARY
  5
9014
330
7A4E
100
AcDbDictionary
280
     1
281
     1
  3
ACAD_XREC_ROUNDTRIP
360
9015
  0
DICTIONARY
  5
9012
330
7A4D
100
AcDbDictionary
280
     1
281
     1
  3
ACAD_XREC_ROUNDTRIP
360
9013
  0
DICTIONARY
  5
900C
330
7A4A
100
AcDbDictionary
280
     1
281
     1
  3
ACAD_XREC_ROUNDTRIP
360
900D
  0
DICTIONARY
  5
900E
330
7A4B
100
AcDbDictionary
280
     1
281
     1
  3
ACAD_XREC_ROUNDTRIP
360
900F
  0
DICTIONARY
  5
8FFA
330
221
100
AcDbDictionary
280
     1
281
     1
  3
ACAD_XREC_ROUNDTRIP
360
8FFB
  0
DICTIONARY
  5
9008
330
7A48
100
AcDbDictionary
280
     1
281
     1
  3
ACAD_XREC_ROUNDTRIP
360
9009
  0
DICTIONARY
  5
9010
330
7A4C
100
AcDbDictionary
280
     1
281
     1
  3
ACAD_XREC_ROUNDTRIP
360
9011
  0
DICTIONARY
  5
3E69
330
3E68
100
AcDbDictionary
280
     1
281
     1
  3
AcadLayerStateAnnoScale
360
3E6A
  0
XRECORD
  5
8FE0
102
{ACAD_REACTORS
330
8FDF
102
}
330
8FDF
100
AcDbXrecord
280
     1
102
SHADEPLOT
 70
     0
102
SHADEPLOTRESLEVEL
 70
     2
102
SHADEPLOTCUSTOMDPI
 70
   300
  0
XRECORD
  5
8FDE
102
{ACAD_REACTORS
330
8FDD
102
}
330
8FDD
100
AcDbXrecord
280
     1
102
SHADEPLOT
 70
     0
102
SHADEPLOTRESLEVEL
 70
     2
102
SHADEPLOTCUSTOMDPI
 70
   300
  0
XRECORD
  5
8F32
102
{ACAD_REACTORS
330
3C
102
}
330
3C
100
AcDbXrecord
280
     1
102
MATERIAL
148
0.0
149
0.0
149
0.0
 93
        0
 94
      127
282
     0
 72
     0
 77
     0
171
     0
175
     0
179
     0
273
     0
  0
XRECORD
  5
3D
102
{ACAD_REACTORS
330
3C
102
}
330
3C
100
AcDbXrecord
280
     1
270
     1
271
     1
  0
XRECORD
  5
3E
102
{ACAD_REACTORS
330
3C
102
}
330
3C
100
AcDbXrecord
280
     1
270
     1
271
     1
  0
XRECORD
  5
3F
102
{ACAD_REACTORS
330
3C
102
}
330
3C
100
AcDbXrecord
280
     1
270
     1
271
     1
  0
XRECORD
  5
40
102
{ACAD_REACTORS
330
3C
102
}
330
3C
100
AcDbXrecord
280
     1
270
     1
271
     1
  0
XRECORD
  5
41
102
{ACAD_REACTORS
330
3C
102
}
330
3C
100
AcDbXrecord
280
     1
270
     1
271
     1
  0
XRECORD
  5
42
102
{ACAD_REACTORS
330
3C
102
}
330
3C
100
AcDbXrecord
280
     1
270
     1
271
     1
  0
XRECORD
  5
8F31
102
{ACAD_REACTORS
330
34
102
}
330
34
100
AcDbXrecord
280
     1
102
MATERIAL
148
0.0
149
0.0
149
0.0
 93
        0
 94
      127
282
     0
 72
     0
 77
     0
171
     0
175
     0
179
     0
273
     0
  0
XRECORD
  5
35
102
{ACAD_REACTORS
330
34
102
}
330
34
100
AcDbXrecord
280
     1
270
     1
271
     1
  0
XRECORD
  5
36
102
{ACAD_REACTORS
330
34
102
}
330
34
100
AcDbXrecord
280
     1
270
     1
271
     1
  0
XRECORD
  5
37
102
{ACAD_REACTORS
330
34
102
}
330
34
100
AcDbXrecord
280
     1
270
     1
271
     1
  0
XRECORD
  5
38
102
{ACAD_REACTORS
330
34
102
}
330
34
100
AcDbXrecord
280
     1
270
     1
271
     1
  0
XRECORD
  5
39
102
{ACAD_REACTORS
330
34
102
}
330
34
100
AcDbXrecord
280
     1
270
     1
271
     1
  0
XRECORD
  5
3A
102
{ACAD_REACTORS
330
34
102
}
330
34
100
AcDbXrecord
280
     1
270
     1
271
     1
  0
XRECORD
  5
8F2E
102
{ACAD_REACTORS
330
14
102
}
330
14
100
AcDbXrecord
280
     1
102
MATERIAL
148
0.0
149
0.0
149
0.0
 93
        0
 94
      127
282
     0
 72
     0
 77
     0
171
     0
175
     0
179
     0
273
     0
  0
XRECORD
  5
15
102
{ACAD_REACTORS
330
14
102
}
330
14
100
AcDbXrecord
280
     1
270
     1
271
     1
  0
XRECORD
  5
16
102
{ACAD_REACTORS
330
14
102
}
330
14
100
AcDbXrecord
280
     1
270
     1
271
     1
  0
XRECORD
  5
17
102
{ACAD_REACTORS
330
14
102
}
330
14
100
AcDbXrecord
280
     1
270
     1
271
     1
  0
XRECORD
  5
18
102
{ACAD_REACTORS
330
14
102
}
330
14
100
AcDbXrecord
280
     1
270
     1
271
     1
  0
XRECORD
  5
19
102
{ACAD_REACTORS
330
14
102
}
330
14
100
AcDbXrecord
280
     1
270
     1
271
     1
  0
XRECORD
  5
1A
102
{ACAD_REACTORS
330
14
102
}
330
14
100
AcDbXrecord
280
     1
270
     1
271
     1
  0
CELLSTYLEMAP
  5
8FD5
102
{ACAD_REACTORS
330
48
102
}
330
48
100
AcDbCellStyleMap
 90
        3
300
CELLSTYLE
  1
TABLEFORMAT_BEGIN
 90
        5
170
     1
 91
        0
 92
    32768
 62
   257
 93
        1
300
CONTENTFORMAT
  1
CONTENTFORMAT_BEGIN
 90
        0
 91
        0
 92
      512
 93
        0
300

 40
0.0
140
1.0
 94
        5
 62
     0
340
1F
144
0.25
309
CONTENTFORMAT_END
171
     1
301
MARGIN
  1
CELLMARGIN_BEGIN
 40
0.06
 40
0.06
 40
0.06
 40
0.06
 40
0.18
 40
0.18
309
CELLMARGIN_END
 94
        6
 95
        1
302
GRIDFORMAT
  1
GRIDFORMAT_BEGIN
 90
        0
 91
        1
 62
     0
 92
       -2
340
0
 93
        0
 40
0.045
309
GRIDFORMAT_END
 95
        2
302
GRIDFORMAT
  1
GRIDFORMAT_BEGIN
 90
        0
 91
        1
 62
     0
 92
       -2
340
0
 93
        0
 40
0.045
309
GRIDFORMAT_END
 95
        4
302
GRIDFORMAT
  1
GRIDFORMAT_BEGIN
 90
        0
 91
        1
 62
     0
 92
       -2
340
0
 93
        0
 40
0.045
309
GRIDFORMAT_END
 95
        8
302
GRIDFORMAT
  1
GRIDFORMAT_BEGIN
 90
        0
 91
        1
 62
     0
 92
       -2
340
0
 93
        0
 40
0.045
309
GRIDFORMAT_END
 95
       16
302
GRIDFORMAT
  1
GRIDFORMAT_BEGIN
 90
        0
 91
        1
 62
     0
 92
       -2
340
0
 93
        0
 40
0.045
309
GRIDFORMAT_END
 95
       32
302
GRIDFORMAT
  1
GRIDFORMAT_BEGIN
 90
        0
 91
        1
 62
     0
 92
       -2
340
0
 93
        0
 40
0.045
309
GRIDFORMAT_END
309
TABLEFORMAT_END
  1
CELLSTYLE_BEGIN
 90
        1
 91
        1
300
_TITLE
309
CELLSTYLE_END
300
CELLSTYLE
  1
TABLEFORMAT_BEGIN
 90
        5
170
     1
 91
        0
 92
        0
 62
   257
 93
        1
300
CONTENTFORMAT
  1
CONTENTFORMAT_BEGIN
 90
        0
 91
        0
 92
      512
 93
        0
300

 40
0.0
140
1.0
 94
        5
 62
     0
340
1F
144
0.18
309
CONTENTFORMAT_END
171
     1
301
MARGIN
  1
CELLMARGIN_BEGIN
 40
0.06
 40
0.06
 40
0.06
 40
0.06
 40
0.18
 40
0.18
309
CELLMARGIN_END
 94
        6
 95
        1
302
GRIDFORMAT
  1
GRIDFORMAT_BEGIN
 90
        0
 91
        1
 62
     0
 92
       -2
340
0
 93
        0
 40
0.045
309
GRIDFORMAT_END
 95
        2
302
GRIDFORMAT
  1
GRIDFORMAT_BEGIN
 90
        0
 91
        1
 62
     0
 92
       -2
340
0
 93
        0
 40
0.045
309
GRIDFORMAT_END
 95
        4
302
GRIDFORMAT
  1
GRIDFORMAT_BEGIN
 90
        0
 91
        1
 62
     0
 92
       -2
340
0
 93
        0
 40
0.045
309
GRIDFORMAT_END
 95
        8
302
GRIDFORMAT
  1
GRIDFORMAT_BEGIN
 90
        0
 91
        1
 62
     0
 92
       -2
340
0
 93
        0
 40
0.045
309
GRIDFORMAT_END
 95
       16
302
GRIDFORMAT
  1
GRIDFORMAT_BEGIN
 90
        0
 91
        1
 62
     0
 92
       -2
340
0
 93
        0
 40
0.045
309
GRIDFORMAT_END
 95
       32
302
GRIDFORMAT
  1
GRIDFORMAT_BEGIN
 90
        0
 91
        1
 62
     0
 92
       -2
340
0
 93
        0
 40
0.045
309
GRIDFORMAT_END
309
TABLEFORMAT_END
  1
CELLSTYLE_BEGIN
 90
        2
 91
        1
300
_HEADER
309
CELLSTYLE_END
300
CELLSTYLE
  1
TABLEFORMAT_BEGIN
 90
        5
170
     1
 91
        0
 92
        0
 62
   257
 93
        1
300
CONTENTFORMAT
  1
CONTENTFORMAT_BEGIN
 90
        0
 91
        0
 92
      512
 93
        0
300

 40
0.0
140
1.0
 94
        2
 62
     0
340
1F
144
0.18
309
CONTENTFORMAT_END
171
     1
301
MARGIN
  1
CELLMARGIN_BEGIN
 40
0.06
 40
0.06
 40
0.06
 40
0.06
 40
0.18
 40
0.18
309
CELLMARGIN_END
 94
        6
 95
        1
302
GRIDFORMAT
  1
GRIDFORMAT_BEGIN
 90
        0
 91
        1
 62
     0
 92
       -2
340
0
 93
        0
 40
0.045
309
GRIDFORMAT_END
 95
        2
302
GRIDFORMAT
  1
GRIDFORMAT_BEGIN
 90
        0
 91
        1
 62
     0
 92
       -2
340
0
 93
        0
 40
0.045
309
GRIDFORMAT_END
 95
        4
302
GRIDFORMAT
  1
GRIDFORMAT_BEGIN
 90
        0
 91
        1
 62
     0
 92
       -2
340
0
 93
        0
 40
0.045
309
GRIDFORMAT_END
 95
        8
302
GRIDFORMAT
  1
GRIDFORMAT_BEGIN
 90
        0
 91
        1
 62
     0
 92
       -2
340
0
 93
        0
 40
0.045
309
GRIDFORMAT_END
 95
       16
302
GRIDFORMAT
  1
GRIDFORMAT_BEGIN
 90
        0
 91
        1
 62
     0
 92
       -2
340
0
 93
        0
 40
0.045
309
GRIDFORMAT_END
 95
       32
302
GRIDFORMAT
  1
GRIDFORMAT_BEGIN
 90
        0
 91
        1
 62
     0
 92
       -2
340
0
 93
        0
 40
0.045
309
GRIDFORMAT_END
309
TABLEFORMAT_END
  1
CELLSTYLE_BEGIN
 90
        3
 91
        2
300
_DATA
309
CELLSTYLE_END
  0
XRECORD
  5
8FE3
102
{ACAD_REACTORS
330
48
102
}
330
48
100
AcDbXrecord
280
     1
102
ACAD_ROUNDTRIP_PRE2007_TABLESTYLE
 90
      512
 91
        0
  1

 92
      512
 93
        0
  2

 94
      512
 95
        0
  3

  0
XRECORD
  5
8FE2
102
{ACAD_REACTORS
330
8FE1
102
}
330
8FE1
100
AcDbXrecord
280
     1
102
RTVSPost2010Prop28
280
     1
102
RTVSPost2010PropOp28
 70
     1
102
RTVSPost2010Prop29
280
     1
102
RTVSPost2010PropOp29
 70
     1
102
RTVSPost2010Prop30
280
     0
102
RTVSPost2010PropOp30
 70
     1
102
RTVSPost2010Prop31
280
     0
102
RTVSPost2010PropOp31
 70
     1
102
RTVSPost2010Prop32
280
     0
102
RTVSPost2010PropOp32
 70
     1
102
RTVSPost2010Prop33
280
     0
102
RTVSPost2010PropOp33
 70
     1
102
RTVSPost2010Prop34
280
     0
102
RTVSPost2010PropOp34
 70
     1
102
RTVSPost2010Prop35
280
     0
102
RTVSPost2010PropOp35
 70
     1
102
RTVSPost2010Prop36
280
     0
102
RTVSPost2010PropOp36
 70
     1
102
RTVSPost2010Prop37
 90
       50
102
RTVSPost2010PropOp37
 70
     1
102
RTVSPost2010Prop38
140
0.0
102
RTVSPost2010PropOp38
 70
     1
102
RTVSPost2010Prop39
140
1.0
102
RTVSPost2010PropOp39
 70
     1
102
RTVSPost2010Prop40
 90
        0
102
RTVSPost2010PropOp40
 70
     1
102
RTVSPost2010Prop41ColorIndex
 90
       18
102
RTVSPost2010Prop41ColorRGB
 90
        0
102
RTVSPost2010PropOp41
 70
     1
102
RTVSPost2010Prop42
 90
       50
102
RTVSPost2010PropOp42
 70
     1
102
RTVSPost2010Prop43
 90
        3
102
RTVSPost2010PropOp43
 70
     1
102
RTVSPost2010Prop44ColorIndex
 90
        5
102
RTVSPost2010Prop44ColorRGB
 90
      255
102
RTVSPost2010PropOp44
 70
     1
102
RTVSPost2010Prop45
280
     0
102
RTVSPost2010PropOp45
 70
     1
102
RTVSPost2010Prop46
 90
       50
102
RTVSPost2010PropOp46
 70
     1
102
RTVSPost2010Prop47
 90
       50
102
RTVSPost2010PropOp47
 70
     1
102
RTVSPost2010Prop48
 90
       50
102
RTVSPost2010PropOp48
 70
     1
102
RTVSPost2010Prop49
280
     0
102
RTVSPost2010PropOp49
 70
     1
102
RTVSPost2010Prop50
 90
       50
102
RTVSPost2010PropOp50
 70
     1
102
RTVSPost2010Prop51ColorIndex
 90
      256
102
RTVSPost2010Prop51ColorRGB
 90
-16777216
102
RTVSPost2010PropOp51
 70
     0
102
RTVSPost2010Prop52
140
1.0
102
RTVSPost2010PropOp52
 70
     0
102
RTVSPost2010Prop53
 90
        2
102
RTVSPost2010PropOp53
 70
     1
102
RTVSPost2010Prop54
  1
strokes_ogs.tif
102
RTVSPost2010PropOp54
 70
     1
102
RTVSPost2010Prop55
280
     0
102
RTVSPost2010PropOp55
 70
     1
102
RTVSPost2010Prop56
140
1.0
102
RTVSPost2010PropOp56
 70
     1
102
RTVSPost2010Prop57
140
1.0
102
RTVSPost2010PropOp57
 70
     1
102
RTVSPropertyOp0
 70
     1
102
RTVSPropertyOp1
 70
     1
102
RTVSPropertyOp2
 70
     1
102
RTVSPropertyOp3
 70
     1
102
RTVSPropertyOp4
 70
     1
102
RTVSPropertyOp5
 70
     1
102
RTVSPropertyOp6
 70
     1
102
RTVSPropertyOp7
 70
     1
102
RTVSPropertyOp8
 70
     1
102
RTVSPropertyOp9
 70
     1
102
RTVSPropertyOp10
 70
     1
102
RTVSPropertyOp11
 70
     1
102
RTVSPropertyOp12
 70
     1
102
RTVSPropertyOp13
 70
     1
102
RTVSPropertyOp14
 70
     1
102
RTVSPropertyOp15
 70
     1
102
RTVSPropertyOp16
 70
     1
102
RTVSPropertyOp17
 70
     1
102
RTVSPropertyOp18
 70
     1
102
RTVSPropertyOp19
 70
     1
102
RTVSPropertyOp20
 70
     1
102
RTVSPropertyOp21
 70
     1
102
RTVSPropertyOp22
 70
     1
102
RTVSPropertyOp23
 70
     1
102
RTVSPropertyOp24
 70
     1
102
RTVSPropertyOp25
 70
     1
102
RTVSPropertyOp26
 70
     1
102
RTVSPropertyOp27
 70
     1
102
RTVSPropertyOp28
 70
     1
102
RTVSPropertyOp29
 70
     1
102
RTVSPropertyOp30
 70
     1
102
RTVSPropertyOp31
 70
     1
102
RTVSPropertyOp32
 70
     1
102
RTVSPropertyOp33
 70
     1
102
RTVSPropertyOp34
 70
     1
102
RTVSPropertyOp35
 70
     1
102
RTVSPropertyOp36
 70
     1
102
RTVSPropertyOp37
 70
     1
102
RTVSPropertyOp38
 70
     1
102
RTVSPropertyOp39
 70
     1
102
RTVSPropertyOp40
 70
     1
102
RTVSPropertyOp41
 70
     1
102
RTVSPropertyOp42
 70
     1
102
RTVSPropertyOp43
 70
     1
102
RTVSPropertyOp44
 70
     1
102
RTVSPropertyOp45
 70
     1
102
RTVSPropertyOp46
 70
     1
102
RTVSPropertyOp47
 70
     1
102
RTVSPropertyOp48
 70
     1
102
RTVSPropertyOp49
 70
     1
102
RTVSPropertyOp50
 70
     1
102
RTVSPropertyOp51
 70
     0
102
RTVSPropertyOp52
 70
     0
102
RTVSPropertyOp53
 70
     1
102
RTVSPropertyOp54
 70
     1
102
RTVSPropertyOp55
 70
     1
102
RTVSPropertyOp56
 70
     1
102
RTVSPropertyOp57
 70
     1
102
RTVSPropertyOp58
 70
     1
102
RTVSPropertyOp59
 70
     1
102
RTVSPropertyOp60
 70
     1
102
RTVSPropertyOp61
 70
     1
102
RTVSPropertyOp62
 70
     1
  0
XRECORD
  5
8FF3
102
{ACAD_REACTORS
330
8FF2
102
}
330
8FF2
100
AcDbXrecord
280
     1
102
RTVSPost2010Prop28
280
     0
102
RTVSPost2010PropOp28
 70
     1
102
RTVSPost2010Prop29
280
     1
102
RTVSPost2010PropOp29
 70
     1
102
RTVSPost2010Prop30
280
     1
102
RTVSPost2010PropOp30
 70
     1
102
RTVSPost2010Prop31
280
     0
102
RTVSPost2010PropOp31
 70
     1
102
RTVSPost2010Prop32
280
     0
102
RTVSPost2010PropOp32
 70
     1
102
RTVSPost2010Prop33
280
     0
102
RTVSPost2010PropOp33
 70
     1
102
RTVSPost2010Prop34
280
     0
102
RTVSPost2010PropOp34
 70
     1
102
RTVSPost2010Prop35
280
     0
102
RTVSPost2010PropOp35
 70
     1
102
RTVSPost2010Prop36
280
     0
102
RTVSPost2010PropOp36
 70
     1
102
RTVSPost2010Prop37
 90
       50
102
RTVSPost2010PropOp37
 70
     1
102
RTVSPost2010Prop38
140
0.0
102
RTVSPost2010PropOp38
 70
     1
102
RTVSPost2010Prop39
140
1.0
102
RTVSPost2010PropOp39
 70
     1
102
RTVSPost2010Prop40
 90
        0
102
RTVSPost2010PropOp40
 70
     1
102
RTVSPost2010Prop41ColorIndex
 90
       18
102
RTVSPost2010Prop41ColorRGB
 90
        0
102
RTVSPost2010PropOp41
 70
     1
102
RTVSPost2010Prop42
 90
       50
102
RTVSPost2010PropOp42
 70
     1
102
RTVSPost2010Prop43
 90
        3
102
RTVSPost2010PropOp43
 70
     1
102
RTVSPost2010Prop44ColorIndex
 90
        5
102
RTVSPost2010Prop44ColorRGB
 90
      255
102
RTVSPost2010PropOp44
 70
     1
102
RTVSPost2010Prop45
280
     0
102
RTVSPost2010PropOp45
 70
     1
102
RTVSPost2010Prop46
 90
       50
102
RTVSPost2010PropOp46
 70
     1
102
RTVSPost2010Prop47
 90
       50
102
RTVSPost2010PropOp47
 70
     1
102
RTVSPost2010Prop48
 90
       50
102
RTVSPost2010PropOp48
 70
     1
102
RTVSPost2010Prop49
280
     0
102
RTVSPost2010PropOp49
 70
     1
102
RTVSPost2010Prop50
 90
       50
102
RTVSPost2010PropOp50
 70
     1
102
RTVSPost2010Prop51ColorIndex
 90
      256
102
RTVSPost2010Prop51ColorRGB
 90
-16777216
102
RTVSPost2010PropOp51
 70
     0
102
RTVSPost2010Prop52
140
1.0
102
RTVSPost2010PropOp52
 70
     0
102
RTVSPost2010Prop53
 90
        2
102
RTVSPost2010PropOp53
 70
     1
102
RTVSPost2010Prop54
  1
strokes_ogs.tif
102
RTVSPost2010PropOp54
 70
     1
102
RTVSPost2010Prop55
280
     0
102
RTVSPost2010PropOp55
 70
     1
102
RTVSPost2010Prop56
140
1.0
102
RTVSPost2010PropOp56
 70
     1
102
RTVSPost2010Prop57
140
1.0
102
RTVSPost2010PropOp57
 70
     1
102
RTVSPropertyOp0
 70
     1
102
RTVSPropertyOp1
 70
     1
102
RTVSPropertyOp2
 70
     1
102
RTVSPropertyOp3
 70
     1
102
RTVSPropertyOp4
 70
     1
102
RTVSPropertyOp5
 70
     1
102
RTVSPropertyOp6
 70
     1
102
RTVSPropertyOp7
 70
     1
102
RTVSPropertyOp8
 70
     1
102
RTVSPropertyOp9
 70
     1
102
RTVSPropertyOp10
 70
     1
102
RTVSPropertyOp11
 70
     1
102
RTVSPropertyOp12
 70
     1
102
RTVSPropertyOp13
 70
     1
102
RTVSPropertyOp14
 70
     1
102
RTVSPropertyOp15
 70
     1
102
RTVSPropertyOp16
 70
     1
102
RTVSPropertyOp17
 70
     1
102
RTVSPropertyOp18
 70
     1
102
RTVSPropertyOp19
 70
     1
102
RTVSPropertyOp20
 70
     1
102
RTVSPropertyOp21
 70
     1
102
RTVSPropertyOp22
 70
     1
102
RTVSPropertyOp23
 70
     1
102
RTVSPropertyOp24
 70
     1
102
RTVSPropertyOp25
 70
     1
102
RTVSPropertyOp26
 70
     1
102
RTVSPropertyOp27
 70
     1
102
RTVSPropertyOp28
 70
     1
102
RTVSPropertyOp29
 70
     1
102
RTVSPropertyOp30
 70
     1
102
RTVSPropertyOp31
 70
     1
102
RTVSPropertyOp32
 70
     1
102
RTVSPropertyOp33
 70
     1
102
RTVSPropertyOp34
 70
     1
102
RTVSPropertyOp35
 70
     1
102
RTVSPropertyOp36
 70
     1
102
RTVSPropertyOp37
 70
     1
102
RTVSPropertyOp38
 70
     1
102
RTVSPropertyOp39
 70
     1
102
RTVSPropertyOp40
 70
     1
102
RTVSPropertyOp41
 70
     1
102
RTVSPropertyOp42
 70
     1
102
RTVSPropertyOp43
 70
     1
102
RTVSPropertyOp44
 70
     1
102
RTVSPropertyOp45
 70
     1
102
RTVSPropertyOp46
 70
     1
102
RTVSPropertyOp47
 70
     1
102
RTVSPropertyOp48
 70
     1
102
RTVSPropertyOp49
 70
     1
102
RTVSPropertyOp50
 70
     1
102
RTVSPropertyOp51
 70
     0
102
RTVSPropertyOp52
 70
     0
102
RTVSPropertyOp53
 70
     1
102
RTVSPropertyOp54
 70
     1
102
RTVSPropertyOp55
 70
     1
102
RTVSPropertyOp56
 70
     1
102
RTVSPropertyOp57
 70
     1
102
RTVSPropertyOp58
 70
     1
102
RTVSPropertyOp59
 70
     1
102
RTVSPropertyOp60
 70
     1
102
RTVSPropertyOp61
 70
     1
102
RTVSPropertyOp62
 70
     1
  0
XRECORD
  5
8FE7
102
{ACAD_REACTORS
330
8FE6
102
}
330
8FE6
100
AcDbXrecord
280
     1
102
RTVSPost2010Prop28
280
     0
102
RTVSPost2010PropOp28
 70
     1
102
RTVSPost2010Prop29
280
     1
102
RTVSPost2010PropOp29
 70
     1
102
RTVSPost2010Prop30
280
     1
102
RTVSPost2010PropOp30
 70
     1
102
RTVSPost2010Prop31
280
     0
102
RTVSPost2010PropOp31
 70
     1
102
RTVSPost2010Prop32
280
     0
102
RTVSPost2010PropOp32
 70
     1
102
RTVSPost2010Prop33
280
     0
102
RTVSPost2010PropOp33
 70
     1
102
RTVSPost2010Prop34
280
     0
102
RTVSPost2010PropOp34
 70
     1
102
RTVSPost2010Prop35
280
     0
102
RTVSPost2010PropOp35
 70
     1
102
RTVSPost2010Prop36
280
     0
102
RTVSPost2010PropOp36
 70
     1
102
RTVSPost2010Prop37
 90
       50
102
RTVSPost2010PropOp37
 70
     1
102
RTVSPost2010Prop38
140
0.0
102
RTVSPost2010PropOp38
 70
     1
102
RTVSPost2010Prop39
140
1.0
102
RTVSPost2010PropOp39
 70
     1
102
RTVSPost2010Prop40
 90
        0
102
RTVSPost2010PropOp40
 70
     1
102
RTVSPost2010Prop41ColorIndex
 90
       18
102
RTVSPost2010Prop41ColorRGB
 90
        0
102
RTVSPost2010PropOp41
 70
     1
102
RTVSPost2010Prop42
 90
       50
102
RTVSPost2010PropOp42
 70
     1
102
RTVSPost2010Prop43
 90
        3
102
RTVSPost2010PropOp43
 70
     1
102
RTVSPost2010Prop44ColorIndex
 90
        5
102
RTVSPost2010Prop44ColorRGB
 90
      255
102
RTVSPost2010PropOp44
 70
     1
102
RTVSPost2010Prop45
280
     0
102
RTVSPost2010PropOp45
 70
     1
102
RTVSPost2010Prop46
 90
       50
102
RTVSPost2010PropOp46
 70
     1
102
RTVSPost2010Prop47
 90
       50
102
RTVSPost2010PropOp47
 70
     1
102
RTVSPost2010Prop48
 90
       50
102
RTVSPost2010PropOp48
 70
     1
102
RTVSPost2010Prop49
280
     0
102
RTVSPost2010PropOp49
 70
     1
102
RTVSPost2010Prop50
 90
       50
102
RTVSPost2010PropOp50
 70
     1
102
RTVSPost2010Prop51ColorIndex
 90
      256
102
RTVSPost2010Prop51ColorRGB
 90
-16777216
102
RTVSPost2010PropOp51
 70
     0
102
RTVSPost2010Prop52
140
1.0
102
RTVSPost2010PropOp52
 70
     0
102
RTVSPost2010Prop53
 90
        2
102
RTVSPost2010PropOp53
 70
     1
102
RTVSPost2010Prop54
  1
strokes_ogs.tif
102
RTVSPost2010PropOp54
 70
     1
102
RTVSPost2010Prop55
280
     0
102
RTVSPost2010PropOp55
 70
     1
102
RTVSPost2010Prop56
140
1.0
102
RTVSPost2010PropOp56
 70
     1
102
RTVSPost2010Prop57
140
1.0
102
RTVSPost2010PropOp57
 70
     1
102
RTVSPropertyOp0
 70
     1
102
RTVSPropertyOp1
 70
     1
102
RTVSPropertyOp2
 70
     1
102
RTVSPropertyOp3
 70
     1
102
RTVSPropertyOp4
 70
     1
102
RTVSPropertyOp5
 70
     1
102
RTVSPropertyOp6
 70
     1
102
RTVSPropertyOp7
 70
     1
102
RTVSPropertyOp8
 70
     1
102
RTVSPropertyOp9
 70
     1
102
RTVSPropertyOp10
 70
     1
102
RTVSPropertyOp11
 70
     1
102
RTVSPropertyOp12
 70
     1
102
RTVSPropertyOp13
 70
     1
102
RTVSPropertyOp14
 70
     1
102
RTVSPropertyOp15
 70
     1
102
RTVSPropertyOp16
 70
     1
102
RTVSPropertyOp17
 70
     1
102
RTVSPropertyOp18
 70
     1
102
RTVSPropertyOp19
 70
     1
102
RTVSPropertyOp20
 70
     1
102
RTVSPropertyOp21
 70
     1
102
RTVSPropertyOp22
 70
     1
102
RTVSPropertyOp23
 70
     1
102
RTVSPropertyOp24
 70
     1
102
RTVSPropertyOp25
 70
     1
102
RTVSPropertyOp26
 70
     1
102
RTVSPropertyOp27
 70
     1
102
RTVSPropertyOp28
 70
     1
102
RTVSPropertyOp29
 70
     1
102
RTVSPropertyOp30
 70
     1
102
RTVSPropertyOp31
 70
     1
102
RTVSPropertyOp32
 70
     1
102
RTVSPropertyOp33
 70
     1
102
RTVSPropertyOp34
 70
     1
102
RTVSPropertyOp35
 70
     1
102
RTVSPropertyOp36
 70
     1
102
RTVSPropertyOp37
 70
     1
102
RTVSPropertyOp38
 70
     1
102
RTVSPropertyOp39
 70
     1
102
RTVSPropertyOp40
 70
     1
102
RTVSPropertyOp41
 70
     1
102
RTVSPropertyOp42
 70
     1
102
RTVSPropertyOp43
 70
     1
102
RTVSPropertyOp44
 70
     1
102
RTVSPropertyOp45
 70
     1
102
RTVSPropertyOp46
 70
     1
102
RTVSPropertyOp47
 70
     1
102
RTVSPropertyOp48
 70
     1
102
RTVSPropertyOp49
 70
     1
102
RTVSPropertyOp50
 70
     1
102
RTVSPropertyOp51
 70
     0
102
RTVSPropertyOp52
 70
     0
102
RTVSPropertyOp53
 70
     1
102
RTVSPropertyOp54
 70
     1
102
RTVSPropertyOp55
 70
     1
102
RTVSPropertyOp56
 70
     1
102
RTVSPropertyOp57
 70
     1
102
RTVSPropertyOp58
 70
     1
102
RTVSPropertyOp59
 70
     1
102
RTVSPropertyOp60
 70
     1
102
RTVSPropertyOp61
 70
     1
102
RTVSPropertyOp62
 70
     1
  0
XRECORD
  5
8FF1
102
{ACAD_REACTORS
330
8FF0
102
}
330
8FF0
100
AcDbXrecord
280
     1
102
RTVSPost2010Prop28
280
     0
102
RTVSPost2010PropOp28
 70
     1
102
RTVSPost2010Prop29
280
     1
102
RTVSPost2010PropOp29
 70
     1
102
RTVSPost2010Prop30
280
     1
102
RTVSPost2010PropOp30
 70
     1
102
RTVSPost2010Prop31
280
     0
102
RTVSPost2010PropOp31
 70
     1
102
RTVSPost2010Prop32
280
     0
102
RTVSPost2010PropOp32
 70
     1
102
RTVSPost2010Prop33
280
     0
102
RTVSPost2010PropOp33
 70
     1
102
RTVSPost2010Prop34
280
     0
102
RTVSPost2010PropOp34
 70
     1
102
RTVSPost2010Prop35
280
     0
102
RTVSPost2010PropOp35
 70
     1
102
RTVSPost2010Prop36
280
     0
102
RTVSPost2010PropOp36
 70
     1
102
RTVSPost2010Prop37
 90
       50
102
RTVSPost2010PropOp37
 70
     1
102
RTVSPost2010Prop38
140
0.0
102
RTVSPost2010PropOp38
 70
     1
102
RTVSPost2010Prop39
140
1.0
102
RTVSPost2010PropOp39
 70
     1
102
RTVSPost2010Prop40
 90
        0
102
RTVSPost2010PropOp40
 70
     1
102
RTVSPost2010Prop41ColorIndex
 90
       18
102
RTVSPost2010Prop41ColorRGB
 90
        0
102
RTVSPost2010PropOp41
 70
     1
102
RTVSPost2010Prop42
 90
       50
102
RTVSPost2010PropOp42
 70
     1
102
RTVSPost2010Prop43
 90
        3
102
RTVSPost2010PropOp43
 70
     1
102
RTVSPost2010Prop44ColorIndex
 90
        5
102
RTVSPost2010Prop44ColorRGB
 90
      255
102
RTVSPost2010PropOp44
 70
     1
102
RTVSPost2010Prop45
280
     0
102
RTVSPost2010PropOp45
 70
     1
102
RTVSPost2010Prop46
 90
       50
102
RTVSPost2010PropOp46
 70
     1
102
RTVSPost2010Prop47
 90
       50
102
RTVSPost2010PropOp47
 70
     1
102
RTVSPost2010Prop48
 90
       50
102
RTVSPost2010PropOp48
 70
     1
102
RTVSPost2010Prop49
280
     0
102
RTVSPost2010PropOp49
 70
     1
102
RTVSPost2010Prop50
 90
       50
102
RTVSPost2010PropOp50
 70
     1
102
RTVSPost2010Prop51ColorIndex
 90
      256
102
RTVSPost2010Prop51ColorRGB
 90
-16777216
102
RTVSPost2010PropOp51
 70
     0
102
RTVSPost2010Prop52
140
1.0
102
RTVSPost2010PropOp52
 70
     0
102
RTVSPost2010Prop53
 90
        2
102
RTVSPost2010PropOp53
 70
     1
102
RTVSPost2010Prop54
  1
strokes_ogs.tif
102
RTVSPost2010PropOp54
 70
     1
102
RTVSPost2010Prop55
280
     0
102
RTVSPost2010PropOp55
 70
     1
102
RTVSPost2010Prop56
140
1.0
102
RTVSPost2010PropOp56
 70
     1
102
RTVSPost2010Prop57
140
1.0
102
RTVSPost2010PropOp57
 70
     1
102
RTVSPropertyOp0
 70
     1
102
RTVSPropertyOp1
 70
     1
102
RTVSPropertyOp2
 70
     1
102
RTVSPropertyOp3
 70
     1
102
RTVSPropertyOp4
 70
     1
102
RTVSPropertyOp5
 70
     1
102
RTVSPropertyOp6
 70
     1
102
RTVSPropertyOp7
 70
     1
102
RTVSPropertyOp8
 70
     1
102
RTVSPropertyOp9
 70
     1
102
RTVSPropertyOp10
 70
     1
102
RTVSPropertyOp11
 70
     1
102
RTVSPropertyOp12
 70
     1
102
RTVSPropertyOp13
 70
     1
102
RTVSPropertyOp14
 70
     1
102
RTVSPropertyOp15
 70
     1
102
RTVSPropertyOp16
 70
     1
102
RTVSPropertyOp17
 70
     1
102
RTVSPropertyOp18
 70
     1
102
RTVSPropertyOp19
 70
     1
102
RTVSPropertyOp20
 70
     1
102
RTVSPropertyOp21
 70
     1
102
RTVSPropertyOp22
 70
     1
102
RTVSPropertyOp23
 70
     1
102
RTVSPropertyOp24
 70
     1
102
RTVSPropertyOp25
 70
     1
102
RTVSPropertyOp26
 70
     1
102
RTVSPropertyOp27
 70
     1
102
RTVSPropertyOp28
 70
     1
102
RTVSPropertyOp29
 70
     1
102
RTVSPropertyOp30
 70
     1
102
RTVSPropertyOp31
 70
     1
102
RTVSPropertyOp32
 70
     1
102
RTVSPropertyOp33
 70
     1
102
RTVSPropertyOp34
 70
     1
102
RTVSPropertyOp35
 70
     1
102
RTVSPropertyOp36
 70
     1
102
RTVSPropertyOp37
 70
     1
102
RTVSPropertyOp38
 70
     1
102
RTVSPropertyOp39
 70
     1
102
RTVSPropertyOp40
 70
     1
102
RTVSPropertyOp41
 70
     1
102
RTVSPropertyOp42
 70
     1
102
RTVSPropertyOp43
 70
     1
102
RTVSPropertyOp44
 70
     1
102
RTVSPropertyOp45
 70
     1
102
RTVSPropertyOp46
 70
     1
102
RTVSPropertyOp47
 70
     1
102
RTVSPropertyOp48
 70
     1
102
RTVSPropertyOp49
 70
     1
102
RTVSPropertyOp50
 70
     1
102
RTVSPropertyOp51
 70
     0
102
RTVSPropertyOp52
 70
     0
102
RTVSPropertyOp53
 70
     1
102
RTVSPropertyOp54
 70
     1
102
RTVSPropertyOp55
 70
     1
102
RTVSPropertyOp56
 70
     1
102
RTVSPropertyOp57
 70
     1
102
RTVSPropertyOp58
 70
     1
102
RTVSPropertyOp59
 70
     1
102
RTVSPropertyOp60
 70
     1
102
RTVSPropertyOp61
 70
     1
102
RTVSPropertyOp62
 70
     1
  0
XRECORD
  5
8FF9
102
{ACAD_REACTORS
330
8FF8
102
}
330
8FF8
100
AcDbXrecord
280
     1
102
RTVSPost2010Prop28
280
     0
102
RTVSPost2010PropOp28
 70
     1
102
RTVSPost2010Prop29
280
     1
102
RTVSPost2010PropOp29
 70
     1
102
RTVSPost2010Prop30
280
     1
102
RTVSPost2010PropOp30
 70
     1
102
RTVSPost2010Prop31
280
     0
102
RTVSPost2010PropOp31
 70
     1
102
RTVSPost2010Prop32
280
     0
102
RTVSPost2010PropOp32
 70
     1
102
RTVSPost2010Prop33
280
     0
102
RTVSPost2010PropOp33
 70
     1
102
RTVSPost2010Prop34
280
     0
102
RTVSPost2010PropOp34
 70
     1
102
RTVSPost2010Prop35
280
     0
102
RTVSPost2010PropOp35
 70
     1
102
RTVSPost2010Prop36
280
     0
102
RTVSPost2010PropOp36
 70
     1
102
RTVSPost2010Prop37
 90
       50
102
RTVSPost2010PropOp37
 70
     1
102
RTVSPost2010Prop38
140
0.0
102
RTVSPost2010PropOp38
 70
     1
102
RTVSPost2010Prop39
140
1.0
102
RTVSPost2010PropOp39
 70
     1
102
RTVSPost2010Prop40
 90
        0
102
RTVSPost2010PropOp40
 70
     1
102
RTVSPost2010Prop41ColorIndex
 90
       18
102
RTVSPost2010Prop41ColorRGB
 90
        0
102
RTVSPost2010PropOp41
 70
     1
102
RTVSPost2010Prop42
 90
       50
102
RTVSPost2010PropOp42
 70
     1
102
RTVSPost2010Prop43
 90
        3
102
RTVSPost2010PropOp43
 70
     1
102
RTVSPost2010Prop44ColorIndex
 90
        5
102
RTVSPost2010Prop44ColorRGB
 90
      255
102
RTVSPost2010PropOp44
 70
     1
102
RTVSPost2010Prop45
280
     0
102
RTVSPost2010PropOp45
 70
     1
102
RTVSPost2010Prop46
 90
       50
102
RTVSPost2010PropOp46
 70
     1
102
RTVSPost2010Prop47
 90
       50
102
RTVSPost2010PropOp47
 70
     1
102
RTVSPost2010Prop48
 90
       50
102
RTVSPost2010PropOp48
 70
     1
102
RTVSPost2010Prop49
280
     0
102
RTVSPost2010PropOp49
 70
     1
102
RTVSPost2010Prop50
 90
       50
102
RTVSPost2010PropOp50
 70
     1
102
RTVSPost2010Prop51ColorIndex
 90
      256
102
RTVSPost2010Prop51ColorRGB
 90
-16777216
102
RTVSPost2010PropOp51
 70
     0
102
RTVSPost2010Prop52
140
1.0
102
RTVSPost2010PropOp52
 70
     0
102
RTVSPost2010Prop53
 90
        2
102
RTVSPost2010PropOp53
 70
     1
102
RTVSPost2010Prop54
  1
strokes_ogs.tif
102
RTVSPost2010PropOp54
 70
     1
102
RTVSPost2010Prop55
280
     0
102
RTVSPost2010PropOp55
 70
     1
102
RTVSPost2010Prop56
140
1.0
102
RTVSPost2010PropOp56
 70
     1
102
RTVSPost2010Prop57
140
1.0
102
RTVSPost2010PropOp57
 70
     1
102
RTVSPropertyOp0
 70
     1
102
RTVSPropertyOp1
 70
     1
102
RTVSPropertyOp2
 70
     1
102
RTVSPropertyOp3
 70
     1
102
RTVSPropertyOp4
 70
     1
102
RTVSPropertyOp5
 70
     1
102
RTVSPropertyOp6
 70
     1
102
RTVSPropertyOp7
 70
     1
102
RTVSPropertyOp8
 70
     1
102
RTVSPropertyOp9
 70
     1
102
RTVSPropertyOp10
 70
     1
102
RTVSPropertyOp11
 70
     1
102
RTVSPropertyOp12
 70
     1
102
RTVSPropertyOp13
 70
     1
102
RTVSPropertyOp14
 70
     1
102
RTVSPropertyOp15
 70
     1
102
RTVSPropertyOp16
 70
     1
102
RTVSPropertyOp17
 70
     1
102
RTVSPropertyOp18
 70
     1
102
RTVSPropertyOp19
 70
     1
102
RTVSPropertyOp20
 70
     1
102
RTVSPropertyOp21
 70
     1
102
RTVSPropertyOp22
 70
     1
102
RTVSPropertyOp23
 70
     1
102
RTVSPropertyOp24
 70
     1
102
RTVSPropertyOp25
 70
     1
102
RTVSPropertyOp26
 70
     1
102
RTVSPropertyOp27
 70
     1
102
RTVSPropertyOp28
 70
     1
102
RTVSPropertyOp29
 70
     1
102
RTVSPropertyOp30
 70
     1
102
RTVSPropertyOp31
 70
     1
102
RTVSPropertyOp32
 70
     1
102
RTVSPropertyOp33
 70
     1
102
RTVSPropertyOp34
 70
     1
102
RTVSPropertyOp35
 70
     1
102
RTVSPropertyOp36
 70
     1
102
RTVSPropertyOp37
 70
     1
102
RTVSPropertyOp38
 70
     1
102
RTVSPropertyOp39
 70
     1
102
RTVSPropertyOp40
 70
     1
102
RTVSPropertyOp41
 70
     1
102
RTVSPropertyOp42
 70
     1
102
RTVSPropertyOp43
 70
     1
102
RTVSPropertyOp44
 70
     1
102
RTVSPropertyOp45
 70
     1
102
RTVSPropertyOp46
 70
     1
102
RTVSPropertyOp47
 70
     1
102
RTVSPropertyOp48
 70
     1
102
RTVSPropertyOp49
 70
     1
102
RTVSPropertyOp50
 70
     1
102
RTVSPropertyOp51
 70
     0
102
RTVSPropertyOp52
 70
     0
102
RTVSPropertyOp53
 70
     1
102
RTVSPropertyOp54
 70
     1
102
RTVSPropertyOp55
 70
     1
102
RTVSPropertyOp56
 70
     1
102
RTVSPropertyOp57
 70
     1
102
RTVSPropertyOp58
 70
     1
102
RTVSPropertyOp59
 70
     1
102
RTVSPropertyOp60
 70
     1
102
RTVSPropertyOp61
 70
     1
102
RTVSPropertyOp62
 70
     1
  0
XRECORD
  5
9001
102
{ACAD_REACTORS
330
9000
102
}
330
9000
100
AcDbXrecord
280
     1
102
RTVSPost2010Prop28
280
     0
102
RTVSPost2010PropOp28
 70
     1
102
RTVSPost2010Prop29
280
     1
102
RTVSPost2010PropOp29
 70
     1
102
RTVSPost2010Prop30
280
     1
102
RTVSPost2010PropOp30
 70
     1
102
RTVSPost2010Prop31
280
     0
102
RTVSPost2010PropOp31
 70
     1
102
RTVSPost2010Prop32
280
     0
102
RTVSPost2010PropOp32
 70
     1
102
RTVSPost2010Prop33
280
     0
102
RTVSPost2010PropOp33
 70
     1
102
RTVSPost2010Prop34
280
     0
102
RTVSPost2010PropOp34
 70
     1
102
RTVSPost2010Prop35
280
     0
102
RTVSPost2010PropOp35
 70
     1
102
RTVSPost2010Prop36
280
     0
102
RTVSPost2010PropOp36
 70
     1
102
RTVSPost2010Prop37
 90
       50
102
RTVSPost2010PropOp37
 70
     1
102
RTVSPost2010Prop38
140
0.0
102
RTVSPost2010PropOp38
 70
     1
102
RTVSPost2010Prop39
140
1.0
102
RTVSPost2010PropOp39
 70
     1
102
RTVSPost2010Prop40
 90
        0
102
RTVSPost2010PropOp40
 70
     1
102
RTVSPost2010Prop41ColorIndex
 90
       18
102
RTVSPost2010Prop41ColorRGB
 90
        0
102
RTVSPost2010PropOp41
 70
     1
102
RTVSPost2010Prop42
 90
       50
102
RTVSPost2010PropOp42
 70
     1
102
RTVSPost2010Prop43
 90
        3
102
RTVSPost2010PropOp43
 70
     1
102
RTVSPost2010Prop44ColorIndex
 90
        5
102
RTVSPost2010Prop44ColorRGB
 90
      255
102
RTVSPost2010PropOp44
 70
     1
102
RTVSPost2010Prop45
280
     0
102
RTVSPost2010PropOp45
 70
     1
102
RTVSPost2010Prop46
 90
       50
102
RTVSPost2010PropOp46
 70
     1
102
RTVSPost2010Prop47
 90
       50
102
RTVSPost2010PropOp47
 70
     1
102
RTVSPost2010Prop48
 90
       50
102
RTVSPost2010PropOp48
 70
     1
102
RTVSPost2010Prop49
280
     0
102
RTVSPost2010PropOp49
 70
     1
102
RTVSPost2010Prop50
 90
       50
102
RTVSPost2010PropOp50
 70
     1
102
RTVSPost2010Prop51ColorIndex
 90
      256
102
RTVSPost2010Prop51ColorRGB
 90
-16777216
102
RTVSPost2010PropOp51
 70
     0
102
RTVSPost2010Prop52
140
1.0
102
RTVSPost2010PropOp52
 70
     0
102
RTVSPost2010Prop53
 90
        2
102
RTVSPost2010PropOp53
 70
     1
102
RTVSPost2010Prop54
  1
strokes_ogs.tif
102
RTVSPost2010PropOp54
 70
     1
102
RTVSPost2010Prop55
280
     0
102
RTVSPost2010PropOp55
 70
     1
102
RTVSPost2010Prop56
140
1.0
102
RTVSPost2010PropOp56
 70
     1
102
RTVSPost2010Prop57
140
1.0
102
RTVSPost2010PropOp57
 70
     1
102
RTVSPropertyOp0
 70
     1
102
RTVSPropertyOp1
 70
     1
102
RTVSPropertyOp2
 70
     1
102
RTVSPropertyOp3
 70
     1
102
RTVSPropertyOp4
 70
     1
102
RTVSPropertyOp5
 70
     1
102
RTVSPropertyOp6
 70
     1
102
RTVSPropertyOp7
 70
     1
102
RTVSPropertyOp8
 70
     1
102
RTVSPropertyOp9
 70
     1
102
RTVSPropertyOp10
 70
     1
102
RTVSPropertyOp11
 70
     1
102
RTVSPropertyOp12
 70
     1
102
RTVSPropertyOp13
 70
     1
102
RTVSPropertyOp14
 70
     1
102
RTVSPropertyOp15
 70
     1
102
RTVSPropertyOp16
 70
     1
102
RTVSPropertyOp17
 70
     1
102
RTVSPropertyOp18
 70
     1
102
RTVSPropertyOp19
 70
     1
102
RTVSPropertyOp20
 70
     1
102
RTVSPropertyOp21
 70
     1
102
RTVSPropertyOp22
 70
     1
102
RTVSPropertyOp23
 70
     1
102
RTVSPropertyOp24
 70
     1
102
RTVSPropertyOp25
 70
     1
102
RTVSPropertyOp26
 70
     1
102
RTVSPropertyOp27
 70
     1
102
RTVSPropertyOp28
 70
     1
102
RTVSPropertyOp29
 70
     1
102
RTVSPropertyOp30
 70
     1
102
RTVSPropertyOp31
 70
     1
102
RTVSPropertyOp32
 70
     1
102
RTVSPropertyOp33
 70
     1
102
RTVSPropertyOp34
 70
     1
102
RTVSPropertyOp35
 70
     1
102
RTVSPropertyOp36
 70
     1
102
RTVSPropertyOp37
 70
     1
102
RTVSPropertyOp38
 70
     1
102
RTVSPropertyOp39
 70
     1
102
RTVSPropertyOp40
 70
     1
102
RTVSPropertyOp41
 70
     1
102
RTVSPropertyOp42
 70
     1
102
RTVSPropertyOp43
 70
     1
102
RTVSPropertyOp44
 70
     1
102
RTVSPropertyOp45
 70
     1
102
RTVSPropertyOp46
 70
     1
102
RTVSPropertyOp47
 70
     1
102
RTVSPropertyOp48
 70
     1
102
RTVSPropertyOp49
 70
     1
102
RTVSPropertyOp50
 70
     1
102
RTVSPropertyOp51
 70
     0
102
RTVSPropertyOp52
 70
     0
102
RTVSPropertyOp53
 70
     1
102
RTVSPropertyOp54
 70
     1
102
RTVSPropertyOp55
 70
     1
102
RTVSPropertyOp56
 70
     1
102
RTVSPropertyOp57
 70
     1
102
RTVSPropertyOp58
 70
     1
102
RTVSPropertyOp59
 70
     1
102
RTVSPropertyOp60
 70
     1
102
RTVSPropertyOp61
 70
     1
102
RTVSPropertyOp62
 70
     1
  0
XRECORD
  5
8FF5
102
{ACAD_REACTORS
330
8FF4
102
}
330
8FF4
100
AcDbXrecord
280
     1
102
RTVSPost2010Prop28
280
     0
102
RTVSPost2010PropOp28
 70
     1
102
RTVSPost2010Prop29
280
     1
102
RTVSPost2010PropOp29
 70
     1
102
RTVSPost2010Prop30
280
     1
102
RTVSPost2010PropOp30
 70
     1
102
RTVSPost2010Prop31
280
     0
102
RTVSPost2010PropOp31
 70
     1
102
RTVSPost2010Prop32
280
     0
102
RTVSPost2010PropOp32
 70
     1
102
RTVSPost2010Prop33
280
     0
102
RTVSPost2010PropOp33
 70
     1
102
RTVSPost2010Prop34
280
     0
102
RTVSPost2010PropOp34
 70
     1
102
RTVSPost2010Prop35
280
     0
102
RTVSPost2010PropOp35
 70
     1
102
RTVSPost2010Prop36
280
     0
102
RTVSPost2010PropOp36
 70
     1
102
RTVSPost2010Prop37
 90
       50
102
RTVSPost2010PropOp37
 70
     1
102
RTVSPost2010Prop38
140
0.0
102
RTVSPost2010PropOp38
 70
     1
102
RTVSPost2010Prop39
140
1.0
102
RTVSPost2010PropOp39
 70
     1
102
RTVSPost2010Prop40
 90
        0
102
RTVSPost2010PropOp40
 70
     1
102
RTVSPost2010Prop41ColorIndex
 90
       18
102
RTVSPost2010Prop41ColorRGB
 90
        0
102
RTVSPost2010PropOp41
 70
     1
102
RTVSPost2010Prop42
 90
       50
102
RTVSPost2010PropOp42
 70
     1
102
RTVSPost2010Prop43
 90
        3
102
RTVSPost2010PropOp43
 70
     1
102
RTVSPost2010Prop44ColorIndex
 90
        5
102
RTVSPost2010Prop44ColorRGB
 90
      255
102
RTVSPost2010PropOp44
 70
     1
102
RTVSPost2010Prop45
280
     0
102
RTVSPost2010PropOp45
 70
     1
102
RTVSPost2010Prop46
 90
       50
102
RTVSPost2010PropOp46
 70
     1
102
RTVSPost2010Prop47
 90
       50
102
RTVSPost2010PropOp47
 70
     1
102
RTVSPost2010Prop48
 90
       50
102
RTVSPost2010PropOp48
 70
     1
102
RTVSPost2010Prop49
280
     0
102
RTVSPost2010PropOp49
 70
     1
102
RTVSPost2010Prop50
 90
       50
102
RTVSPost2010PropOp50
 70
     1
102
RTVSPost2010Prop51ColorIndex
 90
      256
102
RTVSPost2010Prop51ColorRGB
 90
-16777216
102
RTVSPost2010PropOp51
 70
     0
102
RTVSPost2010Prop52
140
1.0
102
RTVSPost2010PropOp52
 70
     0
102
RTVSPost2010Prop53
 90
        2
102
RTVSPost2010PropOp53
 70
     1
102
RTVSPost2010Prop54
  1
strokes_ogs.tif
102
RTVSPost2010PropOp54
 70
     1
102
RTVSPost2010Prop55
280
     0
102
RTVSPost2010PropOp55
 70
     1
102
RTVSPost2010Prop56
140
1.0
102
RTVSPost2010PropOp56
 70
     1
102
RTVSPost2010Prop57
140
1.0
102
RTVSPost2010PropOp57
 70
     1
102
RTVSPropertyOp0
 70
     1
102
RTVSPropertyOp1
 70
     1
102
RTVSPropertyOp2
 70
     1
102
RTVSPropertyOp3
 70
     1
102
RTVSPropertyOp4
 70
     1
102
RTVSPropertyOp5
 70
     1
102
RTVSPropertyOp6
 70
     1
102
RTVSPropertyOp7
 70
     1
102
RTVSPropertyOp8
 70
     1
102
RTVSPropertyOp9
 70
     1
102
RTVSPropertyOp10
 70
     1
102
RTVSPropertyOp11
 70
     1
102
RTVSPropertyOp12
 70
     1
102
RTVSPropertyOp13
 70
     1
102
RTVSPropertyOp14
 70
     1
102
RTVSPropertyOp15
 70
     1
102
RTVSPropertyOp16
 70
     1
102
RTVSPropertyOp17
 70
     1
102
RTVSPropertyOp18
 70
     1
102
RTVSPropertyOp19
 70
     1
102
RTVSPropertyOp20
 70
     1
102
RTVSPropertyOp21
 70
     1
102
RTVSPropertyOp22
 70
     1
102
RTVSPropertyOp23
 70
     1
102
RTVSPropertyOp24
 70
     1
102
RTVSPropertyOp25
 70
     1
102
RTVSPropertyOp26
 70
     1
102
RTVSPropertyOp27
 70
     1
102
RTVSPropertyOp28
 70
     1
102
RTVSPropertyOp29
 70
     1
102
RTVSPropertyOp30
 70
     1
102
RTVSPropertyOp31
 70
     1
102
RTVSPropertyOp32
 70
     1
102
RTVSPropertyOp33
 70
     1
102
RTVSPropertyOp34
 70
     1
102
RTVSPropertyOp35
 70
     1
102
RTVSPropertyOp36
 70
     1
102
RTVSPropertyOp37
 70
     1
102
RTVSPropertyOp38
 70
     1
102
RTVSPropertyOp39
 70
     1
102
RTVSPropertyOp40
 70
     1
102
RTVSPropertyOp41
 70
     1
102
RTVSPropertyOp42
 70
     1
102
RTVSPropertyOp43
 70
     1
102
RTVSPropertyOp44
 70
     1
102
RTVSPropertyOp45
 70
     1
102
RTVSPropertyOp46
 70
     1
102
RTVSPropertyOp47
 70
     1
102
RTVSPropertyOp48
 70
     1
102
RTVSPropertyOp49
 70
     1
102
RTVSPropertyOp50
 70
     1
102
RTVSPropertyOp51
 70
     0
102
RTVSPropertyOp52
 70
     0
102
RTVSPropertyOp53
 70
     1
102
RTVSPropertyOp54
 70
     1
102
RTVSPropertyOp55
 70
     1
102
RTVSPropertyOp56
 70
     1
102
RTVSPropertyOp57
 70
     1
102
RTVSPropertyOp58
 70
     1
102
RTVSPropertyOp59
 70
     1
102
RTVSPropertyOp60
 70
     1
102
RTVSPropertyOp61
 70
     1
102
RTVSPropertyOp62
 70
     1
  0
XRECORD
  5
8FF7
102
{ACAD_REACTORS
330
8FF6
102
}
330
8FF6
100
AcDbXrecord
280
     1
102
RTVSPost2010Prop28
280
     0
102
RTVSPost2010PropOp28
 70
     1
102
RTVSPost2010Prop29
280
     1
102
RTVSPost2010PropOp29
 70
     1
102
RTVSPost2010Prop30
280
     1
102
RTVSPost2010PropOp30
 70
     1
102
RTVSPost2010Prop31
280
     0
102
RTVSPost2010PropOp31
 70
     1
102
RTVSPost2010Prop32
280
     0
102
RTVSPost2010PropOp32
 70
     1
102
RTVSPost2010Prop33
280
     0
102
RTVSPost2010PropOp33
 70
     1
102
RTVSPost2010Prop34
280
     0
102
RTVSPost2010PropOp34
 70
     1
102
RTVSPost2010Prop35
280
     0
102
RTVSPost2010PropOp35
 70
     1
102
RTVSPost2010Prop36
280
     0
102
RTVSPost2010PropOp36
 70
     1
102
RTVSPost2010Prop37
 90
       50
102
RTVSPost2010PropOp37
 70
     1
102
RTVSPost2010Prop38
140
0.0
102
RTVSPost2010PropOp38
 70
     1
102
RTVSPost2010Prop39
140
1.0
102
RTVSPost2010PropOp39
 70
     1
102
RTVSPost2010Prop40
 90
        0
102
RTVSPost2010PropOp40
 70
     1
102
RTVSPost2010Prop41ColorIndex
 90
       18
102
RTVSPost2010Prop41ColorRGB
 90
        0
102
RTVSPost2010PropOp41
 70
     1
102
RTVSPost2010Prop42
 90
       50
102
RTVSPost2010PropOp42
 70
     1
102
RTVSPost2010Prop43
 90
        3
102
RTVSPost2010PropOp43
 70
     1
102
RTVSPost2010Prop44ColorIndex
 90
        5
102
RTVSPost2010Prop44ColorRGB
 90
      255
102
RTVSPost2010PropOp44
 70
     1
102
RTVSPost2010Prop45
280
     0
102
RTVSPost2010PropOp45
 70
     1
102
RTVSPost2010Prop46
 90
       50
102
RTVSPost2010PropOp46
 70
     1
102
RTVSPost2010Prop47
 90
       50
102
RTVSPost2010PropOp47
 70
     1
102
RTVSPost2010Prop48
 90
       50
102
RTVSPost2010PropOp48
 70
     1
102
RTVSPost2010Prop49
280
     0
102
RTVSPost2010PropOp49
 70
     1
102
RTVSPost2010Prop50
 90
       50
102
RTVSPost2010PropOp50
 70
     1
102
RTVSPost2010Prop51ColorIndex
 90
      256
102
RTVSPost2010Prop51ColorRGB
 90
-16777216
102
RTVSPost2010PropOp51
 70
     0
102
RTVSPost2010Prop52
140
1.0
102
RTVSPost2010PropOp52
 70
     0
102
RTVSPost2010Prop53
 90
        2
102
RTVSPost2010PropOp53
 70
     1
102
RTVSPost2010Prop54
  1
strokes_ogs.tif
102
RTVSPost2010PropOp54
 70
     1
102
RTVSPost2010Prop55
280
     0
102
RTVSPost2010PropOp55
 70
     1
102
RTVSPost2010Prop56
140
1.0
102
RTVSPost2010PropOp56
 70
     1
102
RTVSPost2010Prop57
140
1.0
102
RTVSPost2010PropOp57
 70
     1
102
RTVSPropertyOp0
 70
     1
102
RTVSPropertyOp1
 70
     1
102
RTVSPropertyOp2
 70
     1
102
RTVSPropertyOp3
 70
     1
102
RTVSPropertyOp4
 70
     1
102
RTVSPropertyOp5
 70
     1
102
RTVSPropertyOp6
 70
     1
102
RTVSPropertyOp7
 70
     1
102
RTVSPropertyOp8
 70
     1
102
RTVSPropertyOp9
 70
     1
102
RTVSPropertyOp10
 70
     1
102
RTVSPropertyOp11
 70
     1
102
RTVSPropertyOp12
 70
     1
102
RTVSPropertyOp13
 70
     1
102
RTVSPropertyOp14
 70
     1
102
RTVSPropertyOp15
 70
     1
102
RTVSPropertyOp16
 70
     1
102
RTVSPropertyOp17
 70
     1
102
RTVSPropertyOp18
 70
     1
102
RTVSPropertyOp19
 70
     1
102
RTVSPropertyOp20
 70
     1
102
RTVSPropertyOp21
 70
     1
102
RTVSPropertyOp22
 70
     1
102
RTVSPropertyOp23
 70
     1
102
RTVSPropertyOp24
 70
     1
102
RTVSPropertyOp25
 70
     1
102
RTVSPropertyOp26
 70
     1
102
RTVSPropertyOp27
 70
     1
102
RTVSPropertyOp28
 70
     1
102
RTVSPropertyOp29
 70
     1
102
RTVSPropertyOp30
 70
     1
102
RTVSPropertyOp31
 70
     1
102
RTVSPropertyOp32
 70
     1
102
RTVSPropertyOp33
 70
     1
102
RTVSPropertyOp34
 70
     1
102
RTVSPropertyOp35
 70
     1
102
RTVSPropertyOp36
 70
     1
102
RTVSPropertyOp37
 70
     1
102
RTVSPropertyOp38
 70
     1
102
RTVSPropertyOp39
 70
     1
102
RTVSPropertyOp40
 70
     1
102
RTVSPropertyOp41
 70
     1
102
RTVSPropertyOp42
 70
     1
102
RTVSPropertyOp43
 70
     1
102
RTVSPropertyOp44
 70
     1
102
RTVSPropertyOp45
 70
     1
102
RTVSPropertyOp46
 70
     1
102
RTVSPropertyOp47
 70
     1
102
RTVSPropertyOp48
 70
     1
102
RTVSPropertyOp49
 70
     1
102
RTVSPropertyOp50
 70
     1
102
RTVSPropertyOp51
 70
     0
102
RTVSPropertyOp52
 70
     0
102
RTVSPropertyOp53
 70
     1
102
RTVSPropertyOp54
 70
     1
102
RTVSPropertyOp55
 70
     1
102
RTVSPropertyOp56
 70
     1
102
RTVSPropertyOp57
 70
     1
102
RTVSPropertyOp58
 70
     1
102
RTVSPropertyOp59
 70
     1
102
RTVSPropertyOp60
 70
     1
102
RTVSPropertyOp61
 70
     1
102
RTVSPropertyOp62
 70
     1
  0
XRECORD
  5
9007
102
{ACAD_REACTORS
330
9006
102
}
330
9006
100
AcDbXrecord
280
     1
102
RTVSPost2010Prop28
280
     0
102
RTVSPost2010PropOp28
 70
     1
102
RTVSPost2010Prop29
280
     1
102
RTVSPost2010PropOp29
 70
     1
102
RTVSPost2010Prop30
280
     1
102
RTVSPost2010PropOp30
 70
     1
102
RTVSPost2010Prop31
280
     0
102
RTVSPost2010PropOp31
 70
     1
102
RTVSPost2010Prop32
280
     0
102
RTVSPost2010PropOp32
 70
     1
102
RTVSPost2010Prop33
280
     0
102
RTVSPost2010PropOp33
 70
     1
102
RTVSPost2010Prop34
280
     0
102
RTVSPost2010PropOp34
 70
     1
102
RTVSPost2010Prop35
280
     0
102
RTVSPost2010PropOp35
 70
     1
102
RTVSPost2010Prop36
280
     0
102
RTVSPost2010PropOp36
 70
     1
102
RTVSPost2010Prop37
 90
       50
102
RTVSPost2010PropOp37
 70
     1
102
RTVSPost2010Prop38
140
0.0
102
RTVSPost2010PropOp38
 70
     1
102
RTVSPost2010Prop39
140
1.0
102
RTVSPost2010PropOp39
 70
     1
102
RTVSPost2010Prop40
 90
        0
102
RTVSPost2010PropOp40
 70
     1
102
RTVSPost2010Prop41ColorIndex
 90
       18
102
RTVSPost2010Prop41ColorRGB
 90
        0
102
RTVSPost2010PropOp41
 70
     1
102
RTVSPost2010Prop42
 90
       50
102
RTVSPost2010PropOp42
 70
     1
102
RTVSPost2010Prop43
 90
        3
102
RTVSPost2010PropOp43
 70
     1
102
RTVSPost2010Prop44ColorIndex
 90
        5
102
RTVSPost2010Prop44ColorRGB
 90
      255
102
RTVSPost2010PropOp44
 70
     1
102
RTVSPost2010Prop45
280
     0
102
RTVSPost2010PropOp45
 70
     1
102
RTVSPost2010Prop46
 90
       50
102
RTVSPost2010PropOp46
 70
     1
102
RTVSPost2010Prop47
 90
       50
102
RTVSPost2010PropOp47
 70
     1
102
RTVSPost2010Prop48
 90
       50
102
RTVSPost2010PropOp48
 70
     1
102
RTVSPost2010Prop49
280
     0
102
RTVSPost2010PropOp49
 70
     1
102
RTVSPost2010Prop50
 90
       50
102
RTVSPost2010PropOp50
 70
     1
102
RTVSPost2010Prop51ColorIndex
 90
      256
102
RTVSPost2010Prop51ColorRGB
 90
-16777216
102
RTVSPost2010PropOp51
 70
     0
102
RTVSPost2010Prop52
140
1.0
102
RTVSPost2010PropOp52
 70
     0
102
RTVSPost2010Prop53
 90
        2
102
RTVSPost2010PropOp53
 70
     1
102
RTVSPost2010Prop54
  1
strokes_ogs.tif
102
RTVSPost2010PropOp54
 70
     1
102
RTVSPost2010Prop55
280
     0
102
RTVSPost2010PropOp55
 70
     1
102
RTVSPost2010Prop56
140
1.0
102
RTVSPost2010PropOp56
 70
     1
102
RTVSPost2010Prop57
140
1.0
102
RTVSPost2010PropOp57
 70
     1
102
RTVSPropertyOp0
 70
     0
102
RTVSPropertyOp1
 70
     0
102
RTVSPropertyOp2
 70
     0
102
RTVSPropertyOp3
 70
     0
102
RTVSPropertyOp4
 70
     0
102
RTVSPropertyOp5
 70
     0
102
RTVSPropertyOp6
 70
     0
102
RTVSPropertyOp7
 70
     0
102
RTVSPropertyOp8
 70
     0
102
RTVSPropertyOp9
 70
     0
102
RTVSPropertyOp10
 70
     0
102
RTVSPropertyOp11
 70
     0
102
RTVSPropertyOp12
 70
     0
102
RTVSPropertyOp13
 70
     0
102
RTVSPropertyOp14
 70
     2
102
RTVSPropertyOp15
 70
     0
102
RTVSPropertyOp16
 70
     0
102
RTVSPropertyOp17
 70
     0
102
RTVSPropertyOp18
 70
     0
102
RTVSPropertyOp19
 70
     0
102
RTVSPropertyOp20
 70
     0
102
RTVSPropertyOp21
 70
     0
102
RTVSPropertyOp22
 70
     0
102
RTVSPropertyOp23
 70
     0
102
RTVSPropertyOp24
 70
     0
102
RTVSPropertyOp25
 70
     0
102
RTVSPropertyOp26
 70
     0
102
RTVSPropertyOp27
 70
     0
102
RTVSPropertyOp28
 70
     1
102
RTVSPropertyOp29
 70
     1
102
RTVSPropertyOp30
 70
     1
102
RTVSPropertyOp31
 70
     1
102
RTVSPropertyOp32
 70
     1
102
RTVSPropertyOp33
 70
     1
102
RTVSPropertyOp34
 70
     1
102
RTVSPropertyOp35
 70
     1
102
RTVSPropertyOp36
 70
     1
102
RTVSPropertyOp37
 70
     1
102
RTVSPropertyOp38
 70
     1
102
RTVSPropertyOp39
 70
     1
102
RTVSPropertyOp40
 70
     1
102
RTVSPropertyOp41
 70
     1
102
RTVSPropertyOp42
 70
     1
102
RTVSPropertyOp43
 70
     1
102
RTVSPropertyOp44
 70
     1
102
RTVSPropertyOp45
 70
     1
102
RTVSPropertyOp46
 70
     1
102
RTVSPropertyOp47
 70
     1
102
RTVSPropertyOp48
 70
     1
102
RTVSPropertyOp49
 70
     1
102
RTVSPropertyOp50
 70
     1
102
RTVSPropertyOp51
 70
     0
102
RTVSPropertyOp52
 70
     0
102
RTVSPropertyOp53
 70
     1
102
RTVSPropertyOp54
 70
     1
102
RTVSPropertyOp55
 70
     1
102
RTVSPropertyOp56
 70
     1
102
RTVSPropertyOp57
 70
     1
102
RTVSPropertyOp58
 70
     1
102
RTVSPropertyOp59
 70
     1
102
RTVSPropertyOp60
 70
     1
102
RTVSPropertyOp61
 70
     1
102
RTVSPropertyOp62
 70
     1
  0
XRECORD
  5
8FFF
102
{ACAD_REACTORS
330
8FFE
102
}
330
8FFE
100
AcDbXrecord
280
     1
102
RTVSPost2010Prop28
280
     0
102
RTVSPost2010PropOp28
 70
     1
102
RTVSPost2010Prop29
280
     1
102
RTVSPost2010PropOp29
 70
     1
102
RTVSPost2010Prop30
280
     1
102
RTVSPost2010PropOp30
 70
     1
102
RTVSPost2010Prop31
280
     0
102
RTVSPost2010PropOp31
 70
     1
102
RTVSPost2010Prop32
280
     0
102
RTVSPost2010PropOp32
 70
     1
102
RTVSPost2010Prop33
280
     0
102
RTVSPost2010PropOp33
 70
     1
102
RTVSPost2010Prop34
280
     0
102
RTVSPost2010PropOp34
 70
     1
102
RTVSPost2010Prop35
280
     0
102
RTVSPost2010PropOp35
 70
     1
102
RTVSPost2010Prop36
280
     0
102
RTVSPost2010PropOp36
 70
     1
102
RTVSPost2010Prop37
 90
       50
102
RTVSPost2010PropOp37
 70
     1
102
RTVSPost2010Prop38
140
0.0
102
RTVSPost2010PropOp38
 70
     1
102
RTVSPost2010Prop39
140
1.0
102
RTVSPost2010PropOp39
 70
     1
102
RTVSPost2010Prop40
 90
        0
102
RTVSPost2010PropOp40
 70
     1
102
RTVSPost2010Prop41ColorIndex
 90
       18
102
RTVSPost2010Prop41ColorRGB
 90
        0
102
RTVSPost2010PropOp41
 70
     1
102
RTVSPost2010Prop42
 90
       50
102
RTVSPost2010PropOp42
 70
     1
102
RTVSPost2010Prop43
 90
        3
102
RTVSPost2010PropOp43
 70
     1
102
RTVSPost2010Prop44ColorIndex
 90
        5
102
RTVSPost2010Prop44ColorRGB
 90
      255
102
RTVSPost2010PropOp44
 70
     1
102
RTVSPost2010Prop45
280
     0
102
RTVSPost2010PropOp45
 70
     1
102
RTVSPost2010Prop46
 90
       50
102
RTVSPost2010PropOp46
 70
     1
102
RTVSPost2010Prop47
 90
       50
102
RTVSPost2010PropOp47
 70
     1
102
RTVSPost2010Prop48
 90
       50
102
RTVSPost2010PropOp48
 70
     1
102
RTVSPost2010Prop49
280
     0
102
RTVSPost2010PropOp49
 70
     1
102
RTVSPost2010Prop50
 90
       50
102
RTVSPost2010PropOp50
 70
     1
102
RTVSPost2010Prop51ColorIndex
 90
      256
102
RTVSPost2010Prop51ColorRGB
 90
-16777216
102
RTVSPost2010PropOp51
 70
     0
102
RTVSPost2010Prop52
140
1.0
102
RTVSPost2010PropOp52
 70
     0
102
RTVSPost2010Prop53
 90
        2
102
RTVSPost2010PropOp53
 70
     1
102
RTVSPost2010Prop54
  1
strokes_ogs.tif
102
RTVSPost2010PropOp54
 70
     1
102
RTVSPost2010Prop55
280
     0
102
RTVSPost2010PropOp55
 70
     1
102
RTVSPost2010Prop56
140
1.0
102
RTVSPost2010PropOp56
 70
     1
102
RTVSPost2010Prop57
140
1.0
102
RTVSPost2010PropOp57
 70
     1
102
RTVSPropertyOp0
 70
     1
102
RTVSPropertyOp1
 70
     1
102
RTVSPropertyOp2
 70
     1
102
RTVSPropertyOp3
 70
     1
102
RTVSPropertyOp4
 70
     1
102
RTVSPropertyOp5
 70
     1
102
RTVSPropertyOp6
 70
     1
102
RTVSPropertyOp7
 70
     1
102
RTVSPropertyOp8
 70
     1
102
RTVSPropertyOp9
 70
     1
102
RTVSPropertyOp10
 70
     1
102
RTVSPropertyOp11
 70
     1
102
RTVSPropertyOp12
 70
     1
102
RTVSPropertyOp13
 70
     1
102
RTVSPropertyOp14
 70
     1
102
RTVSPropertyOp15
 70
     1
102
RTVSPropertyOp16
 70
     1
102
RTVSPropertyOp17
 70
     1
102
RTVSPropertyOp18
 70
     1
102
RTVSPropertyOp19
 70
     1
102
RTVSPropertyOp20
 70
     1
102
RTVSPropertyOp21
 70
     1
102
RTVSPropertyOp22
 70
     1
102
RTVSPropertyOp23
 70
     1
102
RTVSPropertyOp24
 70
     1
102
RTVSPropertyOp25
 70
     1
102
RTVSPropertyOp26
 70
     1
102
RTVSPropertyOp27
 70
     1
102
RTVSPropertyOp28
 70
     1
102
RTVSPropertyOp29
 70
     1
102
RTVSPropertyOp30
 70
     1
102
RTVSPropertyOp31
 70
     1
102
RTVSPropertyOp32
 70
     1
102
RTVSPropertyOp33
 70
     1
102
RTVSPropertyOp34
 70
     1
102
RTVSPropertyOp35
 70
     1
102
RTVSPropertyOp36
 70
     1
102
RTVSPropertyOp37
 70
     1
102
RTVSPropertyOp38
 70
     1
102
RTVSPropertyOp39
 70
     1
102
RTVSPropertyOp40
 70
     1
102
RTVSPropertyOp41
 70
     1
102
RTVSPropertyOp42
 70
     1
102
RTVSPropertyOp43
 70
     1
102
RTVSPropertyOp44
 70
     1
102
RTVSPropertyOp45
 70
     1
102
RTVSPropertyOp46
 70
     1
102
RTVSPropertyOp47
 70
     1
102
RTVSPropertyOp48
 70
     1
102
RTVSPropertyOp49
 70
     1
102
RTVSPropertyOp50
 70
     1
102
RTVSPropertyOp51
 70
     0
102
RTVSPropertyOp52
 70
     0
102
RTVSPropertyOp53
 70
     1
102
RTVSPropertyOp54
 70
     1
102
RTVSPropertyOp55
 70
     1
102
RTVSPropertyOp56
 70
     1
102
RTVSPropertyOp57
 70
     1
102
RTVSPropertyOp58
 70
     1
102
RTVSPropertyOp59
 70
     1
102
RTVSPropertyOp60
 70
     1
102
RTVSPropertyOp61
 70
     1
102
RTVSPropertyOp62
 70
     1
  0
XRECORD
  5
8FE9
102
{ACAD_REACTORS
330
8FE8
102
}
330
8FE8
100
AcDbXrecord
280
     1
102
RTVSPost2010Prop28
280
     0
102
RTVSPost2010PropOp28
 70
     1
102
RTVSPost2010Prop29
280
     1
102
RTVSPost2010PropOp29
 70
     1
102
RTVSPost2010Prop30
280
     1
102
RTVSPost2010PropOp30
 70
     1
102
RTVSPost2010Prop31
280
     0
102
RTVSPost2010PropOp31
 70
     1
102
RTVSPost2010Prop32
280
     0
102
RTVSPost2010PropOp32
 70
     1
102
RTVSPost2010Prop33
280
     0
102
RTVSPost2010PropOp33
 70
     1
102
RTVSPost2010Prop34
280
     0
102
RTVSPost2010PropOp34
 70
     1
102
RTVSPost2010Prop35
280
     0
102
RTVSPost2010PropOp35
 70
     1
102
RTVSPost2010Prop36
280
     0
102
RTVSPost2010PropOp36
 70
     1
102
RTVSPost2010Prop37
 90
       50
102
RTVSPost2010PropOp37
 70
     1
102
RTVSPost2010Prop38
140
0.0
102
RTVSPost2010PropOp38
 70
     1
102
RTVSPost2010Prop39
140
1.0
102
RTVSPost2010PropOp39
 70
     1
102
RTVSPost2010Prop40
 90
        0
102
RTVSPost2010PropOp40
 70
     1
102
RTVSPost2010Prop41ColorIndex
 90
       18
102
RTVSPost2010Prop41ColorRGB
 90
        0
102
RTVSPost2010PropOp41
 70
     1
102
RTVSPost2010Prop42
 90
       50
102
RTVSPost2010PropOp42
 70
     1
102
RTVSPost2010Prop43
 90
        3
102
RTVSPost2010PropOp43
 70
     1
102
RTVSPost2010Prop44ColorIndex
 90
        5
102
RTVSPost2010Prop44ColorRGB
 90
      255
102
RTVSPost2010PropOp44
 70
     1
102
RTVSPost2010Prop45
280
     0
102
RTVSPost2010PropOp45
 70
     1
102
RTVSPost2010Prop46
 90
       50
102
RTVSPost2010PropOp46
 70
     1
102
RTVSPost2010Prop47
 90
       50
102
RTVSPost2010PropOp47
 70
     1
102
RTVSPost2010Prop48
 90
       50
102
RTVSPost2010PropOp48
 70
     1
102
RTVSPost2010Prop49
280
     0
102
RTVSPost2010PropOp49
 70
     1
102
RTVSPost2010Prop50
 90
       50
102
RTVSPost2010PropOp50
 70
     1
102
RTVSPost2010Prop51ColorIndex
 90
      256
102
RTVSPost2010Prop51ColorRGB
 90
-16777216
102
RTVSPost2010PropOp51
 70
     0
102
RTVSPost2010Prop52
140
1.0
102
RTVSPost2010PropOp52
 70
     0
102
RTVSPost2010Prop53
 90
        2
102
RTVSPost2010PropOp53
 70
     1
102
RTVSPost2010Prop54
  1
strokes_ogs.tif
102
RTVSPost2010PropOp54
 70
     1
102
RTVSPost2010Prop55
280
     0
102
RTVSPost2010PropOp55
 70
     1
102
RTVSPost2010Prop56
140
1.0
102
RTVSPost2010PropOp56
 70
     1
102
RTVSPost2010Prop57
140
1.0
102
RTVSPost2010PropOp57
 70
     1
102
RTVSPropertyOp0
 70
     1
102
RTVSPropertyOp1
 70
     1
102
RTVSPropertyOp2
 70
     1
102
RTVSPropertyOp3
 70
     1
102
RTVSPropertyOp4
 70
     1
102
RTVSPropertyOp5
 70
     1
102
RTVSPropertyOp6
 70
     1
102
RTVSPropertyOp7
 70
     1
102
RTVSPropertyOp8
 70
     1
102
RTVSPropertyOp9
 70
     1
102
RTVSPropertyOp10
 70
     1
102
RTVSPropertyOp11
 70
     1
102
RTVSPropertyOp12
 70
     1
102
RTVSPropertyOp13
 70
     1
102
RTVSPropertyOp14
 70
     1
102
RTVSPropertyOp15
 70
     1
102
RTVSPropertyOp16
 70
     1
102
RTVSPropertyOp17
 70
     1
102
RTVSPropertyOp18
 70
     1
102
RTVSPropertyOp19
 70
     1
102
RTVSPropertyOp20
 70
     1
102
RTVSPropertyOp21
 70
     1
102
RTVSPropertyOp22
 70
     1
102
RTVSPropertyOp23
 70
     1
102
RTVSPropertyOp24
 70
     1
102
RTVSPropertyOp25
 70
     1
102
RTVSPropertyOp26
 70
     1
102
RTVSPropertyOp27
 70
     1
102
RTVSPropertyOp28
 70
     1
102
RTVSPropertyOp29
 70
     1
102
RTVSPropertyOp30
 70
     1
102
RTVSPropertyOp31
 70
     1
102
RTVSPropertyOp32
 70
     1
102
RTVSPropertyOp33
 70
     1
102
RTVSPropertyOp34
 70
     1
102
RTVSPropertyOp35
 70
     1
102
RTVSPropertyOp36
 70
     1
102
RTVSPropertyOp37
 70
     1
102
RTVSPropertyOp38
 70
     1
102
RTVSPropertyOp39
 70
     1
102
RTVSPropertyOp40
 70
     1
102
RTVSPropertyOp41
 70
     1
102
RTVSPropertyOp42
 70
     1
102
RTVSPropertyOp43
 70
     1
102
RTVSPropertyOp44
 70
     1
102
RTVSPropertyOp45
 70
     1
102
RTVSPropertyOp46
 70
     1
102
RTVSPropertyOp47
 70
     1
102
RTVSPropertyOp48
 70
     1
102
RTVSPropertyOp49
 70
     1
102
RTVSPropertyOp50
 70
     1
102
RTVSPropertyOp51
 70
     0
102
RTVSPropertyOp52
 70
     0
102
RTVSPropertyOp53
 70
     1
102
RTVSPropertyOp54
 70
     1
102
RTVSPropertyOp55
 70
     1
102
RTVSPropertyOp56
 70
     1
102
RTVSPropertyOp57
 70
     1
102
RTVSPropertyOp58
 70
     1
102
RTVSPropertyOp59
 70
     1
102
RTVSPropertyOp60
 70
     1
102
RTVSPropertyOp61
 70
     1
102
RTVSPropertyOp62
 70
     1
  0
XRECORD
  5
8FEB
102
{ACAD_REACTORS
330
8FEA
102
}
330
8FEA
100
AcDbXrecord
280
     1
102
RTVSPost2010Prop28
280
     0
102
RTVSPost2010PropOp28
 70
     1
102
RTVSPost2010Prop29
280
     1
102
RTVSPost2010PropOp29
 70
     1
102
RTVSPost2010Prop30
280
     1
102
RTVSPost2010PropOp30
 70
     1
102
RTVSPost2010Prop31
280
     0
102
RTVSPost2010PropOp31
 70
     1
102
RTVSPost2010Prop32
280
     0
102
RTVSPost2010PropOp32
 70
     1
102
RTVSPost2010Prop33
280
     0
102
RTVSPost2010PropOp33
 70
     1
102
RTVSPost2010Prop34
280
     0
102
RTVSPost2010PropOp34
 70
     1
102
RTVSPost2010Prop35
280
     0
102
RTVSPost2010PropOp35
 70
     1
102
RTVSPost2010Prop36
280
     0
102
RTVSPost2010PropOp36
 70
     1
102
RTVSPost2010Prop37
 90
       50
102
RTVSPost2010PropOp37
 70
     1
102
RTVSPost2010Prop38
140
0.0
102
RTVSPost2010PropOp38
 70
     1
102
RTVSPost2010Prop39
140
1.0
102
RTVSPost2010PropOp39
 70
     1
102
RTVSPost2010Prop40
 90
        0
102
RTVSPost2010PropOp40
 70
     1
102
RTVSPost2010Prop41ColorIndex
 90
       18
102
RTVSPost2010Prop41ColorRGB
 90
        0
102
RTVSPost2010PropOp41
 70
     1
102
RTVSPost2010Prop42
 90
       50
102
RTVSPost2010PropOp42
 70
     1
102
RTVSPost2010Prop43
 90
        3
102
RTVSPost2010PropOp43
 70
     1
102
RTVSPost2010Prop44ColorIndex
 90
        5
102
RTVSPost2010Prop44ColorRGB
 90
      255
102
RTVSPost2010PropOp44
 70
     1
102
RTVSPost2010Prop45
280
     0
102
RTVSPost2010PropOp45
 70
     1
102
RTVSPost2010Prop46
 90
       50
102
RTVSPost2010PropOp46
 70
     1
102
RTVSPost2010Prop47
 90
       50
102
RTVSPost2010PropOp47
 70
     1
102
RTVSPost2010Prop48
 90
       50
102
RTVSPost2010PropOp48
 70
     1
102
RTVSPost2010Prop49
280
     0
102
RTVSPost2010PropOp49
 70
     1
102
RTVSPost2010Prop50
 90
       50
102
RTVSPost2010PropOp50
 70
     1
102
RTVSPost2010Prop51ColorIndex
 90
      256
102
RTVSPost2010Prop51ColorRGB
 90
-16777216
102
RTVSPost2010PropOp51
 70
     0
102
RTVSPost2010Prop52
140
1.0
102
RTVSPost2010PropOp52
 70
     0
102
RTVSPost2010Prop53
 90
        2
102
RTVSPost2010PropOp53
 70
     1
102
RTVSPost2010Prop54
  1
strokes_ogs.tif
102
RTVSPost2010PropOp54
 70
     1
102
RTVSPost2010Prop55
280
     0
102
RTVSPost2010PropOp55
 70
     1
102
RTVSPost2010Prop56
140
1.0
102
RTVSPost2010PropOp56
 70
     1
102
RTVSPost2010Prop57
140
1.0
102
RTVSPost2010PropOp57
 70
     1
102
RTVSPropertyOp0
 70
     1
102
RTVSPropertyOp1
 70
     1
102
RTVSPropertyOp2
 70
     1
102
RTVSPropertyOp3
 70
     1
102
RTVSPropertyOp4
 70
     1
102
RTVSPropertyOp5
 70
     1
102
RTVSPropertyOp6
 70
     1
102
RTVSPropertyOp7
 70
     1
102
RTVSPropertyOp8
 70
     1
102
RTVSPropertyOp9
 70
     1
102
RTVSPropertyOp10
 70
     1
102
RTVSPropertyOp11
 70
     1
102
RTVSPropertyOp12
 70
     1
102
RTVSPropertyOp13
 70
     1
102
RTVSPropertyOp14
 70
     1
102
RTVSPropertyOp15
 70
     1
102
RTVSPropertyOp16
 70
     1
102
RTVSPropertyOp17
 70
     1
102
RTVSPropertyOp18
 70
     1
102
RTVSPropertyOp19
 70
     1
102
RTVSPropertyOp20
 70
     1
102
RTVSPropertyOp21
 70
     1
102
RTVSPropertyOp22
 70
     1
102
RTVSPropertyOp23
 70
     1
102
RTVSPropertyOp24
 70
     1
102
RTVSPropertyOp25
 70
     1
102
RTVSPropertyOp26
 70
     1
102
RTVSPropertyOp27
 70
     1
102
RTVSPropertyOp28
 70
     1
102
RTVSPropertyOp29
 70
     1
102
RTVSPropertyOp30
 70
     1
102
RTVSPropertyOp31
 70
     1
102
RTVSPropertyOp32
 70
     1
102
RTVSPropertyOp33
 70
     1
102
RTVSPropertyOp34
 70
     1
102
RTVSPropertyOp35
 70
     1
102
RTVSPropertyOp36
 70
     1
102
RTVSPropertyOp37
 70
     1
102
RTVSPropertyOp38
 70
     1
102
RTVSPropertyOp39
 70
     1
102
RTVSPropertyOp40
 70
     1
102
RTVSPropertyOp41
 70
     1
102
RTVSPropertyOp42
 70
     1
102
RTVSPropertyOp43
 70
     1
102
RTVSPropertyOp44
 70
     1
102
RTVSPropertyOp45
 70
     1
102
RTVSPropertyOp46
 70
     1
102
RTVSPropertyOp47
 70
     1
102
RTVSPropertyOp48
 70
     1
102
RTVSPropertyOp49
 70
     1
102
RTVSPropertyOp50
 70
     1
102
RTVSPropertyOp51
 70
     0
102
RTVSPropertyOp52
 70
     0
102
RTVSPropertyOp53
 70
     1
102
RTVSPropertyOp54
 70
     1
102
RTVSPropertyOp55
 70
     1
102
RTVSPropertyOp56
 70
     1
102
RTVSPropertyOp57
 70
     1
102
RTVSPropertyOp58
 70
     1
102
RTVSPropertyOp59
 70
     1
102
RTVSPropertyOp60
 70
     1
102
RTVSPropertyOp61
 70
     1
102
RTVSPropertyOp62
 70
     1
  0
XRECORD
  5
8FED
102
{ACAD_REACTORS
330
8FEC
102
}
330
8FEC
100
AcDbXrecord
280
     1
102
RTVSPost2010Prop28
280
     0
102
RTVSPost2010PropOp28
 70
     1
102
RTVSPost2010Prop29
280
     1
102
RTVSPost2010PropOp29
 70
     1
102
RTVSPost2010Prop30
280
     1
102
RTVSPost2010PropOp30
 70
     1
102
RTVSPost2010Prop31
280
     0
102
RTVSPost2010PropOp31
 70
     1
102
RTVSPost2010Prop32
280
     0
102
RTVSPost2010PropOp32
 70
     1
102
RTVSPost2010Prop33
280
     0
102
RTVSPost2010PropOp33
 70
     1
102
RTVSPost2010Prop34
280
     0
102
RTVSPost2010PropOp34
 70
     1
102
RTVSPost2010Prop35
280
     0
102
RTVSPost2010PropOp35
 70
     1
102
RTVSPost2010Prop36
280
     0
102
RTVSPost2010PropOp36
 70
     1
102
RTVSPost2010Prop37
 90
       50
102
RTVSPost2010PropOp37
 70
     1
102
RTVSPost2010Prop38
140
0.0
102
RTVSPost2010PropOp38
 70
     1
102
RTVSPost2010Prop39
140
1.0
102
RTVSPost2010PropOp39
 70
     1
102
RTVSPost2010Prop40
 90
        0
102
RTVSPost2010PropOp40
 70
     1
102
RTVSPost2010Prop41ColorIndex
 90
       18
102
RTVSPost2010Prop41ColorRGB
 90
        0
102
RTVSPost2010PropOp41
 70
     1
102
RTVSPost2010Prop42
 90
       50
102
RTVSPost2010PropOp42
 70
     1
102
RTVSPost2010Prop43
 90
        3
102
RTVSPost2010PropOp43
 70
     1
102
RTVSPost2010Prop44ColorIndex
 90
        5
102
RTVSPost2010Prop44ColorRGB
 90
      255
102
RTVSPost2010PropOp44
 70
     1
102
RTVSPost2010Prop45
280
     0
102
RTVSPost2010PropOp45
 70
     1
102
RTVSPost2010Prop46
 90
       50
102
RTVSPost2010PropOp46
 70
     1
102
RTVSPost2010Prop47
 90
       50
102
RTVSPost2010PropOp47
 70
     1
102
RTVSPost2010Prop48
 90
       50
102
RTVSPost2010PropOp48
 70
     1
102
RTVSPost2010Prop49
280
     0
102
RTVSPost2010PropOp49
 70
     1
102
RTVSPost2010Prop50
 90
       50
102
RTVSPost2010PropOp50
 70
     1
102
RTVSPost2010Prop51ColorIndex
 90
      256
102
RTVSPost2010Prop51ColorRGB
 90
-16777216
102
RTVSPost2010PropOp51
 70
     0
102
RTVSPost2010Prop52
140
1.0
102
RTVSPost2010PropOp52
 70
     0
102
RTVSPost2010Prop53
 90
        2
102
RTVSPost2010PropOp53
 70
     1
102
RTVSPost2010Prop54
  1
strokes_ogs.tif
102
RTVSPost2010PropOp54
 70
     1
102
RTVSPost2010Prop55
280
     0
102
RTVSPost2010PropOp55
 70
     1
102
RTVSPost2010Prop56
140
1.0
102
RTVSPost2010PropOp56
 70
     1
102
RTVSPost2010Prop57
140
1.0
102
RTVSPost2010PropOp57
 70
     1
102
RTVSPropertyOp0
 70
     1
102
RTVSPropertyOp1
 70
     1
102
RTVSPropertyOp2
 70
     1
102
RTVSPropertyOp3
 70
     1
102
RTVSPropertyOp4
 70
     1
102
RTVSPropertyOp5
 70
     1
102
RTVSPropertyOp6
 70
     1
102
RTVSPropertyOp7
 70
     1
102
RTVSPropertyOp8
 70
     1
102
RTVSPropertyOp9
 70
     1
102
RTVSPropertyOp10
 70
     1
102
RTVSPropertyOp11
 70
     1
102
RTVSPropertyOp12
 70
     1
102
RTVSPropertyOp13
 70
     1
102
RTVSPropertyOp14
 70
     1
102
RTVSPropertyOp15
 70
     1
102
RTVSPropertyOp16
 70
     1
102
RTVSPropertyOp17
 70
     1
102
RTVSPropertyOp18
 70
     1
102
RTVSPropertyOp19
 70
     1
102
RTVSPropertyOp20
 70
     1
102
RTVSPropertyOp21
 70
     1
102
RTVSPropertyOp22
 70
     1
102
RTVSPropertyOp23
 70
     1
102
RTVSPropertyOp24
 70
     1
102
RTVSPropertyOp25
 70
     1
102
RTVSPropertyOp26
 70
     1
102
RTVSPropertyOp27
 70
     1
102
RTVSPropertyOp28
 70
     1
102
RTVSPropertyOp29
 70
     1
102
RTVSPropertyOp30
 70
     1
102
RTVSPropertyOp31
 70
     1
102
RTVSPropertyOp32
 70
     1
102
RTVSPropertyOp33
 70
     1
102
RTVSPropertyOp34
 70
     1
102
RTVSPropertyOp35
 70
     1
102
RTVSPropertyOp36
 70
     1
102
RTVSPropertyOp37
 70
     1
102
RTVSPropertyOp38
 70
     1
102
RTVSPropertyOp39
 70
     1
102
RTVSPropertyOp40
 70
     1
102
RTVSPropertyOp41
 70
     1
102
RTVSPropertyOp42
 70
     1
102
RTVSPropertyOp43
 70
     1
102
RTVSPropertyOp44
 70
     1
102
RTVSPropertyOp45
 70
     1
102
RTVSPropertyOp46
 70
     1
102
RTVSPropertyOp47
 70
     1
102
RTVSPropertyOp48
 70
     1
102
RTVSPropertyOp49
 70
     1
102
RTVSPropertyOp50
 70
     1
102
RTVSPropertyOp51
 70
     0
102
RTVSPropertyOp52
 70
     0
102
RTVSPropertyOp53
 70
     1
102
RTVSPropertyOp54
 70
     1
102
RTVSPropertyOp55
 70
     1
102
RTVSPropertyOp56
 70
     1
102
RTVSPropertyOp57
 70
     1
102
RTVSPropertyOp58
 70
     1
102
RTVSPropertyOp59
 70
     1
102
RTVSPropertyOp60
 70
     1
102
RTVSPropertyOp61
 70
     1
102
RTVSPropertyOp62
 70
     1
  0
XRECORD
  5
8FEF
102
{ACAD_REACTORS
330
8FEE
102
}
330
8FEE
100
AcDbXrecord
280
     1
102
RTVSPost2010Prop28
280
     0
102
RTVSPost2010PropOp28
 70
     1
102
RTVSPost2010Prop29
280
     1
102
RTVSPost2010PropOp29
 70
     1
102
RTVSPost2010Prop30
280
     1
102
RTVSPost2010PropOp30
 70
     1
102
RTVSPost2010Prop31
280
     0
102
RTVSPost2010PropOp31
 70
     1
102
RTVSPost2010Prop32
280
     0
102
RTVSPost2010PropOp32
 70
     1
102
RTVSPost2010Prop33
280
     0
102
RTVSPost2010PropOp33
 70
     1
102
RTVSPost2010Prop34
280
     0
102
RTVSPost2010PropOp34
 70
     1
102
RTVSPost2010Prop35
280
     0
102
RTVSPost2010PropOp35
 70
     1
102
RTVSPost2010Prop36
280
     0
102
RTVSPost2010PropOp36
 70
     1
102
RTVSPost2010Prop37
 90
       50
102
RTVSPost2010PropOp37
 70
     1
102
RTVSPost2010Prop38
140
0.0
102
RTVSPost2010PropOp38
 70
     1
102
RTVSPost2010Prop39
140
1.0
102
RTVSPost2010PropOp39
 70
     1
102
RTVSPost2010Prop40
 90
        0
102
RTVSPost2010PropOp40
 70
     1
102
RTVSPost2010Prop41ColorIndex
 90
       18
102
RTVSPost2010Prop41ColorRGB
 90
        0
102
RTVSPost2010PropOp41
 70
     1
102
RTVSPost2010Prop42
 90
       50
102
RTVSPost2010PropOp42
 70
     1
102
RTVSPost2010Prop43
 90
        3
102
RTVSPost2010PropOp43
 70
     1
102
RTVSPost2010Prop44ColorIndex
 90
        5
102
RTVSPost2010Prop44ColorRGB
 90
      255
102
RTVSPost2010PropOp44
 70
     1
102
RTVSPost2010Prop45
280
     0
102
RTVSPost2010PropOp45
 70
     1
102
RTVSPost2010Prop46
 90
       50
102
RTVSPost2010PropOp46
 70
     1
102
RTVSPost2010Prop47
 90
       50
102
RTVSPost2010PropOp47
 70
     1
102
RTVSPost2010Prop48
 90
       50
102
RTVSPost2010PropOp48
 70
     1
102
RTVSPost2010Prop49
280
     0
102
RTVSPost2010PropOp49
 70
     1
102
RTVSPost2010Prop50
 90
       50
102
RTVSPost2010PropOp50
 70
     1
102
RTVSPost2010Prop51ColorIndex
 90
      256
102
RTVSPost2010Prop51ColorRGB
 90
-16777216
102
RTVSPost2010PropOp51
 70
     0
102
RTVSPost2010Prop52
140
1.0
102
RTVSPost2010PropOp52
 70
     0
102
RTVSPost2010Prop53
 90
        2
102
RTVSPost2010PropOp53
 70
     1
102
RTVSPost2010Prop54
  1
strokes_ogs.tif
102
RTVSPost2010PropOp54
 70
     1
102
RTVSPost2010Prop55
280
     0
102
RTVSPost2010PropOp55
 70
     1
102
RTVSPost2010Prop56
140
1.0
102
RTVSPost2010PropOp56
 70
     1
102
RTVSPost2010Prop57
140
1.0
102
RTVSPost2010PropOp57
 70
     1
102
RTVSPropertyOp0
 70
     1
102
RTVSPropertyOp1
 70
     1
102
RTVSPropertyOp2
 70
     1
102
RTVSPropertyOp3
 70
     1
102
RTVSPropertyOp4
 70
     1
102
RTVSPropertyOp5
 70
     1
102
RTVSPropertyOp6
 70
     1
102
RTVSPropertyOp7
 70
     1
102
RTVSPropertyOp8
 70
     1
102
RTVSPropertyOp9
 70
     1
102
RTVSPropertyOp10
 70
     1
102
RTVSPropertyOp11
 70
     1
102
RTVSPropertyOp12
 70
     1
102
RTVSPropertyOp13
 70
     1
102
RTVSPropertyOp14
 70
     1
102
RTVSPropertyOp15
 70
     1
102
RTVSPropertyOp16
 70
     1
102
RTVSPropertyOp17
 70
     1
102
RTVSPropertyOp18
 70
     1
102
RTVSPropertyOp19
 70
     1
102
RTVSPropertyOp20
 70
     1
102
RTVSPropertyOp21
 70
     1
102
RTVSPropertyOp22
 70
     1
102
RTVSPropertyOp23
 70
     1
102
RTVSPropertyOp24
 70
     1
102
RTVSPropertyOp25
 70
     1
102
RTVSPropertyOp26
 70
     1
102
RTVSPropertyOp27
 70
     1
102
RTVSPropertyOp28
 70
     1
102
RTVSPropertyOp29
 70
     1
102
RTVSPropertyOp30
 70
     1
102
RTVSPropertyOp31
 70
     1
102
RTVSPropertyOp32
 70
     1
102
RTVSPropertyOp33
 70
     1
102
RTVSPropertyOp34
 70
     1
102
RTVSPropertyOp35
 70
     1
102
RTVSPropertyOp36
 70
     1
102
RTVSPropertyOp37
 70
     1
102
RTVSPropertyOp38
 70
     1
102
RTVSPropertyOp39
 70
     1
102
RTVSPropertyOp40
 70
     1
102
RTVSPropertyOp41
 70
     1
102
RTVSPropertyOp42
 70
     1
102
RTVSPropertyOp43
 70
     1
102
RTVSPropertyOp44
 70
     1
102
RTVSPropertyOp45
 70
     1
102
RTVSPropertyOp46
 70
     1
102
RTVSPropertyOp47
 70
     1
102
RTVSPropertyOp48
 70
     1
102
RTVSPropertyOp49
 70
     1
102
RTVSPropertyOp50
 70
     1
102
RTVSPropertyOp51
 70
     0
102
RTVSPropertyOp52
 70
     0
102
RTVSPropertyOp53
 70
     1
102
RTVSPropertyOp54
 70
     1
102
RTVSPropertyOp55
 70
     1
102
RTVSPropertyOp56
 70
     1
102
RTVSPropertyOp57
 70
     1
102
RTVSPropertyOp58
 70
     1
102
RTVSPropertyOp59
 70
     1
102
RTVSPropertyOp60
 70
     1
102
RTVSPropertyOp61
 70
     1
102
RTVSPropertyOp62
 70
     1
  0
XRECORD
  5
900B
102
{ACAD_REACTORS
330
900A
102
}
330
900A
100
AcDbXrecord
280
     1
102
RTVSPost2010Prop28
280
     0
102
RTVSPost2010PropOp28
 70
     1
102
RTVSPost2010Prop29
280
     1
102
RTVSPost2010PropOp29
 70
     1
102
RTVSPost2010Prop30
280
     1
102
RTVSPost2010PropOp30
 70
     1
102
RTVSPost2010Prop31
280
     0
102
RTVSPost2010PropOp31
 70
     1
102
RTVSPost2010Prop32
280
     0
102
RTVSPost2010PropOp32
 70
     1
102
RTVSPost2010Prop33
280
     0
102
RTVSPost2010PropOp33
 70
     1
102
RTVSPost2010Prop34
280
     0
102
RTVSPost2010PropOp34
 70
     1
102
RTVSPost2010Prop35
280
     0
102
RTVSPost2010PropOp35
 70
     1
102
RTVSPost2010Prop36
280
     0
102
RTVSPost2010PropOp36
 70
     1
102
RTVSPost2010Prop37
 90
       50
102
RTVSPost2010PropOp37
 70
     1
102
RTVSPost2010Prop38
140
0.0
102
RTVSPost2010PropOp38
 70
     1
102
RTVSPost2010Prop39
140
1.0
102
RTVSPost2010PropOp39
 70
     1
102
RTVSPost2010Prop40
 90
        0
102
RTVSPost2010PropOp40
 70
     1
102
RTVSPost2010Prop41ColorIndex
 90
       18
102
RTVSPost2010Prop41ColorRGB
 90
        0
102
RTVSPost2010PropOp41
 70
     1
102
RTVSPost2010Prop42
 90
       50
102
RTVSPost2010PropOp42
 70
     1
102
RTVSPost2010Prop43
 90
        3
102
RTVSPost2010PropOp43
 70
     1
102
RTVSPost2010Prop44ColorIndex
 90
        5
102
RTVSPost2010Prop44ColorRGB
 90
      255
102
RTVSPost2010PropOp44
 70
     1
102
RTVSPost2010Prop45
280
     0
102
RTVSPost2010PropOp45
 70
     1
102
RTVSPost2010Prop46
 90
       50
102
RTVSPost2010PropOp46
 70
     1
102
RTVSPost2010Prop47
 90
       50
102
RTVSPost2010PropOp47
 70
     1
102
RTVSPost2010Prop48
 90
       50
102
RTVSPost2010PropOp48
 70
     1
102
RTVSPost2010Prop49
280
     0
102
RTVSPost2010PropOp49
 70
     1
102
RTVSPost2010Prop50
 90
       50
102
RTVSPost2010PropOp50
 70
     1
102
RTVSPost2010Prop51ColorIndex
 90
      256
102
RTVSPost2010Prop51ColorRGB
 90
-16777216
102
RTVSPost2010PropOp51
 70
     0
102
RTVSPost2010Prop52
140
1.0
102
RTVSPost2010PropOp52
 70
     0
102
RTVSPost2010Prop53
 90
        2
102
RTVSPost2010PropOp53
 70
     1
102
RTVSPost2010Prop54
  1
strokes_ogs.tif
102
RTVSPost2010PropOp54
 70
     1
102
RTVSPost2010Prop55
280
     0
102
RTVSPost2010PropOp55
 70
     1
102
RTVSPost2010Prop56
140
1.0
102
RTVSPost2010PropOp56
 70
     1
102
RTVSPost2010Prop57
140
1.0
102
RTVSPost2010PropOp57
 70
     1
102
RTVSPropertyOp0
 70
     1
102
RTVSPropertyOp1
 70
     1
102
RTVSPropertyOp2
 70
     1
102
RTVSPropertyOp3
 70
     1
102
RTVSPropertyOp4
 70
     1
102
RTVSPropertyOp5
 70
     1
102
RTVSPropertyOp6
 70
     1
102
RTVSPropertyOp7
 70
     1
102
RTVSPropertyOp8
 70
     1
102
RTVSPropertyOp9
 70
     1
102
RTVSPropertyOp10
 70
     1
102
RTVSPropertyOp11
 70
     1
102
RTVSPropertyOp12
 70
     1
102
RTVSPropertyOp13
 70
     1
102
RTVSPropertyOp14
 70
     1
102
RTVSPropertyOp15
 70
     1
102
RTVSPropertyOp16
 70
     1
102
RTVSPropertyOp17
 70
     1
102
RTVSPropertyOp18
 70
     1
102
RTVSPropertyOp19
 70
     1
102
RTVSPropertyOp20
 70
     1
102
RTVSPropertyOp21
 70
     1
102
RTVSPropertyOp22
 70
     1
102
RTVSPropertyOp23
 70
     1
102
RTVSPropertyOp24
 70
     1
102
RTVSPropertyOp25
 70
     1
102
RTVSPropertyOp26
 70
     1
102
RTVSPropertyOp27
 70
     1
102
RTVSPropertyOp28
 70
     1
102
RTVSPropertyOp29
 70
     1
102
RTVSPropertyOp30
 70
     1
102
RTVSPropertyOp31
 70
     1
102
RTVSPropertyOp32
 70
     1
102
RTVSPropertyOp33
 70
     1
102
RTVSPropertyOp34
 70
     1
102
RTVSPropertyOp35
 70
     1
102
RTVSPropertyOp36
 70
     1
102
RTVSPropertyOp37
 70
     1
102
RTVSPropertyOp38
 70
     1
102
RTVSPropertyOp39
 70
     1
102
RTVSPropertyOp40
 70
     1
102
RTVSPropertyOp41
 70
     1
102
RTVSPropertyOp42
 70
     1
102
RTVSPropertyOp43
 70
     1
102
RTVSPropertyOp44
 70
     1
102
RTVSPropertyOp45
 70
     1
102
RTVSPropertyOp46
 70
     1
102
RTVSPropertyOp47
 70
     1
102
RTVSPropertyOp48
 70
     1
102
RTVSPropertyOp49
 70
     1
102
RTVSPropertyOp50
 70
     1
102
RTVSPropertyOp51
 70
     0
102
RTVSPropertyOp52
 70
     0
102
RTVSPropertyOp53
 70
     1
102
RTVSPropertyOp54
 70
     1
102
RTVSPropertyOp55
 70
     1
102
RTVSPropertyOp56
 70
     1
102
RTVSPropertyOp57
 70
     1
102
RTVSPropertyOp58
 70
     1
102
RTVSPropertyOp59
 70
     1
102
RTVSPropertyOp60
 70
     1
102
RTVSPropertyOp61
 70
     1
102
RTVSPropertyOp62
 70
     1
  0
XRECORD
  5
9003
102
{ACAD_REACTORS
330
9002
102
}
330
9002
100
AcDbXrecord
280
     1
102
RTVSPost2010Prop28
280
     0
102
RTVSPost2010PropOp28
 70
     1
102
RTVSPost2010Prop29
280
     1
102
RTVSPost2010PropOp29
 70
     1
102
RTVSPost2010Prop30
280
     1
102
RTVSPost2010PropOp30
 70
     1
102
RTVSPost2010Prop31
280
     0
102
RTVSPost2010PropOp31
 70
     1
102
RTVSPost2010Prop32
280
     0
102
RTVSPost2010PropOp32
 70
     1
102
RTVSPost2010Prop33
280
     0
102
RTVSPost2010PropOp33
 70
     1
102
RTVSPost2010Prop34
280
     0
102
RTVSPost2010PropOp34
 70
     1
102
RTVSPost2010Prop35
280
     0
102
RTVSPost2010PropOp35
 70
     1
102
RTVSPost2010Prop36
280
     0
102
RTVSPost2010PropOp36
 70
     1
102
RTVSPost2010Prop37
 90
       50
102
RTVSPost2010PropOp37
 70
     1
102
RTVSPost2010Prop38
140
0.0
102
RTVSPost2010PropOp38
 70
     1
102
RTVSPost2010Prop39
140
1.0
102
RTVSPost2010PropOp39
 70
     1
102
RTVSPost2010Prop40
 90
        0
102
RTVSPost2010PropOp40
 70
     1
102
RTVSPost2010Prop41ColorIndex
 90
       18
102
RTVSPost2010Prop41ColorRGB
 90
        0
102
RTVSPost2010PropOp41
 70
     1
102
RTVSPost2010Prop42
 90
       50
102
RTVSPost2010PropOp42
 70
     1
102
RTVSPost2010Prop43
 90
        3
102
RTVSPost2010PropOp43
 70
     1
102
RTVSPost2010Prop44ColorIndex
 90
        5
102
RTVSPost2010Prop44ColorRGB
 90
      255
102
RTVSPost2010PropOp44
 70
     1
102
RTVSPost2010Prop45
280
     0
102
RTVSPost2010PropOp45
 70
     1
102
RTVSPost2010Prop46
 90
       50
102
RTVSPost2010PropOp46
 70
     1
102
RTVSPost2010Prop47
 90
       50
102
RTVSPost2010PropOp47
 70
     1
102
RTVSPost2010Prop48
 90
       50
102
RTVSPost2010PropOp48
 70
     1
102
RTVSPost2010Prop49
280
     0
102
RTVSPost2010PropOp49
 70
     1
102
RTVSPost2010Prop50
 90
       50
102
RTVSPost2010PropOp50
 70
     1
102
RTVSPost2010Prop51ColorIndex
 90
      256
102
RTVSPost2010Prop51ColorRGB
 90
-16777216
102
RTVSPost2010PropOp51
 70
     0
102
RTVSPost2010Prop52
140
1.0
102
RTVSPost2010PropOp52
 70
     0
102
RTVSPost2010Prop53
 90
        2
102
RTVSPost2010PropOp53
 70
     1
102
RTVSPost2010Prop54
  1
strokes_ogs.tif
102
RTVSPost2010PropOp54
 70
     1
102
RTVSPost2010Prop55
280
     0
102
RTVSPost2010PropOp55
 70
     1
102
RTVSPost2010Prop56
140
1.0
102
RTVSPost2010PropOp56
 70
     1
102
RTVSPost2010Prop57
140
1.0
102
RTVSPost2010PropOp57
 70
     1
102
RTVSPropertyOp0
 70
     0
102
RTVSPropertyOp1
 70
     0
102
RTVSPropertyOp2
 70
     0
102
RTVSPropertyOp3
 70
     0
102
RTVSPropertyOp4
 70
     0
102
RTVSPropertyOp5
 70
     0
102
RTVSPropertyOp6
 70
     0
102
RTVSPropertyOp7
 70
     0
102
RTVSPropertyOp8
 70
     0
102
RTVSPropertyOp9
 70
     0
102
RTVSPropertyOp10
 70
     0
102
RTVSPropertyOp11
 70
     0
102
RTVSPropertyOp12
 70
     0
102
RTVSPropertyOp13
 70
     0
102
RTVSPropertyOp14
 70
     2
102
RTVSPropertyOp15
 70
     0
102
RTVSPropertyOp16
 70
     0
102
RTVSPropertyOp17
 70
     0
102
RTVSPropertyOp18
 70
     0
102
RTVSPropertyOp19
 70
     0
102
RTVSPropertyOp20
 70
     0
102
RTVSPropertyOp21
 70
     0
102
RTVSPropertyOp22
 70
     0
102
RTVSPropertyOp23
 70
     0
102
RTVSPropertyOp24
 70
     0
102
RTVSPropertyOp25
 70
     0
102
RTVSPropertyOp26
 70
     0
102
RTVSPropertyOp27
 70
     0
102
RTVSPropertyOp28
 70
     1
102
RTVSPropertyOp29
 70
     1
102
RTVSPropertyOp30
 70
     1
102
RTVSPropertyOp31
 70
     1
102
RTVSPropertyOp32
 70
     1
102
RTVSPropertyOp33
 70
     1
102
RTVSPropertyOp34
 70
     1
102
RTVSPropertyOp35
 70
     1
102
RTVSPropertyOp36
 70
     1
102
RTVSPropertyOp37
 70
     1
102
RTVSPropertyOp38
 70
     1
102
RTVSPropertyOp39
 70
     1
102
RTVSPropertyOp40
 70
     1
102
RTVSPropertyOp41
 70
     1
102
RTVSPropertyOp42
 70
     1
102
RTVSPropertyOp43
 70
     1
102
RTVSPropertyOp44
 70
     1
102
RTVSPropertyOp45
 70
     1
102
RTVSPropertyOp46
 70
     1
102
RTVSPropertyOp47
 70
     1
102
RTVSPropertyOp48
 70
     1
102
RTVSPropertyOp49
 70
     1
102
RTVSPropertyOp50
 70
     1
102
RTVSPropertyOp51
 70
     0
102
RTVSPropertyOp52
 70
     0
102
RTVSPropertyOp53
 70
     1
102
RTVSPropertyOp54
 70
     1
102
RTVSPropertyOp55
 70
     1
102
RTVSPropertyOp56
 70
     1
102
RTVSPropertyOp57
 70
     1
102
RTVSPropertyOp58
 70
     1
102
RTVSPropertyOp59
 70
     1
102
RTVSPropertyOp60
 70
     1
102
RTVSPropertyOp61
 70
     1
102
RTVSPropertyOp62
 70
     1
  0
XRECORD
  5
8FFD
102
{ACAD_REACTORS
330
8FFC
102
}
330
8FFC
100
AcDbXrecord
280
     1
102
RTVSPost2010Prop28
280
     0
102
RTVSPost2010PropOp28
 70
     1
102
RTVSPost2010Prop29
280
     1
102
RTVSPost2010PropOp29
 70
     1
102
RTVSPost2010Prop30
280
     1
102
RTVSPost2010PropOp30
 70
     1
102
RTVSPost2010Prop31
280
     0
102
RTVSPost2010PropOp31
 70
     1
102
RTVSPost2010Prop32
280
     0
102
RTVSPost2010PropOp32
 70
     1
102
RTVSPost2010Prop33
280
     0
102
RTVSPost2010PropOp33
 70
     1
102
RTVSPost2010Prop34
280
     0
102
RTVSPost2010PropOp34
 70
     1
102
RTVSPost2010Prop35
280
     0
102
RTVSPost2010PropOp35
 70
     1
102
RTVSPost2010Prop36
280
     0
102
RTVSPost2010PropOp36
 70
     1
102
RTVSPost2010Prop37
 90
       50
102
RTVSPost2010PropOp37
 70
     1
102
RTVSPost2010Prop38
140
0.0
102
RTVSPost2010PropOp38
 70
     1
102
RTVSPost2010Prop39
140
1.0
102
RTVSPost2010PropOp39
 70
     1
102
RTVSPost2010Prop40
 90
        0
102
RTVSPost2010PropOp40
 70
     1
102
RTVSPost2010Prop41ColorIndex
 90
       18
102
RTVSPost2010Prop41ColorRGB
 90
        0
102
RTVSPost2010PropOp41
 70
     1
102
RTVSPost2010Prop42
 90
       50
102
RTVSPost2010PropOp42
 70
     1
102
RTVSPost2010Prop43
 90
        3
102
RTVSPost2010PropOp43
 70
     1
102
RTVSPost2010Prop44ColorIndex
 90
        5
102
RTVSPost2010Prop44ColorRGB
 90
      255
102
RTVSPost2010PropOp44
 70
     1
102
RTVSPost2010Prop45
280
     0
102
RTVSPost2010PropOp45
 70
     1
102
RTVSPost2010Prop46
 90
       50
102
RTVSPost2010PropOp46
 70
     1
102
RTVSPost2010Prop47
 90
       50
102
RTVSPost2010PropOp47
 70
     1
102
RTVSPost2010Prop48
 90
       50
102
RTVSPost2010PropOp48
 70
     1
102
RTVSPost2010Prop49
280
     0
102
RTVSPost2010PropOp49
 70
     1
102
RTVSPost2010Prop50
 90
       50
102
RTVSPost2010PropOp50
 70
     1
102
RTVSPost2010Prop51ColorIndex
 90
      256
102
RTVSPost2010Prop51ColorRGB
 90
-16777216
102
RTVSPost2010PropOp51
 70
     0
102
RTVSPost2010Prop52
140
1.0
102
RTVSPost2010PropOp52
 70
     0
102
RTVSPost2010Prop53
 90
        2
102
RTVSPost2010PropOp53
 70
     1
102
RTVSPost2010Prop54
  1
strokes_ogs.tif
102
RTVSPost2010PropOp54
 70
     1
102
RTVSPost2010Prop55
280
     0
102
RTVSPost2010PropOp55
 70
     1
102
RTVSPost2010Prop56
140
1.0
102
RTVSPost2010PropOp56
 70
     1
102
RTVSPost2010Prop57
140
1.0
102
RTVSPost2010PropOp57
 70
     1
102
RTVSPropertyOp0
 70
     1
102
RTVSPropertyOp1
 70
     1
102
RTVSPropertyOp2
 70
     1
102
RTVSPropertyOp3
 70
     1
102
RTVSPropertyOp4
 70
     1
102
RTVSPropertyOp5
 70
     1
102
RTVSPropertyOp6
 70
     1
102
RTVSPropertyOp7
 70
     1
102
RTVSPropertyOp8
 70
     1
102
RTVSPropertyOp9
 70
     1
102
RTVSPropertyOp10
 70
     1
102
RTVSPropertyOp11
 70
     1
102
RTVSPropertyOp12
 70
     1
102
RTVSPropertyOp13
 70
     1
102
RTVSPropertyOp14
 70
     1
102
RTVSPropertyOp15
 70
     1
102
RTVSPropertyOp16
 70
     1
102
RTVSPropertyOp17
 70
     1
102
RTVSPropertyOp18
 70
     1
102
RTVSPropertyOp19
 70
     1
102
RTVSPropertyOp20
 70
     1
102
RTVSPropertyOp21
 70
     1
102
RTVSPropertyOp22
 70
     1
102
RTVSPropertyOp23
 70
     1
102
RTVSPropertyOp24
 70
     1
102
RTVSPropertyOp25
 70
     1
102
RTVSPropertyOp26
 70
     1
102
RTVSPropertyOp27
 70
     1
102
RTVSPropertyOp28
 70
     1
102
RTVSPropertyOp29
 70
     1
102
RTVSPropertyOp30
 70
     1
102
RTVSPropertyOp31
 70
     1
102
RTVSPropertyOp32
 70
     1
102
RTVSPropertyOp33
 70
     1
102
RTVSPropertyOp34
 70
     1
102
RTVSPropertyOp35
 70
     1
102
RTVSPropertyOp36
 70
     1
102
RTVSPropertyOp37
 70
     1
102
RTVSPropertyOp38
 70
     1
102
RTVSPropertyOp39
 70
     1
102
RTVSPropertyOp40
 70
     1
102
RTVSPropertyOp41
 70
     1
102
RTVSPropertyOp42
 70
     1
102
RTVSPropertyOp43
 70
     1
102
RTVSPropertyOp44
 70
     1
102
RTVSPropertyOp45
 70
     1
102
RTVSPropertyOp46
 70
     1
102
RTVSPropertyOp47
 70
     1
102
RTVSPropertyOp48
 70
     1
102
RTVSPropertyOp49
 70
     1
102
RTVSPropertyOp50
 70
     1
102
RTVSPropertyOp51
 70
     0
102
RTVSPropertyOp52
 70
     0
102
RTVSPropertyOp53
 70
     1
102
RTVSPropertyOp54
 70
     1
102
RTVSPropertyOp55
 70
     1
102
RTVSPropertyOp56
 70
     1
102
RTVSPropertyOp57
 70
     1
102
RTVSPropertyOp58
 70
     1
102
RTVSPropertyOp59
 70
     1
102
RTVSPropertyOp60
 70
     1
102
RTVSPropertyOp61
 70
     1
102
RTVSPropertyOp62
 70
     1
  0
XRECORD
  5
9005
102
{ACAD_REACTORS
330
9004
102
}
330
9004
100
AcDbXrecord
280
     1
102
RTVSPost2010Prop28
280
     0
102
RTVSPost2010PropOp28
 70
     1
102
RTVSPost2010Prop29
280
     1
102
RTVSPost2010PropOp29
 70
     1
102
RTVSPost2010Prop30
280
     1
102
RTVSPost2010PropOp30
 70
     1
102
RTVSPost2010Prop31
280
     0
102
RTVSPost2010PropOp31
 70
     1
102
RTVSPost2010Prop32
280
     0
102
RTVSPost2010PropOp32
 70
     1
102
RTVSPost2010Prop33
280
     0
102
RTVSPost2010PropOp33
 70
     1
102
RTVSPost2010Prop34
280
     0
102
RTVSPost2010PropOp34
 70
     1
102
RTVSPost2010Prop35
280
     0
102
RTVSPost2010PropOp35
 70
     1
102
RTVSPost2010Prop36
280
     0
102
RTVSPost2010PropOp36
 70
     1
102
RTVSPost2010Prop37
 90
       50
102
RTVSPost2010PropOp37
 70
     1
102
RTVSPost2010Prop38
140
0.0
102
RTVSPost2010PropOp38
 70
     1
102
RTVSPost2010Prop39
140
1.0
102
RTVSPost2010PropOp39
 70
     1
102
RTVSPost2010Prop40
 90
        0
102
RTVSPost2010PropOp40
 70
     1
102
RTVSPost2010Prop41ColorIndex
 90
       18
102
RTVSPost2010Prop41ColorRGB
 90
        0
102
RTVSPost2010PropOp41
 70
     1
102
RTVSPost2010Prop42
 90
       50
102
RTVSPost2010PropOp42
 70
     1
102
RTVSPost2010Prop43
 90
        3
102
RTVSPost2010PropOp43
 70
     1
102
RTVSPost2010Prop44ColorIndex
 90
        5
102
RTVSPost2010Prop44ColorRGB
 90
      255
102
RTVSPost2010PropOp44
 70
     1
102
RTVSPost2010Prop45
280
     0
102
RTVSPost2010PropOp45
 70
     1
102
RTVSPost2010Prop46
 90
       50
102
RTVSPost2010PropOp46
 70
     1
102
RTVSPost2010Prop47
 90
       50
102
RTVSPost2010PropOp47
 70
     1
102
RTVSPost2010Prop48
 90
       50
102
RTVSPost2010PropOp48
 70
     1
102
RTVSPost2010Prop49
280
     0
102
RTVSPost2010PropOp49
 70
     1
102
RTVSPost2010Prop50
 90
       50
102
RTVSPost2010PropOp50
 70
     1
102
RTVSPost2010Prop51ColorIndex
 90
      256
102
RTVSPost2010Prop51ColorRGB
 90
-16777216
102
RTVSPost2010PropOp51
 70
     0
102
RTVSPost2010Prop52
140
1.0
102
RTVSPost2010PropOp52
 70
     0
102
RTVSPost2010Prop53
 90
        2
102
RTVSPost2010PropOp53
 70
     1
102
RTVSPost2010Prop54
  1
strokes_ogs.tif
102
RTVSPost2010PropOp54
 70
     1
102
RTVSPost2010Prop55
280
     0
102
RTVSPost2010PropOp55
 70
     1
102
RTVSPost2010Prop56
140
1.0
102
RTVSPost2010PropOp56
 70
     1
102
RTVSPost2010Prop57
140
1.0
102
RTVSPost2010PropOp57
 70
     1
102
RTVSPropertyOp0
 70
     0
102
RTVSPropertyOp1
 70
     0
102
RTVSPropertyOp2
 70
     0
102
RTVSPropertyOp3
 70
     0
102
RTVSPropertyOp4
 70
     0
102
RTVSPropertyOp5
 70
     0
102
RTVSPropertyOp6
 70
     0
102
RTVSPropertyOp7
 70
     0
102
RTVSPropertyOp8
 70
     0
102
RTVSPropertyOp9
 70
     0
102
RTVSPropertyOp10
 70
     0
102
RTVSPropertyOp11
 70
     0
102
RTVSPropertyOp12
 70
     0
102
RTVSPropertyOp13
 70
     0
102
RTVSPropertyOp14
 70
     2
102
RTVSPropertyOp15
 70
     0
102
RTVSPropertyOp16
 70
     0
102
RTVSPropertyOp17
 70
     0
102
RTVSPropertyOp18
 70
     0
102
RTVSPropertyOp19
 70
     0
102
RTVSPropertyOp20
 70
     0
102
RTVSPropertyOp21
 70
     0
102
RTVSPropertyOp22
 70
     0
102
RTVSPropertyOp23
 70
     0
102
RTVSPropertyOp24
 70
     0
102
RTVSPropertyOp25
 70
     0
102
RTVSPropertyOp26
 70
     0
102
RTVSPropertyOp27
 70
     0
102
RTVSPropertyOp28
 70
     1
102
RTVSPropertyOp29
 70
     1
102
RTVSPropertyOp30
 70
     1
102
RTVSPropertyOp31
 70
     1
102
RTVSPropertyOp32
 70
     1
102
RTVSPropertyOp33
 70
     1
102
RTVSPropertyOp34
 70
     1
102
RTVSPropertyOp35
 70
     1
102
RTVSPropertyOp36
 70
     1
102
RTVSPropertyOp37
 70
     1
102
RTVSPropertyOp38
 70
     1
102
RTVSPropertyOp39
 70
     1
102
RTVSPropertyOp40
 70
     1
102
RTVSPropertyOp41
 70
     1
102
RTVSPropertyOp42
 70
     1
102
RTVSPropertyOp43
 70
     1
102
RTVSPropertyOp44
 70
     1
102
RTVSPropertyOp45
 70
     1
102
RTVSPropertyOp46
 70
     1
102
RTVSPropertyOp47
 70
     1
102
RTVSPropertyOp48
 70
     1
102
RTVSPropertyOp49
 70
     1
102
RTVSPropertyOp50
 70
     1
102
RTVSPropertyOp51
 70
     0
102
RTVSPropertyOp52
 70
     0
102
RTVSPropertyOp53
 70
     1
102
RTVSPropertyOp54
 70
     1
102
RTVSPropertyOp55
 70
     1
102
RTVSPropertyOp56
 70
     1
102
RTVSPropertyOp57
 70
     1
102
RTVSPropertyOp58
 70
     1
102
RTVSPropertyOp59
 70
     1
102
RTVSPropertyOp60
 70
     1
102
RTVSPropertyOp61
 70
     1
102
RTVSPropertyOp62
 70
     1
  0
XRECORD
  5
8FE5
102
{ACAD_REACTORS
330
8FE4
102
}
330
8FE4
100
AcDbXrecord
280
     1
102
RTVSPost2010Prop28
280
     0
102
RTVSPost2010PropOp28
 70
     1
102
RTVSPost2010Prop29
280
     1
102
RTVSPost2010PropOp29
 70
     1
102
RTVSPost2010Prop30
280
     1
102
RTVSPost2010PropOp30
 70
     1
102
RTVSPost2010Prop31
280
     0
102
RTVSPost2010PropOp31
 70
     1
102
RTVSPost2010Prop32
280
     0
102
RTVSPost2010PropOp32
 70
     1
102
RTVSPost2010Prop33
280
     0
102
RTVSPost2010PropOp33
 70
     1
102
RTVSPost2010Prop34
280
     0
102
RTVSPost2010PropOp34
 70
     1
102
RTVSPost2010Prop35
280
     0
102
RTVSPost2010PropOp35
 70
     1
102
RTVSPost2010Prop36
280
     0
102
RTVSPost2010PropOp36
 70
     1
102
RTVSPost2010Prop37
 90
       50
102
RTVSPost2010PropOp37
 70
     1
102
RTVSPost2010Prop38
140
0.0
102
RTVSPost2010PropOp38
 70
     1
102
RTVSPost2010Prop39
140
1.0
102
RTVSPost2010PropOp39
 70
     1
102
RTVSPost2010Prop40
 90
        0
102
RTVSPost2010PropOp40
 70
     1
102
RTVSPost2010Prop41ColorIndex
 90
       18
102
RTVSPost2010Prop41ColorRGB
 90
        0
102
RTVSPost2010PropOp41
 70
     1
102
RTVSPost2010Prop42
 90
       50
102
RTVSPost2010PropOp42
 70
     1
102
RTVSPost2010Prop43
 90
        3
102
RTVSPost2010PropOp43
 70
     1
102
RTVSPost2010Prop44ColorIndex
 90
        5
102
RTVSPost2010Prop44ColorRGB
 90
      255
102
RTVSPost2010PropOp44
 70
     1
102
RTVSPost2010Prop45
280
     0
102
RTVSPost2010PropOp45
 70
     1
102
RTVSPost2010Prop46
 90
       50
102
RTVSPost2010PropOp46
 70
     1
102
RTVSPost2010Prop47
 90
       50
102
RTVSPost2010PropOp47
 70
     1
102
RTVSPost2010Prop48
 90
       50
102
RTVSPost2010PropOp48
 70
     1
102
RTVSPost2010Prop49
280
     0
102
RTVSPost2010PropOp49
 70
     1
102
RTVSPost2010Prop50
 90
       50
102
RTVSPost2010PropOp50
 70
     1
102
RTVSPost2010Prop51ColorIndex
 90
      256
102
RTVSPost2010Prop51ColorRGB
 90
-16777216
102
RTVSPost2010PropOp51
 70
     0
102
RTVSPost2010Prop52
140
1.0
102
RTVSPost2010PropOp52
 70
     0
102
RTVSPost2010Prop53
 90
        2
102
RTVSPost2010PropOp53
 70
     1
102
RTVSPost2010Prop54
  1
strokes_ogs.tif
102
RTVSPost2010PropOp54
 70
     1
102
RTVSPost2010Prop55
280
     0
102
RTVSPost2010PropOp55
 70
     1
102
RTVSPost2010Prop56
140
1.0
102
RTVSPost2010PropOp56
 70
     1
102
RTVSPost2010Prop57
140
1.0
102
RTVSPost2010PropOp57
 70
     1
102
RTVSPropertyOp0
 70
     1
102
RTVSPropertyOp1
 70
     1
102
RTVSPropertyOp2
 70
     1
102
RTVSPropertyOp3
 70
     1
102
RTVSPropertyOp4
 70
     1
102
RTVSPropertyOp5
 70
     1
102
RTVSPropertyOp6
 70
     1
102
RTVSPropertyOp7
 70
     1
102
RTVSPropertyOp8
 70
     1
102
RTVSPropertyOp9
 70
     1
102
RTVSPropertyOp10
 70
     1
102
RTVSPropertyOp11
 70
     1
102
RTVSPropertyOp12
 70
     1
102
RTVSPropertyOp13
 70
     1
102
RTVSPropertyOp14
 70
     1
102
RTVSPropertyOp15
 70
     1
102
RTVSPropertyOp16
 70
     1
102
RTVSPropertyOp17
 70
     1
102
RTVSPropertyOp18
 70
     1
102
RTVSPropertyOp19
 70
     1
102
RTVSPropertyOp20
 70
     1
102
RTVSPropertyOp21
 70
     1
102
RTVSPropertyOp22
 70
     1
102
RTVSPropertyOp23
 70
     1
102
RTVSPropertyOp24
 70
     1
102
RTVSPropertyOp25
 70
     1
102
RTVSPropertyOp26
 70
     1
102
RTVSPropertyOp27
 70
     1
102
RTVSPropertyOp28
 70
     1
102
RTVSPropertyOp29
 70
     1
102
RTVSPropertyOp30
 70
     1
102
RTVSPropertyOp31
 70
     1
102
RTVSPropertyOp32
 70
     1
102
RTVSPropertyOp33
 70
     1
102
RTVSPropertyOp34
 70
     1
102
RTVSPropertyOp35
 70
     1
102
RTVSPropertyOp36
 70
     1
102
RTVSPropertyOp37
 70
     1
102
RTVSPropertyOp38
 70
     1
102
RTVSPropertyOp39
 70
     1
102
RTVSPropertyOp40
 70
     1
102
RTVSPropertyOp41
 70
     1
102
RTVSPropertyOp42
 70
     1
102
RTVSPropertyOp43
 70
     1
102
RTVSPropertyOp44
 70
     1
102
RTVSPropertyOp45
 70
     1
102
RTVSPropertyOp46
 70
     1
102
RTVSPropertyOp47
 70
     1
102
RTVSPropertyOp48
 70
     1
102
RTVSPropertyOp49
 70
     1
102
RTVSPropertyOp50
 70
     1
102
RTVSPropertyOp51
 70
     0
102
RTVSPropertyOp52
 70
     0
102
RTVSPropertyOp53
 70
     1
102
RTVSPropertyOp54
 70
     1
102
RTVSPropertyOp55
 70
     1
102
RTVSPropertyOp56
 70
     1
102
RTVSPropertyOp57
 70
     1
102
RTVSPropertyOp58
 70
     1
102
RTVSPropertyOp59
 70
     1
102
RTVSPropertyOp60
 70
     1
102
RTVSPropertyOp61
 70
     1
102
RTVSPropertyOp62
 70
     1
  0
XRECORD
  5
9015
102
{ACAD_REACTORS
330
9014
102
}
330
9014
100
AcDbXrecord
280
     1
102
RTVSPost2010Prop28
280
     0
102
RTVSPost2010PropOp28
 70
     1
102
RTVSPost2010Prop29
280
     1
102
RTVSPost2010PropOp29
 70
     1
102
RTVSPost2010Prop30
280
     1
102
RTVSPost2010PropOp30
 70
     1
102
RTVSPost2010Prop31
280
     0
102
RTVSPost2010PropOp31
 70
     1
102
RTVSPost2010Prop32
280
     0
102
RTVSPost2010PropOp32
 70
     1
102
RTVSPost2010Prop33
280
     0
102
RTVSPost2010PropOp33
 70
     1
102
RTVSPost2010Prop34
280
     0
102
RTVSPost2010PropOp34
 70
     1
102
RTVSPost2010Prop35
280
     0
102
RTVSPost2010PropOp35
 70
     1
102
RTVSPost2010Prop36
280
     0
102
RTVSPost2010PropOp36
 70
     1
102
RTVSPost2010Prop37
 90
       50
102
RTVSPost2010PropOp37
 70
     1
102
RTVSPost2010Prop38
140
0.0
102
RTVSPost2010PropOp38
 70
     1
102
RTVSPost2010Prop39
140
1.0
102
RTVSPost2010PropOp39
 70
     1
102
RTVSPost2010Prop40
 90
        0
102
RTVSPost2010PropOp40
 70
     1
102
RTVSPost2010Prop41ColorIndex
 90
       18
102
RTVSPost2010Prop41ColorRGB
 90
        0
102
RTVSPost2010PropOp41
 70
     1
102
RTVSPost2010Prop42
 90
       50
102
RTVSPost2010PropOp42
 70
     1
102
RTVSPost2010Prop43
 90
        3
102
RTVSPost2010PropOp43
 70
     1
102
RTVSPost2010Prop44ColorIndex
 90
        5
102
RTVSPost2010Prop44ColorRGB
 90
      255
102
RTVSPost2010PropOp44
 70
     1
102
RTVSPost2010Prop45
280
     0
102
RTVSPost2010PropOp45
 70
     1
102
RTVSPost2010Prop46
 90
       50
102
RTVSPost2010PropOp46
 70
     1
102
RTVSPost2010Prop47
 90
       50
102
RTVSPost2010PropOp47
 70
     1
102
RTVSPost2010Prop48
 90
       50
102
RTVSPost2010PropOp48
 70
     1
102
RTVSPost2010Prop49
280
     0
102
RTVSPost2010PropOp49
 70
     1
102
RTVSPost2010Prop50
 90
       50
102
RTVSPost2010PropOp50
 70
     1
102
RTVSPost2010Prop51ColorIndex
 90
      256
102
RTVSPost2010Prop51ColorRGB
 90
-16777216
102
RTVSPost2010PropOp51
 70
     0
102
RTVSPost2010Prop52
140
1.0
102
RTVSPost2010PropOp52
 70
     0
102
RTVSPost2010Prop53
 90
        2
102
RTVSPost2010PropOp53
 70
     1
102
RTVSPost2010Prop54
  1
strokes_ogs.tif
102
RTVSPost2010PropOp54
 70
     1
102
RTVSPost2010Prop55
280
     0
102
RTVSPost2010PropOp55
 70
     1
102
RTVSPost2010Prop56
140
1.0
102
RTVSPost2010PropOp56
 70
     1
102
RTVSPost2010Prop57
140
1.0
102
RTVSPost2010PropOp57
 70
     1
102
RTVSPropertyOp0
 70
     1
102
RTVSPropertyOp1
 70
     1
102
RTVSPropertyOp2
 70
     1
102
RTVSPropertyOp3
 70
     1
102
RTVSPropertyOp4
 70
     1
102
RTVSPropertyOp5
 70
     1
102
RTVSPropertyOp6
 70
     1
102
RTVSPropertyOp7
 70
     1
102
RTVSPropertyOp8
 70
     1
102
RTVSPropertyOp9
 70
     1
102
RTVSPropertyOp10
 70
     1
102
RTVSPropertyOp11
 70
     1
102
RTVSPropertyOp12
 70
     1
102
RTVSPropertyOp13
 70
     1
102
RTVSPropertyOp14
 70
     1
102
RTVSPropertyOp15
 70
     1
102
RTVSPropertyOp16
 70
     1
102
RTVSPropertyOp17
 70
     1
102
RTVSPropertyOp18
 70
     1
102
RTVSPropertyOp19
 70
     1
102
RTVSPropertyOp20
 70
     1
102
RTVSPropertyOp21
 70
     1
102
RTVSPropertyOp22
 70
     1
102
RTVSPropertyOp23
 70
     1
102
RTVSPropertyOp24
 70
     1
102
RTVSPropertyOp25
 70
     1
102
RTVSPropertyOp26
 70
     1
102
RTVSPropertyOp27
 70
     1
102
RTVSPropertyOp28
 70
     1
102
RTVSPropertyOp29
 70
     1
102
RTVSPropertyOp30
 70
     1
102
RTVSPropertyOp31
 70
     1
102
RTVSPropertyOp32
 70
     1
102
RTVSPropertyOp33
 70
     1
102
RTVSPropertyOp34
 70
     1
102
RTVSPropertyOp35
 70
     1
102
RTVSPropertyOp36
 70
     1
102
RTVSPropertyOp37
 70
     1
102
RTVSPropertyOp38
 70
     1
102
RTVSPropertyOp39
 70
     1
102
RTVSPropertyOp40
 70
     1
102
RTVSPropertyOp41
 70
     1
102
RTVSPropertyOp42
 70
     1
102
RTVSPropertyOp43
 70
     1
102
RTVSPropertyOp44
 70
     1
102
RTVSPropertyOp45
 70
     1
102
RTVSPropertyOp46
 70
     1
102
RTVSPropertyOp47
 70
     1
102
RTVSPropertyOp48
 70
     1
102
RTVSPropertyOp49
 70
     1
102
RTVSPropertyOp50
 70
     1
102
RTVSPropertyOp51
 70
     0
102
RTVSPropertyOp52
 70
     0
102
RTVSPropertyOp53
 70
     1
102
RTVSPropertyOp54
 70
     1
102
RTVSPropertyOp55
 70
     1
102
RTVSPropertyOp56
 70
     1
102
RTVSPropertyOp57
 70
     1
102
RTVSPropertyOp58
 70
     1
102
RTVSPropertyOp59
 70
     1
102
RTVSPropertyOp60
 70
     1
102
RTVSPropertyOp61
 70
     1
102
RTVSPropertyOp62
 70
     1
  0
XRECORD
  5
9013
102
{ACAD_REACTORS
330
9012
102
}
330
9012
100
AcDbXrecord
280
     1
102
RTVSPost2010Prop28
280
     0
102
RTVSPost2010PropOp28
 70
     1
102
RTVSPost2010Prop29
280
     1
102
RTVSPost2010PropOp29
 70
     1
102
RTVSPost2010Prop30
280
     1
102
RTVSPost2010PropOp30
 70
     1
102
RTVSPost2010Prop31
280
     0
102
RTVSPost2010PropOp31
 70
     1
102
RTVSPost2010Prop32
280
     0
102
RTVSPost2010PropOp32
 70
     1
102
RTVSPost2010Prop33
280
     0
102
RTVSPost2010PropOp33
 70
     1
102
RTVSPost2010Prop34
280
     0
102
RTVSPost2010PropOp34
 70
     1
102
RTVSPost2010Prop35
280
     0
102
RTVSPost2010PropOp35
 70
     1
102
RTVSPost2010Prop36
280
     0
102
RTVSPost2010PropOp36
 70
     1
102
RTVSPost2010Prop37
 90
       50
102
RTVSPost2010PropOp37
 70
     1
102
RTVSPost2010Prop38
140
0.0
102
RTVSPost2010PropOp38
 70
     1
102
RTVSPost2010Prop39
140
1.0
102
RTVSPost2010PropOp39
 70
     1
102
RTVSPost2010Prop40
 90
        0
102
RTVSPost2010PropOp40
 70
     1
102
RTVSPost2010Prop41ColorIndex
 90
       18
102
RTVSPost2010Prop41ColorRGB
 90
        0
102
RTVSPost2010PropOp41
 70
     1
102
RTVSPost2010Prop42
 90
       50
102
RTVSPost2010PropOp42
 70
     1
102
RTVSPost2010Prop43
 90
        3
102
RTVSPost2010PropOp43
 70
     1
102
RTVSPost2010Prop44ColorIndex
 90
        5
102
RTVSPost2010Prop44ColorRGB
 90
      255
102
RTVSPost2010PropOp44
 70
     1
102
RTVSPost2010Prop45
280
     0
102
RTVSPost2010PropOp45
 70
     1
102
RTVSPost2010Prop46
 90
       50
102
RTVSPost2010PropOp46
 70
     1
102
RTVSPost2010Prop47
 90
       50
102
RTVSPost2010PropOp47
 70
     1
102
RTVSPost2010Prop48
 90
       50
102
RTVSPost2010PropOp48
 70
     1
102
RTVSPost2010Prop49
280
     0
102
RTVSPost2010PropOp49
 70
     1
102
RTVSPost2010Prop50
 90
       50
102
RTVSPost2010PropOp50
 70
     1
102
RTVSPost2010Prop51ColorIndex
 90
      256
102
RTVSPost2010Prop51ColorRGB
 90
-16777216
102
RTVSPost2010PropOp51
 70
     0
102
RTVSPost2010Prop52
140
1.0
102
RTVSPost2010PropOp52
 70
     0
102
RTVSPost2010Prop53
 90
        2
102
RTVSPost2010PropOp53
 70
     1
102
RTVSPost2010Prop54
  1
strokes_ogs.tif
102
RTVSPost2010PropOp54
 70
     1
102
RTVSPost2010Prop55
280
     0
102
RTVSPost2010PropOp55
 70
     1
102
RTVSPost2010Prop56
140
1.0
102
RTVSPost2010PropOp56
 70
     1
102
RTVSPost2010Prop57
140
1.0
102
RTVSPost2010PropOp57
 70
     1
102
RTVSPropertyOp0
 70
     1
102
RTVSPropertyOp1
 70
     1
102
RTVSPropertyOp2
 70
     1
102
RTVSPropertyOp3
 70
     1
102
RTVSPropertyOp4
 70
     1
102
RTVSPropertyOp5
 70
     1
102
RTVSPropertyOp6
 70
     1
102
RTVSPropertyOp7
 70
     1
102
RTVSPropertyOp8
 70
     1
102
RTVSPropertyOp9
 70
     1
102
RTVSPropertyOp10
 70
     1
102
RTVSPropertyOp11
 70
     1
102
RTVSPropertyOp12
 70
     1
102
RTVSPropertyOp13
 70
     1
102
RTVSPropertyOp14
 70
     1
102
RTVSPropertyOp15
 70
     1
102
RTVSPropertyOp16
 70
     1
102
RTVSPropertyOp17
 70
     1
102
RTVSPropertyOp18
 70
     1
102
RTVSPropertyOp19
 70
     1
102
RTVSPropertyOp20
 70
     1
102
RTVSPropertyOp21
 70
     1
102
RTVSPropertyOp22
 70
     1
102
RTVSPropertyOp23
 70
     1
102
RTVSPropertyOp24
 70
     1
102
RTVSPropertyOp25
 70
     1
102
RTVSPropertyOp26
 70
     1
102
RTVSPropertyOp27
 70
     1
102
RTVSPropertyOp28
 70
     1
102
RTVSPropertyOp29
 70
     1
102
RTVSPropertyOp30
 70
     1
102
RTVSPropertyOp31
 70
     1
102
RTVSPropertyOp32
 70
     1
102
RTVSPropertyOp33
 70
     1
102
RTVSPropertyOp34
 70
     1
102
RTVSPropertyOp35
 70
     1
102
RTVSPropertyOp36
 70
     1
102
RTVSPropertyOp37
 70
     1
102
RTVSPropertyOp38
 70
     1
102
RTVSPropertyOp39
 70
     1
102
RTVSPropertyOp40
 70
     1
102
RTVSPropertyOp41
 70
     1
102
RTVSPropertyOp42
 70
     1
102
RTVSPropertyOp43
 70
     1
102
RTVSPropertyOp44
 70
     1
102
RTVSPropertyOp45
 70
     1
102
RTVSPropertyOp46
 70
     1
102
RTVSPropertyOp47
 70
     1
102
RTVSPropertyOp48
 70
     1
102
RTVSPropertyOp49
 70
     1
102
RTVSPropertyOp50
 70
     1
102
RTVSPropertyOp51
 70
     0
102
RTVSPropertyOp52
 70
     0
102
RTVSPropertyOp53
 70
     1
102
RTVSPropertyOp54
 70
     1
102
RTVSPropertyOp55
 70
     1
102
RTVSPropertyOp56
 70
     1
102
RTVSPropertyOp57
 70
     1
102
RTVSPropertyOp58
 70
     1
102
RTVSPropertyOp59
 70
     1
102
RTVSPropertyOp60
 70
     1
102
RTVSPropertyOp61
 70
     1
102
RTVSPropertyOp62
 70
     1
  0
XRECORD
  5
900D
102
{ACAD_REACTORS
330
900C
102
}
330
900C
100
AcDbXrecord
280
     1
102
RTVSPost2010Prop28
280
     0
102
RTVSPost2010PropOp28
 70
     1
102
RTVSPost2010Prop29
280
     1
102
RTVSPost2010PropOp29
 70
     1
102
RTVSPost2010Prop30
280
     1
102
RTVSPost2010PropOp30
 70
     1
102
RTVSPost2010Prop31
280
     0
102
RTVSPost2010PropOp31
 70
     1
102
RTVSPost2010Prop32
280
     0
102
RTVSPost2010PropOp32
 70
     1
102
RTVSPost2010Prop33
280
     0
102
RTVSPost2010PropOp33
 70
     1
102
RTVSPost2010Prop34
280
     0
102
RTVSPost2010PropOp34
 70
     1
102
RTVSPost2010Prop35
280
     0
102
RTVSPost2010PropOp35
 70
     1
102
RTVSPost2010Prop36
280
     0
102
RTVSPost2010PropOp36
 70
     1
102
RTVSPost2010Prop37
 90
       50
102
RTVSPost2010PropOp37
 70
     1
102
RTVSPost2010Prop38
140
0.0
102
RTVSPost2010PropOp38
 70
     1
102
RTVSPost2010Prop39
140
1.0
102
RTVSPost2010PropOp39
 70
     1
102
RTVSPost2010Prop40
 90
        0
102
RTVSPost2010PropOp40
 70
     1
102
RTVSPost2010Prop41ColorIndex
 90
       18
102
RTVSPost2010Prop41ColorRGB
 90
        0
102
RTVSPost2010PropOp41
 70
     1
102
RTVSPost2010Prop42
 90
       50
102
RTVSPost2010PropOp42
 70
     1
102
RTVSPost2010Prop43
 90
        3
102
RTVSPost2010PropOp43
 70
     1
102
RTVSPost2010Prop44ColorIndex
 90
        5
102
RTVSPost2010Prop44ColorRGB
 90
      255
102
RTVSPost2010PropOp44
 70
     1
102
RTVSPost2010Prop45
280
     0
102
RTVSPost2010PropOp45
 70
     1
102
RTVSPost2010Prop46
 90
       50
102
RTVSPost2010PropOp46
 70
     1
102
RTVSPost2010Prop47
 90
       50
102
RTVSPost2010PropOp47
 70
     1
102
RTVSPost2010Prop48
 90
       50
102
RTVSPost2010PropOp48
 70
     1
102
RTVSPost2010Prop49
280
     0
102
RTVSPost2010PropOp49
 70
     1
102
RTVSPost2010Prop50
 90
       50
102
RTVSPost2010PropOp50
 70
     1
102
RTVSPost2010Prop51ColorIndex
 90
      256
102
RTVSPost2010Prop51ColorRGB
 90
-16777216
102
RTVSPost2010PropOp51
 70
     0
102
RTVSPost2010Prop52
140
1.0
102
RTVSPost2010PropOp52
 70
     0
102
RTVSPost2010Prop53
 90
        2
102
RTVSPost2010PropOp53
 70
     1
102
RTVSPost2010Prop54
  1
strokes_ogs.tif
102
RTVSPost2010PropOp54
 70
     1
102
RTVSPost2010Prop55
280
     0
102
RTVSPost2010PropOp55
 70
     1
102
RTVSPost2010Prop56
140
1.0
102
RTVSPost2010PropOp56
 70
     1
102
RTVSPost2010Prop57
140
1.0
102
RTVSPost2010PropOp57
 70
     1
102
RTVSPropertyOp0
 70
     1
102
RTVSPropertyOp1
 70
     1
102
RTVSPropertyOp2
 70
     1
102
RTVSPropertyOp3
 70
     1
102
RTVSPropertyOp4
 70
     1
102
RTVSPropertyOp5
 70
     1
102
RTVSPropertyOp6
 70
     1
102
RTVSPropertyOp7
 70
     1
102
RTVSPropertyOp8
 70
     1
102
RTVSPropertyOp9
 70
     1
102
RTVSPropertyOp10
 70
     1
102
RTVSPropertyOp11
 70
     1
102
RTVSPropertyOp12
 70
     1
102
RTVSPropertyOp13
 70
     1
102
RTVSPropertyOp14
 70
     1
102
RTVSPropertyOp15
 70
     1
102
RTVSPropertyOp16
 70
     1
102
RTVSPropertyOp17
 70
     1
102
RTVSPropertyOp18
 70
     1
102
RTVSPropertyOp19
 70
     1
102
RTVSPropertyOp20
 70
     1
102
RTVSPropertyOp21
 70
     1
102
RTVSPropertyOp22
 70
     1
102
RTVSPropertyOp23
 70
     1
102
RTVSPropertyOp24
 70
     1
102
RTVSPropertyOp25
 70
     1
102
RTVSPropertyOp26
 70
     1
102
RTVSPropertyOp27
 70
     1
102
RTVSPropertyOp28
 70
     1
102
RTVSPropertyOp29
 70
     1
102
RTVSPropertyOp30
 70
     1
102
RTVSPropertyOp31
 70
     1
102
RTVSPropertyOp32
 70
     1
102
RTVSPropertyOp33
 70
     1
102
RTVSPropertyOp34
 70
     1
102
RTVSPropertyOp35
 70
     1
102
RTVSPropertyOp36
 70
     1
102
RTVSPropertyOp37
 70
     1
102
RTVSPropertyOp38
 70
     1
102
RTVSPropertyOp39
 70
     1
102
RTVSPropertyOp40
 70
     1
102
RTVSPropertyOp41
 70
     1
102
RTVSPropertyOp42
 70
     1
102
RTVSPropertyOp43
 70
     1
102
RTVSPropertyOp44
 70
     1
102
RTVSPropertyOp45
 70
     1
102
RTVSPropertyOp46
 70
     1
102
RTVSPropertyOp47
 70
     1
102
RTVSPropertyOp48
 70
     1
102
RTVSPropertyOp49
 70
     1
102
RTVSPropertyOp50
 70
     1
102
RTVSPropertyOp51
 70
     0
102
RTVSPropertyOp52
 70
     0
102
RTVSPropertyOp53
 70
     1
102
RTVSPropertyOp54
 70
     1
102
RTVSPropertyOp55
 70
     1
102
RTVSPropertyOp56
 70
     1
102
RTVSPropertyOp57
 70
     1
102
RTVSPropertyOp58
 70
     1
102
RTVSPropertyOp59
 70
     1
102
RTVSPropertyOp60
 70
     1
102
RTVSPropertyOp61
 70
     1
102
RTVSPropertyOp62
 70
     1
  0
XRECORD
  5
900F
102
{ACAD_REACTORS
330
900E
102
}
330
900E
100
AcDbXrecord
280
     1
102
RTVSPost2010Prop28
280
     0
102
RTVSPost2010PropOp28
 70
     1
102
RTVSPost2010Prop29
280
     1
102
RTVSPost2010PropOp29
 70
     1
102
RTVSPost2010Prop30
280
     1
102
RTVSPost2010PropOp30
 70
     1
102
RTVSPost2010Prop31
280
     0
102
RTVSPost2010PropOp31
 70
     1
102
RTVSPost2010Prop32
280
     0
102
RTVSPost2010PropOp32
 70
     1
102
RTVSPost2010Prop33
280
     0
102
RTVSPost2010PropOp33
 70
     1
102
RTVSPost2010Prop34
280
     0
102
RTVSPost2010PropOp34
 70
     1
102
RTVSPost2010Prop35
280
     0
102
RTVSPost2010PropOp35
 70
     1
102
RTVSPost2010Prop36
280
     0
102
RTVSPost2010PropOp36
 70
     1
102
RTVSPost2010Prop37
 90
       50
102
RTVSPost2010PropOp37
 70
     1
102
RTVSPost2010Prop38
140
0.0
102
RTVSPost2010PropOp38
 70
     1
102
RTVSPost2010Prop39
140
1.0
102
RTVSPost2010PropOp39
 70
     1
102
RTVSPost2010Prop40
 90
        0
102
RTVSPost2010PropOp40
 70
     1
102
RTVSPost2010Prop41ColorIndex
 90
       18
102
RTVSPost2010Prop41ColorRGB
 90
        0
102
RTVSPost2010PropOp41
 70
     1
102
RTVSPost2010Prop42
 90
       50
102
RTVSPost2010PropOp42
 70
     1
102
RTVSPost2010Prop43
 90
        3
102
RTVSPost2010PropOp43
 70
     1
102
RTVSPost2010Prop44ColorIndex
 90
        5
102
RTVSPost2010Prop44ColorRGB
 90
      255
102
RTVSPost2010PropOp44
 70
     1
102
RTVSPost2010Prop45
280
     0
102
RTVSPost2010PropOp45
 70
     1
102
RTVSPost2010Prop46
 90
       50
102
RTVSPost2010PropOp46
 70
     1
102
RTVSPost2010Prop47
 90
       50
102
RTVSPost2010PropOp47
 70
     1
102
RTVSPost2010Prop48
 90
       50
102
RTVSPost2010PropOp48
 70
     1
102
RTVSPost2010Prop49
280
     0
102
RTVSPost2010PropOp49
 70
     1
102
RTVSPost2010Prop50
 90
       50
102
RTVSPost2010PropOp50
 70
     1
102
RTVSPost2010Prop51ColorIndex
 90
      256
102
RTVSPost2010Prop51ColorRGB
 90
-16777216
102
RTVSPost2010PropOp51
 70
     0
102
RTVSPost2010Prop52
140
1.0
102
RTVSPost2010PropOp52
 70
     0
102
RTVSPost2010Prop53
 90
        2
102
RTVSPost2010PropOp53
 70
     1
102
RTVSPost2010Prop54
  1
strokes_ogs.tif
102
RTVSPost2010PropOp54
 70
     1
102
RTVSPost2010Prop55
280
     0
102
RTVSPost2010PropOp55
 70
     1
102
RTVSPost2010Prop56
140
1.0
102
RTVSPost2010PropOp56
 70
     1
102
RTVSPost2010Prop57
140
1.0
102
RTVSPost2010PropOp57
 70
     1
102
RTVSPropertyOp0
 70
     1
102
RTVSPropertyOp1
 70
     1
102
RTVSPropertyOp2
 70
     1
102
RTVSPropertyOp3
 70
     1
102
RTVSPropertyOp4
 70
     1
102
RTVSPropertyOp5
 70
     1
102
RTVSPropertyOp6
 70
     1
102
RTVSPropertyOp7
 70
     1
102
RTVSPropertyOp8
 70
     1
102
RTVSPropertyOp9
 70
     1
102
RTVSPropertyOp10
 70
     1
102
RTVSPropertyOp11
 70
     1
102
RTVSPropertyOp12
 70
     1
102
RTVSPropertyOp13
 70
     1
102
RTVSPropertyOp14
 70
     1
102
RTVSPropertyOp15
 70
     1
102
RTVSPropertyOp16
 70
     1
102
RTVSPropertyOp17
 70
     1
102
RTVSPropertyOp18
 70
     1
102
RTVSPropertyOp19
 70
     1
102
RTVSPropertyOp20
 70
     1
102
RTVSPropertyOp21
 70
     1
102
RTVSPropertyOp22
 70
     1
102
RTVSPropertyOp23
 70
     1
102
RTVSPropertyOp24
 70
     1
102
RTVSPropertyOp25
 70
     1
102
RTVSPropertyOp26
 70
     1
102
RTVSPropertyOp27
 70
     1
102
RTVSPropertyOp28
 70
     1
102
RTVSPropertyOp29
 70
     1
102
RTVSPropertyOp30
 70
     1
102
RTVSPropertyOp31
 70
     1
102
RTVSPropertyOp32
 70
     1
102
RTVSPropertyOp33
 70
     1
102
RTVSPropertyOp34
 70
     1
102
RTVSPropertyOp35
 70
     1
102
RTVSPropertyOp36
 70
     1
102
RTVSPropertyOp37
 70
     1
102
RTVSPropertyOp38
 70
     1
102
RTVSPropertyOp39
 70
     1
102
RTVSPropertyOp40
 70
     1
102
RTVSPropertyOp41
 70
     1
102
RTVSPropertyOp42
 70
     1
102
RTVSPropertyOp43
 70
     1
102
RTVSPropertyOp44
 70
     1
102
RTVSPropertyOp45
 70
     1
102
RTVSPropertyOp46
 70
     1
102
RTVSPropertyOp47
 70
     1
102
RTVSPropertyOp48
 70
     1
102
RTVSPropertyOp49
 70
     1
102
RTVSPropertyOp50
 70
     1
102
RTVSPropertyOp51
 70
     0
102
RTVSPropertyOp52
 70
     0
102
RTVSPropertyOp53
 70
     1
102
RTVSPropertyOp54
 70
     1
102
RTVSPropertyOp55
 70
     1
102
RTVSPropertyOp56
 70
     1
102
RTVSPropertyOp57
 70
     1
102
RTVSPropertyOp58
 70
     1
102
RTVSPropertyOp59
 70
     1
102
RTVSPropertyOp60
 70
     1
102
RTVSPropertyOp61
 70
     1
102
RTVSPropertyOp62
 70
     1
  0
XRECORD
  5
8FFB
102
{ACAD_REACTORS
330
8FFA
102
}
330
8FFA
100
AcDbXrecord
280
     1
102
RTVSPost2010Prop28
280
     0
102
RTVSPost2010PropOp28
 70
     1
102
RTVSPost2010Prop29
280
     1
102
RTVSPost2010PropOp29
 70
     1
102
RTVSPost2010Prop30
280
     1
102
RTVSPost2010PropOp30
 70
     1
102
RTVSPost2010Prop31
280
     0
102
RTVSPost2010PropOp31
 70
     1
102
RTVSPost2010Prop32
280
     0
102
RTVSPost2010PropOp32
 70
     1
102
RTVSPost2010Prop33
280
     0
102
RTVSPost2010PropOp33
 70
     1
102
RTVSPost2010Prop34
280
     0
102
RTVSPost2010PropOp34
 70
     1
102
RTVSPost2010Prop35
280
     0
102
RTVSPost2010PropOp35
 70
     1
102
RTVSPost2010Prop36
280
     0
102
RTVSPost2010PropOp36
 70
     1
102
RTVSPost2010Prop37
 90
       50
102
RTVSPost2010PropOp37
 70
     1
102
RTVSPost2010Prop38
140
0.0
102
RTVSPost2010PropOp38
 70
     1
102
RTVSPost2010Prop39
140
1.0
102
RTVSPost2010PropOp39
 70
     1
102
RTVSPost2010Prop40
 90
        0
102
RTVSPost2010PropOp40
 70
     1
102
RTVSPost2010Prop41ColorIndex
 90
       18
102
RTVSPost2010Prop41ColorRGB
 90
        0
102
RTVSPost2010PropOp41
 70
     1
102
RTVSPost2010Prop42
 90
       50
102
RTVSPost2010PropOp42
 70
     1
102
RTVSPost2010Prop43
 90
        3
102
RTVSPost2010PropOp43
 70
     1
102
RTVSPost2010Prop44ColorIndex
 90
        5
102
RTVSPost2010Prop44ColorRGB
 90
      255
102
RTVSPost2010PropOp44
 70
     1
102
RTVSPost2010Prop45
280
     0
102
RTVSPost2010PropOp45
 70
     1
102
RTVSPost2010Prop46
 90
       50
102
RTVSPost2010PropOp46
 70
     1
102
RTVSPost2010Prop47
 90
       50
102
RTVSPost2010PropOp47
 70
     1
102
RTVSPost2010Prop48
 90
       50
102
RTVSPost2010PropOp48
 70
     1
102
RTVSPost2010Prop49
280
     0
102
RTVSPost2010PropOp49
 70
     1
102
RTVSPost2010Prop50
 90
       50
102
RTVSPost2010PropOp50
 70
     1
102
RTVSPost2010Prop51ColorIndex
 90
      256
102
RTVSPost2010Prop51ColorRGB
 90
-16777216
102
RTVSPost2010PropOp51
 70
     0
102
RTVSPost2010Prop52
140
1.0
102
RTVSPost2010PropOp52
 70
     0
102
RTVSPost2010Prop53
 90
        2
102
RTVSPost2010PropOp53
 70
     1
102
RTVSPost2010Prop54
  1
strokes_ogs.tif
102
RTVSPost2010PropOp54
 70
     1
102
RTVSPost2010Prop55
280
     0
102
RTVSPost2010PropOp55
 70
     1
102
RTVSPost2010Prop56
140
1.0
102
RTVSPost2010PropOp56
 70
     1
102
RTVSPost2010Prop57
140
1.0
102
RTVSPost2010PropOp57
 70
     1
102
RTVSPropertyOp0
 70
     1
102
RTVSPropertyOp1
 70
     1
102
RTVSPropertyOp2
 70
     1
102
RTVSPropertyOp3
 70
     1
102
RTVSPropertyOp4
 70
     1
102
RTVSPropertyOp5
 70
     1
102
RTVSPropertyOp6
 70
     1
102
RTVSPropertyOp7
 70
     1
102
RTVSPropertyOp8
 70
     1
102
RTVSPropertyOp9
 70
     1
102
RTVSPropertyOp10
 70
     1
102
RTVSPropertyOp11
 70
     1
102
RTVSPropertyOp12
 70
     1
102
RTVSPropertyOp13
 70
     1
102
RTVSPropertyOp14
 70
     1
102
RTVSPropertyOp15
 70
     1
102
RTVSPropertyOp16
 70
     1
102
RTVSPropertyOp17
 70
     1
102
RTVSPropertyOp18
 70
     1
102
RTVSPropertyOp19
 70
     1
102
RTVSPropertyOp20
 70
     1
102
RTVSPropertyOp21
 70
     1
102
RTVSPropertyOp22
 70
     1
102
RTVSPropertyOp23
 70
     1
102
RTVSPropertyOp24
 70
     1
102
RTVSPropertyOp25
 70
     1
102
RTVSPropertyOp26
 70
     1
102
RTVSPropertyOp27
 70
     1
102
RTVSPropertyOp28
 70
     1
102
RTVSPropertyOp29
 70
     1
102
RTVSPropertyOp30
 70
     1
102
RTVSPropertyOp31
 70
     1
102
RTVSPropertyOp32
 70
     1
102
RTVSPropertyOp33
 70
     1
102
RTVSPropertyOp34
 70
     1
102
RTVSPropertyOp35
 70
     1
102
RTVSPropertyOp36
 70
     1
102
RTVSPropertyOp37
 70
     1
102
RTVSPropertyOp38
 70
     1
102
RTVSPropertyOp39
 70
     1
102
RTVSPropertyOp40
 70
     1
102
RTVSPropertyOp41
 70
     1
102
RTVSPropertyOp42
 70
     1
102
RTVSPropertyOp43
 70
     1
102
RTVSPropertyOp44
 70
     1
102
RTVSPropertyOp45
 70
     1
102
RTVSPropertyOp46
 70
     1
102
RTVSPropertyOp47
 70
     1
102
RTVSPropertyOp48
 70
     1
102
RTVSPropertyOp49
 70
     1
102
RTVSPropertyOp50
 70
     1
102
RTVSPropertyOp51
 70
     0
102
RTVSPropertyOp52
 70
     0
102
RTVSPropertyOp53
 70
     1
102
RTVSPropertyOp54
 70
     1
102
RTVSPropertyOp55
 70
     1
102
RTVSPropertyOp56
 70
     1
102
RTVSPropertyOp57
 70
     1
102
RTVSPropertyOp58
 70
     1
102
RTVSPropertyOp59
 70
     1
102
RTVSPropertyOp60
 70
     1
102
RTVSPropertyOp61
 70
     1
102
RTVSPropertyOp62
 70
     1
  0
XRECORD
  5
9009
102
{ACAD_REACTORS
330
9008
102
}
330
9008
100
AcDbXrecord
280
     1
102
RTVSPost2010Prop28
280
     0
102
RTVSPost2010PropOp28
 70
     1
102
RTVSPost2010Prop29
280
     1
102
RTVSPost2010PropOp29
 70
     1
102
RTVSPost2010Prop30
280
     1
102
RTVSPost2010PropOp30
 70
     1
102
RTVSPost2010Prop31
280
     0
102
RTVSPost2010PropOp31
 70
     1
102
RTVSPost2010Prop32
280
     0
102
RTVSPost2010PropOp32
 70
     1
102
RTVSPost2010Prop33
280
     0
102
RTVSPost2010PropOp33
 70
     1
102
RTVSPost2010Prop34
280
     0
102
RTVSPost2010PropOp34
 70
     1
102
RTVSPost2010Prop35
280
     0
102
RTVSPost2010PropOp35
 70
     1
102
RTVSPost2010Prop36
280
     0
102
RTVSPost2010PropOp36
 70
     1
102
RTVSPost2010Prop37
 90
       50
102
RTVSPost2010PropOp37
 70
     1
102
RTVSPost2010Prop38
140
0.0
102
RTVSPost2010PropOp38
 70
     1
102
RTVSPost2010Prop39
140
1.0
102
RTVSPost2010PropOp39
 70
     1
102
RTVSPost2010Prop40
 90
        0
102
RTVSPost2010PropOp40
 70
     1
102
RTVSPost2010Prop41ColorIndex
 90
       18
102
RTVSPost2010Prop41ColorRGB
 90
        0
102
RTVSPost2010PropOp41
 70
     1
102
RTVSPost2010Prop42
 90
       50
102
RTVSPost2010PropOp42
 70
     1
102
RTVSPost2010Prop43
 90
        3
102
RTVSPost2010PropOp43
 70
     1
102
RTVSPost2010Prop44ColorIndex
 90
        5
102
RTVSPost2010Prop44ColorRGB
 90
      255
102
RTVSPost2010PropOp44
 70
     1
102
RTVSPost2010Prop45
280
     0
102
RTVSPost2010PropOp45
 70
     1
102
RTVSPost2010Prop46
 90
       50
102
RTVSPost2010PropOp46
 70
     1
102
RTVSPost2010Prop47
 90
       50
102
RTVSPost2010PropOp47
 70
     1
102
RTVSPost2010Prop48
 90
       50
102
RTVSPost2010PropOp48
 70
     1
102
RTVSPost2010Prop49
280
     0
102
RTVSPost2010PropOp49
 70
     1
102
RTVSPost2010Prop50
 90
       50
102
RTVSPost2010PropOp50
 70
     1
102
RTVSPost2010Prop51ColorIndex
 90
      256
102
RTVSPost2010Prop51ColorRGB
 90
-16777216
102
RTVSPost2010PropOp51
 70
     0
102
RTVSPost2010Prop52
140
1.0
102
RTVSPost2010PropOp52
 70
     0
102
RTVSPost2010Prop53
 90
        2
102
RTVSPost2010PropOp53
 70
     1
102
RTVSPost2010Prop54
  1
strokes_ogs.tif
102
RTVSPost2010PropOp54
 70
     1
102
RTVSPost2010Prop55
280
     0
102
RTVSPost2010PropOp55
 70
     1
102
RTVSPost2010Prop56
140
1.0
102
RTVSPost2010PropOp56
 70
     1
102
RTVSPost2010Prop57
140
1.0
102
RTVSPost2010PropOp57
 70
     1
102
RTVSPropertyOp0
 70
     1
102
RTVSPropertyOp1
 70
     1
102
RTVSPropertyOp2
 70
     1
102
RTVSPropertyOp3
 70
     1
102
RTVSPropertyOp4
 70
     1
102
RTVSPropertyOp5
 70
     1
102
RTVSPropertyOp6
 70
     1
102
RTVSPropertyOp7
 70
     1
102
RTVSPropertyOp8
 70
     1
102
RTVSPropertyOp9
 70
     1
102
RTVSPropertyOp10
 70
     1
102
RTVSPropertyOp11
 70
     1
102
RTVSPropertyOp12
 70
     1
102
RTVSPropertyOp13
 70
     1
102
RTVSPropertyOp14
 70
     1
102
RTVSPropertyOp15
 70
     1
102
RTVSPropertyOp16
 70
     1
102
RTVSPropertyOp17
 70
     1
102
RTVSPropertyOp18
 70
     1
102
RTVSPropertyOp19
 70
     1
102
RTVSPropertyOp20
 70
     1
102
RTVSPropertyOp21
 70
     1
102
RTVSPropertyOp22
 70
     1
102
RTVSPropertyOp23
 70
     1
102
RTVSPropertyOp24
 70
     1
102
RTVSPropertyOp25
 70
     1
102
RTVSPropertyOp26
 70
     1
102
RTVSPropertyOp27
 70
     1
102
RTVSPropertyOp28
 70
     1
102
RTVSPropertyOp29
 70
     1
102
RTVSPropertyOp30
 70
     1
102
RTVSPropertyOp31
 70
     1
102
RTVSPropertyOp32
 70
     1
102
RTVSPropertyOp33
 70
     1
102
RTVSPropertyOp34
 70
     1
102
RTVSPropertyOp35
 70
     1
102
RTVSPropertyOp36
 70
     1
102
RTVSPropertyOp37
 70
     1
102
RTVSPropertyOp38
 70
     1
102
RTVSPropertyOp39
 70
     1
102
RTVSPropertyOp40
 70
     1
102
RTVSPropertyOp41
 70
     1
102
RTVSPropertyOp42
 70
     1
102
RTVSPropertyOp43
 70
     1
102
RTVSPropertyOp44
 70
     1
102
RTVSPropertyOp45
 70
     1
102
RTVSPropertyOp46
 70
     1
102
RTVSPropertyOp47
 70
     1
102
RTVSPropertyOp48
 70
     1
102
RTVSPropertyOp49
 70
     1
102
RTVSPropertyOp50
 70
     1
102
RTVSPropertyOp51
 70
     0
102
RTVSPropertyOp52
 70
     0
102
RTVSPropertyOp53
 70
     1
102
RTVSPropertyOp54
 70
     1
102
RTVSPropertyOp55
 70
     1
102
RTVSPropertyOp56
 70
     1
102
RTVSPropertyOp57
 70
     1
102
RTVSPropertyOp58
 70
     1
102
RTVSPropertyOp59
 70
     1
102
RTVSPropertyOp60
 70
     1
102
RTVSPropertyOp61
 70
     1
102
RTVSPropertyOp62
 70
     1
  0
XRECORD
  5
9011
102
{ACAD_REACTORS
330
9010
102
}
330
9010
100
AcDbXrecord
280
     1
102
RTVSPost2010Prop28
280
     0
102
RTVSPost2010PropOp28
 70
     1
102
RTVSPost2010Prop29
280
     1
102
RTVSPost2010PropOp29
 70
     1
102
RTVSPost2010Prop30
280
     1
102
RTVSPost2010PropOp30
 70
     1
102
RTVSPost2010Prop31
280
     0
102
RTVSPost2010PropOp31
 70
     1
102
RTVSPost2010Prop32
280
     0
102
RTVSPost2010PropOp32
 70
     1
102
RTVSPost2010Prop33
280
     0
102
RTVSPost2010PropOp33
 70
     1
102
RTVSPost2010Prop34
280
     0
102
RTVSPost2010PropOp34
 70
     1
102
RTVSPost2010Prop35
280
     0
102
RTVSPost2010PropOp35
 70
     1
102
RTVSPost2010Prop36
280
     0
102
RTVSPost2010PropOp36
 70
     1
102
RTVSPost2010Prop37
 90
       50
102
RTVSPost2010PropOp37
 70
     1
102
RTVSPost2010Prop38
140
0.0
102
RTVSPost2010PropOp38
 70
     1
102
RTVSPost2010Prop39
140
1.0
102
RTVSPost2010PropOp39
 70
     1
102
RTVSPost2010Prop40
 90
        0
102
RTVSPost2010PropOp40
 70
     1
102
RTVSPost2010Prop41ColorIndex
 90
       18
102
RTVSPost2010Prop41ColorRGB
 90
        0
102
RTVSPost2010PropOp41
 70
     1
102
RTVSPost2010Prop42
 90
       50
102
RTVSPost2010PropOp42
 70
     1
102
RTVSPost2010Prop43
 90
        3
102
RTVSPost2010PropOp43
 70
     1
102
RTVSPost2010Prop44ColorIndex
 90
        5
102
RTVSPost2010Prop44ColorRGB
 90
      255
102
RTVSPost2010PropOp44
 70
     1
102
RTVSPost2010Prop45
280
     0
102
RTVSPost2010PropOp45
 70
     1
102
RTVSPost2010Prop46
 90
       50
102
RTVSPost2010PropOp46
 70
     1
102
RTVSPost2010Prop47
 90
       50
102
RTVSPost2010PropOp47
 70
     1
102
RTVSPost2010Prop48
 90
       50
102
RTVSPost2010PropOp48
 70
     1
102
RTVSPost2010Prop49
280
     0
102
RTVSPost2010PropOp49
 70
     1
102
RTVSPost2010Prop50
 90
       50
102
RTVSPost2010PropOp50
 70
     1
102
RTVSPost2010Prop51ColorIndex
 90
      256
102
RTVSPost2010Prop51ColorRGB
 90
-16777216
102
RTVSPost2010PropOp51
 70
     0
102
RTVSPost2010Prop52
140
1.0
102
RTVSPost2010PropOp52
 70
     0
102
RTVSPost2010Prop53
 90
        2
102
RTVSPost2010PropOp53
 70
     1
102
RTVSPost2010Prop54
  1
strokes_ogs.tif
102
RTVSPost2010PropOp54
 70
     1
102
RTVSPost2010Prop55
280
     0
102
RTVSPost2010PropOp55
 70
     1
102
RTVSPost2010Prop56
140
1.0
102
RTVSPost2010PropOp56
 70
     1
102
RTVSPost2010Prop57
140
1.0
102
RTVSPost2010PropOp57
 70
     1
102
RTVSPropertyOp0
 70
     1
102
RTVSPropertyOp1
 70
     1
102
RTVSPropertyOp2
 70
     1
102
RTVSPropertyOp3
 70
     1
102
RTVSPropertyOp4
 70
     1
102
RTVSPropertyOp5
 70
     1
102
RTVSPropertyOp6
 70
     1
102
RTVSPropertyOp7
 70
     1
102
RTVSPropertyOp8
 70
     1
102
RTVSPropertyOp9
 70
     1
102
RTVSPropertyOp10
 70
     1
102
RTVSPropertyOp11
 70
     1
102
RTVSPropertyOp12
 70
     1
102
RTVSPropertyOp13
 70
     1
102
RTVSPropertyOp14
 70
     1
102
RTVSPropertyOp15
 70
     1
102
RTVSPropertyOp16
 70
     1
102
RTVSPropertyOp17
 70
     1
102
RTVSPropertyOp18
 70
     1
102
RTVSPropertyOp19
 70
     1
102
RTVSPropertyOp20
 70
     1
102
RTVSPropertyOp21
 70
     1
102
RTVSPropertyOp22
 70
     1
102
RTVSPropertyOp23
 70
     1
102
RTVSPropertyOp24
 70
     1
102
RTVSPropertyOp25
 70
     1
102
RTVSPropertyOp26
 70
     1
102
RTVSPropertyOp27
 70
     1
102
RTVSPropertyOp28
 70
     1
102
RTVSPropertyOp29
 70
     1
102
RTVSPropertyOp30
 70
     1
102
RTVSPropertyOp31
 70
     1
102
RTVSPropertyOp32
 70
     1
102
RTVSPropertyOp33
 70
     1
102
RTVSPropertyOp34
 70
     1
102
RTVSPropertyOp35
 70
     1
102
RTVSPropertyOp36
 70
     1
102
RTVSPropertyOp37
 70
     1
102
RTVSPropertyOp38
 70
     1
102
RTVSPropertyOp39
 70
     1
102
RTVSPropertyOp40
 70
     1
102
RTVSPropertyOp41
 70
     1
102
RTVSPropertyOp42
 70
     1
102
RTVSPropertyOp43
 70
     1
102
RTVSPropertyOp44
 70
     1
102
RTVSPropertyOp45
 70
     1
102
RTVSPropertyOp46
 70
     1
102
RTVSPropertyOp47
 70
     1
102
RTVSPropertyOp48
 70
     1
102
RTVSPropertyOp49
 70
     1
102
RTVSPropertyOp50
 70
     1
102
RTVSPropertyOp51
 70
     0
102
RTVSPropertyOp52
 70
     0
102
RTVSPropertyOp53
 70
     1
102
RTVSPropertyOp54
 70
     1
102
RTVSPropertyOp55
 70
     1
102
RTVSPropertyOp56
 70
     1
102
RTVSPropertyOp57
 70
     1
102
RTVSPropertyOp58
 70
     1
102
RTVSPropertyOp59
 70
     1
102
RTVSPropertyOp60
 70
     1
102
RTVSPropertyOp61
 70
     1
102
RTVSPropertyOp62
 70
     1
  0
XRECORD
  5
3E6A
102
{ACAD_REACTORS
330
3E69
102
}
330
3E69
100
AcDbXrecord
280
     1
330
4B
  0
ENDSEC
  0
EOF
