  0
SECTION
  2
HEADER
  9
$ACADVER
  1
AC1015
  9
$ACADMAINTVER
 70
    20
  9
$DWGCODEPAGE
  3
ANSI_1252
  9
$INSBASE
 10
0.0
 20
0.0
 30
0.0
  9
$EXTMIN
 10
-0.7047249928162458
 20
-0.5296868975620565
 30
-0.062
  9
$EXTMAX
 10
3.09946908742883
 20
2.095562554397548
 30
0.0
  9
$LIMMIN
 10
0.0
 20
0.0
  9
$LIMMAX
 10
17.0
 20
11.0
  9
$ORTHOMODE
 70
     0
  9
$REGENMODE
 70
     1
  9
$FILLMODE
 70
     1
  9
$QTEXTMODE
 70
     0
  9
$MIRRTEXT
 70
     0
  9
$LTSCALE
 40
1.0
  9
$ATTMODE
 70
     1
  9
$TEXTSIZE
 40
0.2
  9
$TRACEWID
 40
0.05
  9
$TEXTSTYLE
  7
STANDARD
  9
$CLAYER
  8
0
  9
$CELTYPE
  6
ByLayer
  9
$CECOLOR
 62
   256
  9
$CELTSCALE
 40
1.0
  9
$DISPSILH
 70
     0
  9
$DIMSCALE
 40
1.0
  9
$DIMASZ
 40
0.12
  9
$DIMEXO
 40
0.05
  9
$DIMDLI
 40
0.5
  9
$DIMRND
 40
0.0
  9
$DIMDLE
 40
0.0
  9
$DIMEXE
 40
0.1
  9
$DIMTP
 40
0.1
  9
$DIMTM
 40
0.1
  9
$DIMTXT
 40
0.12
  9
$DIMCEN
 40
0.0
  9
$DIMTSZ
 40
0.0
  9
$DIMTOL
 70
     0
  9
$DIMLIM
 70
     0
  9
$DIMTIH
 70
     1
  9
$DIMTOH
 70
     1
  9
$DIMSE1
 70
     0
  9
$DIMSE2
 70
     0
  9
$DIMTAD
 70
     0
  9
$DIMZIN
 70
     7
  9
$DIMBLK
  1

  9
$DIMASO
 70
     1
  9
$DIMSHO
 70
     1
  9
$DIMPOST
  1

  9
$DIMAPOST
  1
mm
  9
$DIMALT
 70
     0
  9
$DIMALTD
 70
     2
  9
$DIMALTF
 40
25.4
  9
$DIMLFAC
 40
1.0
  9
$DIMTOFL
 70
     0
  9
$DIMTVP
 40
0.0
  9
$DIMTIX
 70
     0
  9
$DIMSOXD
 70
     0
  9
$DIMSAH
 70
     0
  9
$DIMBLK1
  1

  9
$DIMBLK2
  1

  9
$DIMSTYLE
  2
AM_ANSI
  9
$DIMCLRD
 70
   256
  9
$DIMCLRE
 70
   256
  9
$DIMCLRT
 70
     2
  9
$DIMTFAC
 40
0.71
  9
$DIMGAP
 40
0.06
  9
$DIMJUST
 70
     0
  9
$DIMSD1
 70
     0
  9
$DIMSD2
 70
     0
  9
$DIMTOLJ
 70
     1
  9
$DIMTZIN
 70
     7
  9
$DIMALTZ
 70
     0
  9
$DIMALTTZ
 70
     0
  9
$DIMUPT
 70
     0
  9
$DIMDEC
 70
     4
  9
$DIMTDEC
 70
     4
  9
$DIMALTU
 70
     2
  9
$DIMALTTD
 70
     4
  9
$DIMTXSTY
  7
STANDARD
  9
$DIMAUNIT
 70
     0
  9
$DIMADEC
 70
     0
  9
$DIMALTRND
 40
0.0
  9
$DIMAZIN
 70
     2
  9
$DIMDSEP
 70
    46
  9
$DIMATFIT
 70
     3
  9
$DIMFRAC
 70
     0
  9
$DIMLDRBLK
  1

  9
$DIMLUNIT
 70
     2
  9
$DIMLWD
 70
    -1
  9
$DIMLWE
 70
    -1
  9
$DIMTMOVE
 70
     0
  9
$LUNITS
 70
     2
  9
$LUPREC
 70
     4
  9
$SKETCHINC
 40
0.1
  9
$FILLETRAD
 40
0.125
  9
$AUNITS
 70
     0
  9
$AUPREC
 70
     0
  9
$MENU
  1
.
  9
$ELEVATION
 40
0.0
  9
$PELEVATION
 40
0.0
  9
$THICKNESS
 40
0.0
  9
$LIMCHECK
 70
     0
  9
$CHAMFERA
 40
0.125
  9
$CHAMFERB
 40
0.125
  9
$CHAMFERC
 40
1.0
  9
$CHAMFERD
 40
0.0
  9
$SKPOLY
 70
     0
  9
$TDCREATE
 40
2456157.432928287
  9
$TDUCREATE
 40
2456157.599594954
  9
$TDUPDATE
 40
2456905.703715336
  9
$TDUUPDATE
 40
2456905.870382002
  9
$TDINDWG
 40
0.0009990509
  9
$TDUSRTIMER
 40
0.0009988310
  9
$USRTIMER
 70
     1
  9
$ANGBASE
 50
0.0
  9
$ANGDIR
 70
     0
  9
$PDMODE
 70
     0
  9
$PDSIZE
 40
0.0
  9
$PLINEWID
 40
0.0
  9
$SPLFRAME
 70
     0
  9
$SPLINETYPE
 70
     6
  9
$SPLINESEGS
 70
     8
  9
$HANDSEED
  5
AC9
  9
$SURFTAB1
 70
     6
  9
$SURFTAB2
 70
     6
  9
$SURFTYPE
 70
     6
  9
$SURFU
 70
     6
  9
$SURFV
 70
     6
  9
$UCSBASE
  2

  9
$UCSNAME
  2

  9
$UCSORG
 10
0.0
 20
0.0
 30
0.0
  9
$UCSXDIR
 10
1.0
 20
0.0
 30
0.0
  9
$UCSYDIR
 10
0.0
 20
1.0
 30
0.0
  9
$UCSORTHOREF
  2

  9
$UCSORTHOVIEW
 70
     0
  9
$UCSORGTOP
 10
0.0
 20
0.0
 30
0.0
  9
$UCSORGBOTTOM
 10
0.0
 20
0.0
 30
0.0
  9
$UCSORGLEFT
 10
0.0
 20
0.0
 30
0.0
  9
$UCSORGRIGHT
 10
0.0
 20
0.0
 30
0.0
  9
$UCSORGFRONT
 10
0.0
 20
0.0
 30
0.0
  9
$UCSORGBACK
 10
0.0
 20
0.0
 30
0.0
  9
$PUCSBASE
  2

  9
$PUCSNAME
  2

  9
$PUCSORG
 10
0.0
 20
0.0
 30
0.0
  9
$PUCSXDIR
 10
1.0
 20
0.0
 30
0.0
  9
$PUCSYDIR
 10
0.0
 20
1.0
 30
0.0
  9
$PUCSORTHOREF
  2

  9
$PUCSORTHOVIEW
 70
     0
  9
$PUCSORGTOP
 10
0.0
 20
0.0
 30
0.0
  9
$PUCSORGBOTTOM
 10
0.0
 20
0.0
 30
0.0
  9
$PUCSORGLEFT
 10
0.0
 20
0.0
 30
0.0
  9
$PUCSORGRIGHT
 10
0.0
 20
0.0
 30
0.0
  9
$PUCSORGFRONT
 10
0.0
 20
0.0
 30
0.0
  9
$PUCSORGBACK
 10
0.0
 20
0.0
 30
0.0
  9
$USERI1
 70
     0
  9
$USERI2
 70
     0
  9
$USERI3
 70
     0
  9
$USERI4
 70
     0
  9
$USERI5
 70
     0
  9
$USERR1
 40
0.0
  9
$USERR2
 40
0.0
  9
$USERR3
 40
0.0
  9
$USERR4
 40
0.0
  9
$USERR5
 40
0.0
  9
$WORLDVIEW
 70
     1
  9
$SHADEDGE
 70
     3
  9
$SHADEDIF
 70
    70
  9
$TILEMODE
 70
     1
  9
$MAXACTVP
 70
    64
  9
$PINSBASE
 10
0.0
 20
0.0
 30
0.0
  9
$PLIMCHECK
 70
     0
  9
$PEXTMIN
 10
1.000000000000000E+20
 20
1.000000000000000E+20
 30
1.000000000000000E+20
  9
$PEXTMAX
 10
-1.000000000000000E+20
 20
-1.000000000000000E+20
 30
-1.000000000000000E+20
  9
$PLIMMIN
 10
0.0
 20
0.0
  9
$PLIMMAX
 10
12.0
 20
9.0
  9
$UNITMODE
 70
     0
  9
$VISRETAIN
 70
     1
  9
$PLINEGEN
 70
     0
  9
$PSLTSCALE
 70
     1
  9
$TREEDEPTH
 70
  3020
  9
$CMLSTYLE
  2
Standard
  9
$CMLJUST
 70
     0
  9
$CMLSCALE
 40
1.0
  9
$PROXYGRAPHICS
 70
     1
  9
$MEASUREMENT
 70
     0
  9
$CELWEIGHT
370
    -1
  9
$ENDCAPS
280
     0
  9
$JOINSTYLE
280
     0
  9
$LWDISPLAY
290
     0
  9
$INSUNITS
 70
     1
  9
$HYPERLINKBASE
  1

  9
$STYLESHEET
  1

  9
$XEDIT
290
     1
  9
$CEPSNTYPE
380
     0
  9
$PSTYLEMODE
290
     1
  9
$FINGERPRINTGUID
  2
{E64C3854-E0EF-4336-9709-28396536368B}
  9
$VERSIONGUID
  2
{A1DDF480-9E50-4247-8CE1-9800CDBACF1B}
  9
$EXTNAMES
290
     1
  9
$PSVPSCALE
 40
0.0
  9
$OLESTARTUP
290
     0
  0
ENDSEC
  0
SECTION
  2
CLASSES
  0
CLASS
  1
ACDBDICTIONARYWDFLT
  2
AcDbDictionaryWithDefault
  3
ObjectDBX Classes
 90
        0
280
     0
281
     0
  0
CLASS
  1
ACDBPLACEHOLDER
  2
AcDbPlaceHolder
  3
ObjectDBX Classes
 90
        0
280
     0
281
     0
  0
CLASS
  1
LAYOUT
  2
AcDbLayout
  3
ObjectDBX Classes
 90
        0
280
     0
281
     0
  0
CLASS
  1
ACME_DOCUMENT
  2
AcMeDbDoc
  3
AcMeServices
 90
     1024
280
     0
281
     0
  0
CLASS
  1
AMGSETTINGSOBJ
  2
AmgSettingsObj
  3
"AcadM|Product Description: AutoCAD Mechanical|Company: Autodesk, Inc."
 90
     1024
280
     0
281
     0
  0
CLASS
  1
ACMESCOPE
  2
AcMeScope
  3
AcMeServices
 90
     1024
280
     0
281
     0
  0
CLASS
  1
ACMECOMMANDHISTORY
  2
AcMeCommandHistory
  3
AcMeServices
 90
     1024
280
     0
281
     0
  0
CLASS
  1
ACIMSYSVARMAN
  2
AcImSysVarManager
  3
AcMeServices
 90
     1024
280
     0
281
     0
  0
CLASS
  1
ACIMREALSYSVAR
  2
AcImRealSysVar
  3
AcMeServices
 90
    33792
280
     0
281
     0
  0
CLASS
  1
ACIMINTSYSVAR
  2
AcImIntSysVar
  3
AcMeServices
 90
     1024
280
     0
281
     0
  0
CLASS
  1
ACMEDRAWINGMAN
  2
AcMeDrawingMan
  3
AcMeServices
 90
    33792
280
     0
281
     0
  0
CLASS
  1
ACMEVIEW
  2
AcMeView
  3
AcMeServices
 90
    33792
280
     0
281
     0
  0
CLASS
  1
ACDBENTITYCACHE
  2
AcMeEntityCache
  3
AcMeServices
 90
     1024
280
     0
281
     0
  0
CLASS
  1
GSMANAGER
  2
AcMeGSManager
  3
AcMeServices
 90
    33792
280
     0
281
     0
  0
CLASS
  1
AMDTINTERNALREACTOR
  2
AmdtInternalReactor
  3
AcMeServices
 90
    33792
280
     0
281
     0
  0
CLASS
  1
ACMESTATEMGR
  2
AcMeStateMgr
  3
AcMeServices
 90
     1024
280
     0
281
     0
  0
CLASS
  1
ACGREFMASTER
  2
AcGrefMaster
  3
AcAttribServices
 90
     1024
280
     0
281
     0
  0
CLASS
  1
ACME_DATABASE
  2
AcMeDbDatabase
  3
AcMeServices
 90
     1024
280
     0
281
     0
  0
CLASS
  1
ACRFINSADJUSTERMGR
  2
AcRfInsAdjusterMgr
  3
AcMeServices
 90
     1024
280
     0
281
     0
  0
CLASS
  1
ACGREFACADMASTER
  2
AcGrefacadMaster
  3
AcGrefServices
 90
     1024
280
     0
281
     0
  0
CLASS
  1
AMIMASTER
  2
AmiMaster
  3
AmiServices
 90
     1024
280
     0
281
     0
  0
CLASS
  1
ACMDATADICTIONARY
  2
AcmDataDictionary
  3
"AcmSymBB|Product Description: AutoCAD Mechanical|Company: Autodesk, Inc."
 90
     1024
280
     0
281
     0
  0
CLASS
  1
ACMDATAENTRYBLOCK
  2
AcmDataEntryBlock
  3
AcmSymBB|Product Description: AutoCAD Mechanical|Company: Autodesk, Inc.
 90
    33792
280
     0
281
     0
  0
CLASS
  1
ACIMSTRSYSVAR
  2
AcImStrSysVar
  3
AcMeServices
 90
     1024
280
     0
281
     0
  0
CLASS
  1
ACMSTANDARDANSI
  2
AcmStandardANSI
  3
"Amdt_StdImp|Product Description: AutoCAD Mechanical|Company: Autodesk, Inc."
 90
     1024
280
     0
281
     0
  0
CLASS
  1
AMGOBJPROPCFG
  2
AmgObjPropCfg
  3
"AmgLay|Product Description: AutoCAD Mechanical|Company: Autodesk, Inc."
 90
     1024
280
     0
281
     0
  0
CLASS
  1
ACMSURFSTANDARDANSI
  2
AcmSurfTextStdANSI
  3
"Amdt_StdImp|Product Description: AutoCAD Mechanical|Company: Autodesk, Inc."
 90
     1024
280
     0
281
     0
  0
CLASS
  1
ACMFCFSTANDARDANSI
  2
AcmFCFStdANSI
  3
"Amdt_StdImp|Product Description: AutoCAD Mechanical|Company: Autodesk, Inc."
 90
     1024
280
     0
281
     0
  0
CLASS
  1
ACMWELDSTANDARDANSI
  2
AcmWeldingStdANSI
  3
"Amdt_StdImp|Product Description: AutoCAD Mechanical|Company: Autodesk, Inc."
 90
     1024
280
     0
281
     0
  0
CLASS
  1
ACMIDSTANDARDANSI
  2
AcmIdStdANSI
  3
"Amdt_StdImp|Product Description: AutoCAD Mechanical|Company: Autodesk, Inc."
 90
     1024
280
     0
281
     0
  0
CLASS
  1
ACMDATUMSTANDARDANSI
  2
AcmDatumStdANSI
  3
"Amdt_StdImp|Product Description: AutoCAD Mechanical|Company: Autodesk, Inc."
 90
     1024
280
     0
281
     0
  0
CLASS
  1
ACMBOMSTANDARDANSI
  2
AcmBOMStdANSI
  3
"Amdt_StdImp|Product Description: AutoCAD Mechanical|Company: Autodesk, Inc."
 90
     1024
280
     0
281
     0
  0
CLASS
  1
ACMDETAILSTANDARDANSI
  2
AmdtDetailSymStdANSI
  3
"Amdt_StdImp|Product Description: AutoCAD Mechanical|Company: Autodesk, Inc."
 90
     1024
280
     0
281
     0
  0
CLASS
  1
ACMSECTIONSTANDARDANSI
  2
AmdtSectionSymStdANSI
  3
"Amdt_StdImp|Product Description: AutoCAD Mechanical|Company: Autodesk, Inc."
 90
     1024
280
     0
281
     0
  0
CLASS
  1
ACMCENTERLINESTANDARDANSI
  2
AmdtCenterLineStdANSI
  3
"Amdt_StdImp|Product Description: AutoCAD Mechanical|Company: Autodesk, Inc."
 90
     1024
280
     0
281
     0
  0
CLASS
  1
ACMNOTESTANDARDANSI
  2
AmdtNoteStdANSI
  3
"Amdt_StdImp|Product Description: AutoCAD Mechanical|Company: Autodesk, Inc."
 90
     1024
280
     0
281
     0
  0
CLASS
  1
ACAMGLAYSTD
  2
AcAmgLayStd
  3
"AmgLay|Product Description: AutoCAD Mechanical|Company: Autodesk, Inc."
 90
     1024
280
     0
281
     0
  0
CLASS
  1
ACAMGDIMSTD
  2
AcAmgDimStd
  3
"AmgDim|Product Description: AutoCAD Mechanical|Company: Autodesk, Inc."
 90
     1024
280
     0
281
     0
  0
CLASS
  1
ACAMGHOLECHARTSTDANSI
  2
AcAmgHoleChartStdANSI
  3
AmgDim|Product Description: AutoCAD Mechanical|Company: Autodesk, Inc.
 90
     1024
280
     0
281
     0
  0
CLASS
  1
ACAMGTITLESTD
  2
AcAmgTitleStd
  3
"AmgTitle|Product Description: AutoCAD Mechanical|Company: Autodesk, Inc."
 90
     1024
280
     0
281
     0
  0
CLASS
  1
LAYER_INDEX
  2
AcDbLayerIndex
  3
ObjectDBX Classes
 90
    32768
280
     0
281
     0
  0
CLASS
  1
IDBUFFER
  2
AcDbIdBuffer
  3
ObjectDBX Classes
 90
    32768
280
     0
281
     0
  0
CLASS
  1
DICTIONARYVAR
  2
AcDbDictionaryVar
  3
ObjectDBX Classes
 90
        0
280
     0
281
     0
  0
CLASS
  1
AM_DRAWING_MGR
  2
AcDmDwgMgr
  3
AcMechDwgViewMgmt
 90
    33792
280
     0
281
     0
  0
CLASS
  1
AM_DWG_DOCUMENT
  2
AcDmDwgDocument
  3
AcMechDwgViewMgmt
 90
    33792
280
     0
281
     0
  0
CLASS
  1
AM_DWG_SHEET
  2
AcDmSheet
  3
AcMechDwgViewMgmt
 90
    33792
280
     0
281
     0
  0
CLASS
  1
AM_VIEWDIMPARMAP
  2
AcDmViewDimParMap
  3
AcMechDwgViewMgmt
 90
    33792
280
     0
281
     0
  0
CLASS
  1
AM_DWGMGR_NAME
  2
AcDmDwgMgrName
  3
AcMechDwgViewMgmt
 90
    33792
280
     0
281
     0
  0
CLASS
  1
AMDTMENUSTATEMGR
  2
AmdtMenuStateMgr
  3
McadcomServices
 90
     1024
280
     0
281
     0
  0
CLASS
  1
AMDTMCOMMENUSTATE
  2
AmdtMcomMenuState
  3
McadcomServices
 90
     1024
280
     0
281
     0
  0
CLASS
  1
MAPIAMMOUDLE
  2
MApiAmModule
  3
MApiAmServices
 90
     1024
280
     0
281
     0
  0
CLASS
  1
AMDTADMENUSTATE
  2
AmdtAdMenuState
  3
DesignerServices
 90
    33792
280
     0
281
     0
  0
CLASS
  1
ADAPPL
  2
AcAdAppl
  3
DesignerAssemblies
 90
    33792
280
     0
281
     0
  0
CLASS
  1
DEPMGR
  2
AcAdDepMgr
  3
DesignerAssemblies
 90
    33792
280
     0
281
     0
  0
CLASS
  1
PARAMMGR
  2
AcAdParamMgr
  3
DesignerAssemblies
 90
    33792
280
     0
281
     0
  0
CLASS
  1
PARAMSCOPE
  2
AcAdParamScope
  3
DesignerAssemblies
 90
    33792
280
     0
281
     0
  0
CLASS
  1
NAMEDAPPL
  2
AcAdNamedAppl
  3
DesignerAssemblies
 90
    33792
280
     0
281
     0
  0
CLASS
  1
AMDTDMMENUSTATE
  2
AmdtDmMenuState
  3
AcMechDwgViewMgmt
 90
    33792
280
     0
281
     0
  0
CLASS
  1
AMDTAMMENUSTATE
  2
AmdtAmMenuState
  3
DesignerAssemblies
 90
     1024
280
     0
281
     0
  0
CLASS
  1
ACAMPROJECT
  2
AcAmProject
  3
DesignerAssemblies
 90
     1024
280
     0
281
     0
  0
CLASS
  1
ACAMGRCOMPDEF
  2
AcAmGrCompDef
  3
DesignerAssemblies
 90
     1024
280
     0
281
     0
  0
CLASS
  1
ACCMCONTEXT
  2
AcCmContext
  3
DesignerAssemblies
 90
    33792
280
     0
281
     0
  0
CLASS
  1
ACAMCOMPDEF
  2
AcAmCompDef
  3
DesignerAssemblies
 90
     1024
280
     0
281
     0
  0
CLASS
  1
ACAMCOMPDEFMGR
  2
AcAmCompDefMgr
  3
DesignerAssemblies
 90
     1024
280
     0
281
     0
  0
CLASS
  1
AMCONTEXTMGR
  2
AcAmContextMgr
  3
DesignerAssemblies
 90
     1024
280
     0
281
     0
  0
CLASS
  1
ACAMCONTEXTMODELER
  2
AcAmContextModeler
  3
DesignerAssemblies
 90
     1024
280
     0
281
     0
  0
CLASS
  1
ACMTHREADLINESTANDARDANSI
  2
AmdtThreadLineStdANSI
  3
"Amdt_StdImp|Product Description: AutoCAD Mechanical|Company: Autodesk, Inc."
 90
     1024
280
     0
281
     0
  0
CLASS
  1
CATALOGSTATE
  2
AcAmCatalogState
  3
DesignerAssemblies
 90
    33792
280
     0
281
     0
  0
CLASS
  1
ACAMGRCOMPDEFSET
  2
AcAmGrCompDefSet
  3
DesignerAssemblies
 90
     1024
280
     0
281
     0
  0
CLASS
  1
AMDTBROWSERDBTAB
  2
AmdtBrowserDbTab
  3
McadcomServices
 90
     1024
280
     0
281
     0
  0
CLASS
  1
CBROWSERAPPOBJECT
  2
CBrowserAppObject
  3
McadcomServices
 90
     1024
280
     0
281
     0
  0
CLASS
  1
DM_PLACEHOLDER
  2
AcDmSelsetPlaceholder
  3
McadcomServices
 90
     1024
280
     0
281
     0
  0
CLASS
  1
TABLESTYLE
  2
AcDbTableStyle
  3
ObjectDBX Classes
 90
     4095
280
     0
281
     0
  0
CLASS
  1
AMDTNOTETEMPLATEDB
  2
AmdtNoteTemplateDB
  3
AcmSymBB|Product Description: AutoCAD Mechanical|Company: Autodesk, Inc.
 90
     1024
280
     0
281
     0
  0
CLASS
  1
MATERIAL
  2
AcDbMaterial
  3
ObjectDBX Classes
 90
     1153
280
     0
281
     0
  0
CLASS
  1
VISUALSTYLE
  2
AcDbVisualStyle
  3
ObjectDBX Classes
 90
     4095
280
     0
281
     0
  0
CLASS
  1
ACRFATTGENMGR
  2
AcRfAttGeneralMgr
  3
AcAttribServices
 90
    33792
280
     0
281
     0
  0
CLASS
  1
ACRFOBJATTMGR
  2
AcRfObjAttGroupMgr
  3
AcAttribServices
 90
    33792
280
     0
281
     0
  0
CLASS
  1
ACRFMCADAPIATTHOLDER
  2
AcRfMCADAPIAttHolder
  3
AcAttribServices
 90
    33792
280
     0
281
     0
  0
CLASS
  1
AMDTSYSATTR
  2
AmdtSystemAttribute
  3
AcAttribServices
 90
    33792
280
     0
281
     0
  0
CLASS
  1
ACMTAPERSTANDARDANSI
  2
AcmTaperStdANSI
  3
"Amdt_StdImp|Product Description: AutoCAD Mechanical|Company: Autodesk, Inc."
 90
     1024
280
     0
281
     0
  0
CLASS
  1
CAMSSTRUCTBTNSTATE
  2
StructBtnState
  3
DesignerAssemblies
 90
    33792
280
     0
281
     0
  0
CLASS
  1
SCALE
  2
AcDbScale
  3
ObjectDBX Classes
 90
     1153
280
     0
281
     0
  0
CLASS
  1
MLEADERSTYLE
  2
AcDbMLeaderStyle
  3
ACDB_MLEADERSTYLE_CLASS
 90
     4095
280
     0
281
     0
  0
CLASS
  1
ACMANOOTATIONVIEWSTANDARDANSI
  2
AmdtAnViewStdANSI
  3
"Amdt_StdImp|Product Description: AutoCAD Mechanical|Company: Autodesk, Inc."
 90
     1024
280
     0
281
     0
  0
CLASS
  1
CELLSTYLEMAP
  2
AcDbCellStyleMap
  3
ObjectDBX Classes
 90
     1152
280
     0
281
     0
  0
CLASS
  1
EXACXREFPANELOBJECT
  2
ExAcXREFPanelObject
  3
EXAC_ESW
 90
    33793
280
     0
281
     0
  0
CLASS
  1
NPOCOLLECTION
  2
AcDbImpNonPersistentObjectsCollection
  3
ObjectDBX Classes
 90
    33921
280
     0
281
     0
  0
CLASS
  1
SORTENTSTABLE
  2
AcDbSortentsTable
  3
ObjectDBX Classes
 90
        0
280
     0
281
     0
  0
CLASS
  1
ACAMGFILTERDAT
  2
AcAmgFilterDat
  3
"AcadM|Product Description: AutoCAD Mechanical|Company: Autodesk, Inc."
 90
    33792
280
     0
281
     0
  0
CLASS
  1
ACDBSECTIONVIEWSTYLE
  2
AcDbSectionViewStyle
  3
ObjectDBX Classes
 90
     1025
280
     0
281
     0
  0
CLASS
  1
ACDBDETAILVIEWSTYLE
  2
AcDbDetailViewStyle
  3
ObjectDBX Classes
 90
     1025
280
     0
281
     0
  0
ENDSEC
  0
SECTION
  2
TABLES
  0
TABLE
  2
VPORT
  5
8
330
0
100
AcDbSymbolTable
 70
     1
  0
VPORT
  5
291
330
8
100
AcDbSymbolTableRecord
100
AcDbViewportTableRecord
  2
*Active
 70
     0
 10
0.0
 20
0.0
 11
1.0
 21
1.0
 12
1.434510852433564
 22
0.9184417669498753
 13
0.0
 23
0.0
 14
0.125
 24
0.125
 15
1.0
 25
1.0
 16
0.0
 26
0.0
 36
1.0
 17
0.0
 27
0.0
 37
0.0
 40
3.764590064681356
 41
2.035582822085889
 42
50.0
 43
0.0
 44
0.0
 50
0.0
 51
0.0
 71
     0
 72
   100
 73
     1
 74
     3
 75
     0
 76
     0
 77
     0
 78
     0
281
     0
 65
     0
110
0.0
120
0.0
130
0.0
111
1.0
121
0.0
131
0.0
112
0.0
122
1.0
132
0.0
 79
     0
146
0.0
1001
ACAD_NAV_VCDISPLAY
1070
     3
  0
ENDTAB
  0
TABLE
  2
LTYPE
  5
5
330
0
100
AcDbSymbolTable
 70
    16
  0
LTYPE
  5
14
330
5
100
AcDbSymbolTableRecord
100
AcDbLinetypeTableRecord
  2
ByBlock
 70
     0
  3

 72
    65
 73
     0
 40
0.0
  0
LTYPE
  5
15
330
5
100
AcDbSymbolTableRecord
100
AcDbLinetypeTableRecord
  2
ByLayer
 70
     0
  3

 72
    65
 73
     0
 40
0.0
  0
LTYPE
  5
16
330
5
100
AcDbSymbolTableRecord
100
AcDbLinetypeTableRecord
  2
Continuous
 70
     0
  3
Solid line
 72
    65
 73
     0
 40
0.0
  0
LTYPE
  5
6C
330
5
100
AcDbSymbolTableRecord
100
AcDbLinetypeTableRecord
  2
AM_ISO02W050
 70
     0
  3
__ __ __ __ __ __ __ __ __ __ __ __ __ __ __
 72
    65
 73
     2
 40
7.5
 49
6.0
 74
     0
 49
-1.5
 74
     0
  0
LTYPE
  5
6D
330
5
100
AcDbSymbolTableRecord
100
AcDbLinetypeTableRecord
  2
AM_ISO08W050
 70
     0
  3
____ . ____ . ____ . ____ . ____ . ____ . ____
 72
    65
 73
     4
 40
18.0
 49
12.0
 74
     0
 49
-1.5
 74
     0
 49
3.0
 74
     0
 49
-1.5
 74
     0
  0
LTYPE
  5
6E
330
5
100
AcDbSymbolTableRecord
100
AcDbLinetypeTableRecord
  2
AM_ISO09W050
 70
     0
  3
_____ . . _____ . . _____ . . ____ .. ____
 72
    65
 73
     6
 40
22.5
 49
12.0
 74
     0
 49
-1.5
 74
     0
 49
3.0
 74
     0
 49
-1.5
 74
     0
 49
3.0
 74
     0
 49
-1.5
 74
     0
  0
LTYPE
  5
6F
330
5
100
AcDbSymbolTableRecord
100
AcDbLinetypeTableRecord
  2
Amconstr
 70
     0
  3
_______________________
 72
    65
 73
     2
 40
9999.0
 49
9999.0
 74
     0
 49
0.0
 74
     0
  0
LTYPE
  5
70
330
5
100
AcDbSymbolTableRecord
100
AcDbLinetypeTableRecord
  2
AM_ISO08W050x2
 70
     0
  3
__ . __ . __ . __ . __ . __
 72
    65
 73
     4
 40
9.0
 49
6.0
 74
     0
 49
-0.75
 74
     0
 49
1.5
 74
     0
 49
-0.75
 74
     0
  0
LTYPE
  5
71
330
5
100
AcDbSymbolTableRecord
100
AcDbLinetypeTableRecord
  2
AM_ISO02W050x2
 70
     0
  3
 _ _ _ _ _ _ _ _ _ _ _ _
 72
    65
 73
     2
 40
3.75
 49
3.0
 74
     0
 49
-0.75
 74
     0
  0
LTYPE
  5
74
330
5
100
AcDbSymbolTableRecord
100
AcDbLinetypeTableRecord
  2
Amzigzag
 70
     0
  3
/\/-/\/-/\/-/\/-/\/-/\/
 72
    65
 73
     2
 40
11.0001
 49
0.0001
 74
     4
 75
   136
340
254
 46
0.04
 50
0.0
 44
0.0
 45
0.0
 49
-11.0
 74
     0
  0
LTYPE
  5
75
330
5
100
AcDbSymbolTableRecord
100
AcDbLinetypeTableRecord
  2
HIDDEN
 70
     0
  3
Hidden __ __ __ __ __ __ __ __ __ __ __ __ __ _
 72
    65
 73
     2
 40
0.375
 49
0.25
 74
     0
 49
-0.125
 74
     0
  0
LTYPE
  5
76
330
5
100
AcDbSymbolTableRecord
100
AcDbLinetypeTableRecord
  2
CENTER
 70
     0
  3
Center ____ _ ____ _ ____ _ ____ _ ____ _ ____
 72
    65
 73
     4
 40
2.0
 49
1.25
 74
     0
 49
-0.25
 74
     0
 49
0.25
 74
     0
 49
-0.25
 74
     0
  0
LTYPE
  5
77
330
5
100
AcDbSymbolTableRecord
100
AcDbLinetypeTableRecord
  2
PHANTOM2
 70
     0
  3
Phantom (.5x) ___ _ _ ___ _ _ ___ _ _ ___ _ _
 72
    65
 73
     6
 40
1.25
 49
0.625
 74
     0
 49
-0.125
 74
     0
 49
0.125
 74
     0
 49
-0.125
 74
     0
 49
0.125
 74
     0
 49
-0.125
 74
     0
  0
LTYPE
  5
78
330
5
100
AcDbSymbolTableRecord
100
AcDbLinetypeTableRecord
  2
CENTER2
 70
     0
  3
Center (.5x) ___ _ ___ _ ___ _ ___ _ ___ _ ___
 72
    65
 73
     4
 40
1.125
 49
0.75
 74
     0
 49
-0.125
 74
     0
 49
0.125
 74
     0
 49
-0.125
 74
     0
  0
LTYPE
  5
79
330
5
100
AcDbSymbolTableRecord
100
AcDbLinetypeTableRecord
  2
HIDDEN2
 70
     0
  3
Hidden (.5x) _ _ _ _ _ _ _ _ _ _ _ _ _ _ _ _ _
 72
    65
 73
     2
 40
0.1875
 49
0.125
 74
     0
 49
-0.0625
 74
     0
  0
LTYPE
  5
7A
330
5
100
AcDbSymbolTableRecord
100
AcDbLinetypeTableRecord
  2
Amzigzag2
 70
     0
  3
/\/-/\/-/\/-/\/-/\/-/\/
 72
    65
 73
     2
 40
0.4401
 49
0.0001
 74
     4
 75
   136
340
254
 46
0.0016
 50
0.0
 44
0.0
 45
0.0
 49
-0.4400000000000002
 74
     0
  0
LTYPE
  5
87
330
5
100
AcDbSymbolTableRecord
100
AcDbLinetypeTableRecord
  2
ACANSTGB
 70
     0
  3
__ . . __ . .
 72
    65
 73
     6
 40
0.35433070866
 49
0.15748031496
 74
     0
 49
-0.03937007874
 74
     0
 49
0.03937007874
 74
     0
 49
-0.03937007874
 74
     0
 49
0.03937007874
 74
     0
 49
-0.03937007874
 74
     0
  0
LTYPE
  5
88
330
5
100
AcDbSymbolTableRecord
100
AcDbLinetypeTableRecord
  2
ACANSTGL
 70
     0
  3
_ _ _ _ _
 72
    65
 73
     2
 40
0.11811023622
 49
0.07874015748
 74
     0
 49
-0.03937007874
 74
     0
  0
ENDTAB
  0
TABLE
  2
LAYER
  5
2
102
{ACAD_XDICTIONARY
360
3F2
102
}
330
0
100
AcDbSymbolTable
 70
     6
  0
LAYER
  5
10
102
{ACAD_XDICTIONARY
360
9C6
102
}
330
2
100
AcDbSymbolTableRecord
100
AcDbLayerTableRecord
  2
0
 70
     0
 62
     7
  6
Continuous
370
    -3
390
F
  0
LAYER
  5
3E3
102
{ACAD_XDICTIONARY
360
3E4
102
}
330
2
100
AcDbSymbolTableRecord
100
AcDbLayerTableRecord
  2
Text
 70
     0
 62
     3
  6
Continuous
370
    -3
390
F
1001
RAK
1000
{ACET-LAYISO
1070
     0
1070
     3
1000
Continuous
1071
       -3
1071
        1
1005
F
1000
ACET-LAYISO}
  0
LAYER
  5
3E5
102
{ACAD_XDICTIONARY
360
3E6
102
}
330
2
100
AcDbSymbolTableRecord
100
AcDbLayerTableRecord
  2
PCB_TOP
 70
     0
 62
     5
  6
Continuous
370
    -3
390
F
1001
RAK
1000
{ACET-LAYISO
1070
     0
1070
     5
1000
Continuous
1070
     1
1071
       -3
1071
        1
1005
F
1000
ACET-LAYISO}
  0
LAYER
  5
3E7
102
{ACAD_XDICTIONARY
360
3E8
102
}
330
2
100
AcDbSymbolTableRecord
100
AcDbLayerTableRecord
  2
PCB_BOT
 70
     0
 62
     1
  6
Continuous
370
    -3
390
F
1001
RAK
1000
{ACET-LAYISO
1070
     0
1070
     1
1000
Continuous
1071
       -3
1071
        1
1005
F
1000
ACET-LAYISO}
  0
LAYER
  5
3E9
102
{ACAD_XDICTIONARY
360
3EA
102
}
330
2
100
AcDbSymbolTableRecord
100
AcDbLayerTableRecord
  2
PCB_OUTLINE
 70
     0
 62
   142
  6
Continuous
370
    -3
390
F
1001
RAK
1000
{ACET-LAYISO
1070
     0
1070
   142
1000
Continuous
1071
       -3
1071
        1
1005
F
1000
ACET-LAYISO}
  0
LAYER
  5
3EB
102
{ACAD_XDICTIONARY
360
9CC
102
}
330
2
100
AcDbSymbolTableRecord
100
AcDbLayerTableRecord
  2
Part
 70
     0
 62
     1
  6
Continuous
370
    -3
390
F
1001
AcAecLayerStandard
1000

1000

  0
ENDTAB
  0
TABLE
  2
STYLE
  5
3
330
0
100
AcDbSymbolTable
 70
    10
  0
STYLE
  5
11
330
3
100
AcDbSymbolTableRecord
100
AcDbTextStyleTableRecord
  2
STANDARD
 70
     0
 40
0.0
 41
1.0
 50
0.0
 71
     0
 42
0.2
  3
ROMANS.SHX
  4

  0
STYLE
  5
73
330
3
100
AcDbSymbolTableRecord
100
AcDbTextStyleTableRecord
  2

 70
     1
 40
0.0
 41
1.0
 50
0.0
 71
     0
 42
0.2
  3
ltypeshp.shx
  4

  0
STYLE
  5
7B
330
3
100
AcDbSymbolTableRecord
100
AcDbTextStyleTableRecord
  2
ACANSTS
 70
     0
 40
1.0
 41
1.0
 50
0.0
 71
     0
 42
0.2
  3
romans.shx
  4

  0
STYLE
  5
86
330
3
100
AcDbSymbolTableRecord
100
AcDbTextStyleTableRecord
  2
ACANSGDT
 70
     0
 40
0.0
 41
1.0
 50
0.0
 71
     0
 42
0.2
  3
amgdt.shx
  4

  0
STYLE
  5
13F
330
3
100
AcDbSymbolTableRecord
100
AcDbTextStyleTableRecord
  2
USER1
 70
     0
 40
0.0
 41
1.0
 50
0.0
 71
     0
 42
0.2
  3
TXT.SHX
  4

  0
STYLE
  5
140
330
3
100
AcDbSymbolTableRecord
100
AcDbTextStyleTableRecord
  2
USER2
 70
     0
 40
0.0
 41
1.0
 50
0.0
 71
     0
 42
0.2
  3
SIMPLEX.SHX
  4

  0
STYLE
  5
141
330
3
100
AcDbSymbolTableRecord
100
AcDbTextStyleTableRecord
  2
USER3
 70
     0
 40
0.0
 41
1.0
 50
0.0
 71
     0
 42
0.2
  3
ITALIC.SHX
  4

  0
STYLE
  5
254
330
3
100
AcDbSymbolTableRecord
100
AcDbTextStyleTableRecord
  2

 70
     1
 40
0.0
 41
1.0
 50
0.0
 71
     0
 42
0.2
  3
genltshp.shx
  4

  0
STYLE
  5
3EC
330
3
100
AcDbSymbolTableRecord
100
AcDbTextStyleTableRecord
  2
ROMANS
 70
     0
 40
0.0
 41
1.0
 50
0.0
 71
     0
 42
0.1
  3
C:\ACADWIN\FONTS\AU100S00.SHX
  4

  0
STYLE
  5
3ED
330
3
100
AcDbSymbolTableRecord
100
AcDbTextStyleTableRecord
  2
ARIAL
 70
     0
 40
0.0
 41
1.0
 50
0.0
 71
     0
 42
0.2452744685283672
  3
arial.ttf
  4

1001
ACAD
1000
Arial
1071
       34
  0
ENDTAB
  0
TABLE
  2
VIEW
  5
6
330
0
100
AcDbSymbolTable
 70
     0
  0
ENDTAB
  0
TABLE
  2
UCS
  5
7
330
0
100
AcDbSymbolTable
 70
     0
  0
ENDTAB
  0
TABLE
  2
APPID
  5
9
330
0
100
AcDbSymbolTable
 70
    21
  0
APPID
  5
12
330
9
100
AcDbSymbolTableRecord
100
AcDbRegAppTableRecord
  2
ACAD
 70
     0
  0
APPID
  5
4E
330
9
100
AcDbSymbolTableRecord
100
AcDbRegAppTableRecord
  2
MCAD_NO_VIS
 70
     0
  0
APPID
  5
4F
330
9
100
AcDbSymbolTableRecord
100
AcDbRegAppTableRecord
  2
ACAD_TEMP_GRAPHIC
 70
     0
  0
APPID
  5
60
330
9
100
AcDbSymbolTableRecord
100
AcDbRegAppTableRecord
  2
ACATTRIBSERVICES
 70
     0
  0
APPID
  5
F7
330
9
100
AcDbSymbolTableRecord
100
AcDbRegAppTableRecord
  2
AD_DRAW
 70
     0
  0
APPID
  5
115
330
9
100
AcDbSymbolTableRecord
100
AcDbRegAppTableRecord
  2
DESIGNERASSEMBLIES
 70
     0
  0
APPID
  5
11A
330
9
100
AcDbSymbolTableRecord
100
AcDbRegAppTableRecord
  2
ACADM_DIM_EDIT
 70
     0
  0
APPID
  5
11B
330
9
100
AcDbSymbolTableRecord
100
AcDbRegAppTableRecord
  2
AMDT_DM_ADJ
 70
     0
  0
APPID
  5
1D3
330
9
100
AcDbSymbolTableRecord
100
AcDbRegAppTableRecord
  2
ACAD_DSTYLE_DIMARC_LENGTH_SYMBOL
 70
     0
  0
APPID
  5
1D4
330
9
100
AcDbSymbolTableRecord
100
AcDbRegAppTableRecord
  2
ACAD_DSTYLE_DIMJOGGED_JOGANGLE_SYMBOL
 70
     0
  0
APPID
  5
2EE
330
9
100
AcDbSymbolTableRecord
100
AcDbRegAppTableRecord
  2
ACAD_MLEADERVER
 70
     0
  0
APPID
  5
38D
330
9
100
AcDbSymbolTableRecord
100
AcDbRegAppTableRecord
  2
ACAD_DSTYLE_DIMJAG
 70
     0
  0
APPID
  5
38E
330
9
100
AcDbSymbolTableRecord
100
AcDbRegAppTableRecord
  2
ACAD_DSTYLE_DIMBREAK
 70
     0
  0
APPID
  5
3AA
330
9
100
AcDbSymbolTableRecord
100
AcDbRegAppTableRecord
  2
ACAD_PSEXT
 70
     0
  0
APPID
  5
3EF
330
9
100
AcDbSymbolTableRecord
100
AcDbRegAppTableRecord
  2
RAK
 70
     0
  0
APPID
  5
3F0
330
9
100
AcDbSymbolTableRecord
100
AcDbRegAppTableRecord
  2
AcAecLayerStandard
 70
     0
  0
APPID
  5
3F1
330
9
100
AcDbSymbolTableRecord
100
AcDbRegAppTableRecord
  2
ACLAYERTOOLS
 70
     0
  0
APPID
  5
9DE
330
9
100
AcDbSymbolTableRecord
100
AcDbRegAppTableRecord
  2
ACAD_DSTYLE_DIM_LINETYPE
 70
     0
  0
APPID
  5
9DF
330
9
100
AcDbSymbolTableRecord
100
AcDbRegAppTableRecord
  2
ACAD_DSTYLE_DIM_EXT1_LINETYPE
 70
     0
  0
APPID
  5
9E0
330
9
100
AcDbSymbolTableRecord
100
AcDbRegAppTableRecord
  2
ACAD_DSTYLE_DIM_EXT2_LINETYPE
 70
     0
  0
APPID
  5
A6F
330
9
100
AcDbSymbolTableRecord
100
AcDbRegAppTableRecord
  2
ACAD_NAV_VCDISPLAY
 70
     0
  0
ENDTAB
  0
TABLE
  2
DIMSTYLE
  5
A
330
0
100
AcDbSymbolTable
 70
     8
100
AcDbDimStyleTable
 71
     1
340
8C
  0
DIMSTYLE
105
27
330
A
100
AcDbSymbolTableRecord
100
AcDbDimStyleTableRecord
  2
Standard
 70
     0
340
11
  0
DIMSTYLE
105
8C
102
{ACAD_REACTORS
330
A55
102
}
330
A
100
AcDbSymbolTableRecord
100
AcDbDimStyleTableRecord
  2
AM_ANSI
 70
     0
  4
mm
 41
0.12
 42
0.05
 43
0.5
 44
0.1
 47
0.1
 48
0.1
 78
     7
 79
     2
140
0.12
141
0.0
146
0.71
147
0.06
176
   256
177
   256
178
     2
274
     4
284
     7
340
11
371
    -1
372
    -1
1001
ACAD_DSTYLE_DIMJOGGED_JOGANGLE_SYMBOL
1070
   384
1040
0.7853981633974483
1001
ACAD_DSTYLE_DIMJAG
1070
   388
1040
1.5
1001
ACAD_DSTYLE_DIMBREAK
1070
   391
1040
0.125
1001
ACAD_DSTYLE_DIMARC_LENGTH_SYMBOL
1070
   379
1070
     1
1001
ACAD_DSTYLE_DIM_LINETYPE
1070
   380
1005
14
1001
ACAD_DSTYLE_DIM_EXT1_LINETYPE
1070
   381
1005
14
1001
ACAD_DSTYLE_DIM_EXT2_LINETYPE
1070
   382
1005
14
  0
DIMSTYLE
105
8D
330
A
100
AcDbSymbolTableRecord
100
AcDbDimStyleTableRecord
  2
AM_ANSI$3
 70
     0
  4
mm
 41
0.12
 42
0.05
 43
0.5
 44
0.1
 47
0.1
 48
0.1
 78
     7
 79
     2
140
0.12
141
0.0
146
0.71
147
0.06
176
   256
177
   256
178
     2
274
     4
284
     7
288
     1
289
     0
340
11
371
    -1
372
    -1
1001
ACAD_DSTYLE_DIMJOGGED_JOGANGLE_SYMBOL
1070
   384
1040
0.7853981633974483
1001
ACAD_DSTYLE_DIMBREAK
1070
   391
1040
0.125
1001
ACAD_DSTYLE_DIMJAG
1070
   388
1040
1.5
1001
ACAD_DSTYLE_DIMARC_LENGTH_SYMBOL
1070
   379
1070
     1
1001
ACAD_DSTYLE_DIM_LINETYPE
1070
   380
1005
14
1001
ACAD_DSTYLE_DIM_EXT1_LINETYPE
1070
   381
1005
14
1001
ACAD_DSTYLE_DIM_EXT2_LINETYPE
1070
   382
1005
14
  0
DIMSTYLE
105
8E
330
A
100
AcDbSymbolTableRecord
100
AcDbDimStyleTableRecord
  2
AM_ANSI$4
 70
     0
  4
mm
 41
0.12
 42
0.05
 43
0.5
 44
0.1
 47
0.1
 48
0.1
 78
     7
 79
     2
140
0.12
141
0.0
146
0.71
147
0.06
176
   256
177
   256
178
     2
274
     4
284
     7
340
11
371
    -1
372
    -1
1001
ACAD_DSTYLE_DIMJOGGED_JOGANGLE_SYMBOL
1070
   384
1040
0.7853981633974483
1001
ACAD_DSTYLE_DIMBREAK
1070
   391
1040
0.125
1001
ACAD_DSTYLE_DIMJAG
1070
   388
1040
1.5
1001
ACAD_DSTYLE_DIMARC_LENGTH_SYMBOL
1070
   379
1070
     1
1001
ACAD_DSTYLE_DIM_LINETYPE
1070
   380
1005
14
1001
ACAD_DSTYLE_DIM_EXT1_LINETYPE
1070
   381
1005
14
1001
ACAD_DSTYLE_DIM_EXT2_LINETYPE
1070
   382
1005
14
  0
DIMSTYLE
105
8F
330
A
100
AcDbSymbolTableRecord
100
AcDbDimStyleTableRecord
  2
AM_ANSI$7
 70
     0
  4
mm
 41
0.12
 42
0.05
 43
0.5
 44
0.1
 47
0.1
 48
0.1
 78
     7
 79
     2
140
0.12
141
0.0
146
0.71
147
0.06
176
   256
177
   256
178
     2
274
     4
284
     7
340
11
371
    -1
372
    -1
1001
ACAD_DSTYLE_DIMJOGGED_JOGANGLE_SYMBOL
1070
   384
1040
0.7853981633974483
1001
ACAD_DSTYLE_DIMBREAK
1070
   391
1040
0.125
1001
ACAD_DSTYLE_DIMJAG
1070
   388
1040
1.5
1001
ACAD_DSTYLE_DIMARC_LENGTH_SYMBOL
1070
   379
1070
     1
1001
ACAD_DSTYLE_DIM_LINETYPE
1070
   380
1005
14
1001
ACAD_DSTYLE_DIM_EXT1_LINETYPE
1070
   381
1005
14
1001
ACAD_DSTYLE_DIM_EXT2_LINETYPE
1070
   382
1005
14
  0
DIMSTYLE
105
90
330
A
100
AcDbSymbolTableRecord
100
AcDbDimStyleTableRecord
  2
AM_ANSI$SF
 70
     0
  4
mm
 41
0.12
 42
0.05
 43
0.5
 44
0.1
 47
0.1
 48
0.1
 75
     1
 76
     1
 78
     7
 79
     2
140
0.12
141
0.0
146
0.71
147
0.06
176
   256
177
   256
178
     2
274
     4
284
     7
340
11
371
    -1
372
    -1
1001
ACAD_DSTYLE_DIMJOGGED_JOGANGLE_SYMBOL
1070
   384
1040
0.7853981633974483
1001
ACAD_DSTYLE_DIMBREAK
1070
   391
1040
0.125
1001
ACAD_DSTYLE_DIMJAG
1070
   388
1040
1.5
1001
ACAD_DSTYLE_DIMARC_LENGTH_SYMBOL
1070
   379
1070
     1
1001
ACAD_DSTYLE_DIM_LINETYPE
1070
   380
1005
14
1001
ACAD_DSTYLE_DIM_EXT1_LINETYPE
1070
   381
1005
14
1001
ACAD_DSTYLE_DIM_EXT2_LINETYPE
1070
   382
1005
14
  0
DIMSTYLE
105
95
330
A
100
AcDbSymbolTableRecord
100
AcDbDimStyleTableRecord
  2
AM_ANSI$SH
 70
     0
  4
mm
 41
0.12
 42
0.05
 43
0.5
 44
0.1
 47
0.1
 48
0.1
 75
     1
 76
     1
 78
     7
 79
     2
140
0.12
141
0.0
146
0.71
147
0.06
173
     1
176
   256
177
   256
178
     2
274
     4
284
     7
340
11
343
91
371
    -1
372
    -1
1001
ACAD_DSTYLE_DIMJOGGED_JOGANGLE_SYMBOL
1070
   384
1040
0.7853981633974483
1001
ACAD_DSTYLE_DIMBREAK
1070
   391
1040
0.125
1001
ACAD_DSTYLE_DIMJAG
1070
   388
1040
1.5
1001
ACAD_DSTYLE_DIMARC_LENGTH_SYMBOL
1070
   379
1070
     1
1001
ACAD_DSTYLE_DIM_LINETYPE
1070
   380
1005
14
1001
ACAD_DSTYLE_DIM_EXT1_LINETYPE
1070
   381
1005
14
1001
ACAD_DSTYLE_DIM_EXT2_LINETYPE
1070
   382
1005
14
  0
DIMSTYLE
105
3EE
330
A
100
AcDbSymbolTableRecord
100
AcDbDimStyleTableRecord
  2
3 Decimal Places
 70
     0
 41
0.125
 44
0.08
 78
     4
140
0.09
176
   256
177
   256
178
   256
271
     3
272
     3
284
     4
285
     4
286
     4
340
3EC
371
    -1
372
    -1
  0
ENDTAB
  0
TABLE
  2
BLOCK_RECORD
  5
1
330
0
100
AcDbSymbolTable
 70
     4
  0
BLOCK_RECORD
  5
1F
102
{ACAD_XDICTIONARY
360
99
102
}
330
1
100
AcDbSymbolTableRecord
100
AcDbBlockTableRecord
  2
*Model_Space
340
22
  0
BLOCK_RECORD
  5
1B
330
1
100
AcDbSymbolTableRecord
100
AcDbBlockTableRecord
  2
*Paper_Space
340
1E
  0
BLOCK_RECORD
  5
23
330
1
100
AcDbSymbolTableRecord
100
AcDbBlockTableRecord
  2
*Paper_Space0
340
26
  0
BLOCK_RECORD
  5
91
330
1
100
AcDbSymbolTableRecord
100
AcDbBlockTableRecord
  2
GENAXEH
340
0
  0
ENDTAB
  0
ENDSEC
  0
SECTION
  2
BLOCKS
  0
BLOCK
  5
20
330
1F
100
AcDbEntity
  8
0
100
AcDbBlockBegin
  2
*Model_Space
 70
     0
 10
0.0
 20
0.0
 30
0.0
  3
*Model_Space
  1

  0
ENDBLK
  5
21
330
1F
100
AcDbEntity
  8
0
100
AcDbBlockEnd
  0
BLOCK
  5
1C
330
1B
100
AcDbEntity
 67
     1
  8
0
100
AcDbBlockBegin
  2
*Paper_Space
 70
     0
 10
0.0
 20
0.0
 30
0.0
  3
*Paper_Space
  1

  0
ENDBLK
  5
1D
330
1B
100
AcDbEntity
 67
     1
  8
0
100
AcDbBlockEnd
  0
BLOCK
  5
24
330
23
100
AcDbEntity
 67
     1
  8
0
100
AcDbBlockBegin
  2
*Paper_Space0
 70
     0
 10
0.0
 20
0.0
 30
0.0
  3
*Paper_Space0
  1

  0
ENDBLK
  5
25
330
23
100
AcDbEntity
 67
     1
  8
0
100
AcDbBlockEnd
  0
BLOCK
  5
93
330
91
100
AcDbEntity
  8
0
100
AcDbBlockBegin
  2
GENAXEH
 70
     0
 10
0.0
 20
0.0
 30
0.0
  3
GENAXEH
  1

  0
LINE
  5
92
330
91
100
AcDbEntity
  8
0
100
AcDbLine
 10
-1.0
 20
0.0
 30
0.0
 11
1.0
 21
0.0
 31
0.0
  0
ENDBLK
  5
94
330
91
100
AcDbEntity
  8
0
100
AcDbBlockEnd
  0
ENDSEC
  0
SECTION
  2
ENTITIES
  0
HATCH
  5
6E7
330
1F
100
AcDbEntity
  8
PCB_BOT
100
AcDbHatch
 10
0.0
 20
0.0
 30
0.0
210
0.0
220
0.0
230
1.0
  2
SOLID
 70
     1
 71
     0
 91
        3
 92
        7
 72
     1
 73
     1
 93
        3
 10
-0.6023625014857644
 20
0.8750072740152532
 42
0.0
 10
-0.6023625014857644
 20
0.8027368484430255
 42
0.1989123673796551
 10
-0.55125959348441
 20
0.8239043660138989
 42
0.0
 97
        0
 92
        7
 72
     1
 73
     1
 93
        3
 10
-0.5300920759135366
 20
0.8750072740152532
 42
0.0
 10
-0.6023625014857644
 20
0.8750072740152495
 42
0.0
 10
-0.55125959348441
 20
0.8239043660138952
 42
0.1989123673796482
 97
        0
 92
        7
 72
     1
 73
     1
 93
        3
 10
-0.55125959348441
 20
0.9261101820166112
 42
0.0
 10
-0.6023625014857644
 20
0.8750072740152532
 42
0.0
 10
-0.5300920759135366
 20
0.8750072740152532
 42
0.1989123673796509
 97
        0
 75
     0
 76
     1
 47
0.0001896584045076
 98
        3
 10
-0.5789130125156348
 20
0.8342134905505638
 10
-0.5534784697385433
 20
0.8501448247727374
 10
-0.5553765409865079
 20
0.8785936067029885
  0
LINE
  5
6E8
330
1F
100
AcDbEntity
  8
PCB_BOT
100
AcDbLine
 10
-0.674743713244702
 20
0.8026260622563228
 30
0.0
 11
-0.5299812897268268
 21
0.9473884857741907
 31
0.0
  0
LINE
  5
6E9
330
1F
100
AcDbEntity
  8
PCB_BOT
100
AcDbLine
 10
-0.674743713244702
 20
0.9473884857741907
 30
0.0
 11
-0.5299812897268268
 21
0.8026260622563157
 31
0.0
  0
HATCH
  5
6EA
330
1F
100
AcDbEntity
  8
PCB_OUTLINE
100
AcDbHatch
 10
0.0
 20
0.0
 30
0.0
210
0.0
220
0.0
230
1.0
  2
SOLID
 70
     1
 71
     0
 91
        2
 92
        7
 72
     1
 73
     1
 93
        3
 10
-0.6023625014857572
 20
0.8750072740152639
 42
0.0
 10
-0.653465409487133
 20
0.8239043660138952
 42
0.1989123673796946
 10
-0.6023625014857644
 20
0.8027368484430255
 42
0.0
 97
        0
 92
        7
 72
     1
 73
     1
 93
        3
 10
-0.6023625014857715
 20
0.8750072740152532
 42
0.0
 10
-0.6746329270579921
 20
0.8750072740152532
 42
0.1989123673796509
 10
-0.653465409487133
 20
0.8239043660138952
 42
0.0
 97
        0
 75
     0
 76
     1
 47
0.0001896584045076
 98
        2
 10
-0.6149768512949195
 20
0.8228340050138418
 10
-0.6502815585886239
 20
0.8493861833251621
  0
LINE
  5
6EB
330
1F
100
AcDbEntity
  8
PCB_OUTLINE
100
AcDbLine
 10
-0.674743713244702
 20
0.8026260622563299
 30
0.0
 11
-0.5299812897268126
 21
0.9473884857741976
 31
0.0
  0
LINE
  5
6EC
330
1F
100
AcDbEntity
  8
PCB_OUTLINE
100
AcDbLine
 10
-0.6747437132446878
 20
0.9473884857741976
 30
0.0
 11
-0.5299812897268126
 21
0.8026260622563228
 31
0.0
  0
LINE
  5
6ED
330
1F
100
AcDbEntity
  8
PCB_TOP
100
AcDbLine
 10
-0.6747437132446878
 20
0.9473884857741976
 30
0.0
 11
-0.5299812897268126
 21
0.8026260622563228
 31
0.0
  0
LINE
  5
6EE
330
1F
100
AcDbEntity
  8
PCB_TOP
100
AcDbLine
 10
-0.674743713244702
 20
0.8026260622563299
 30
0.0
 11
-0.5299812897268126
 21
0.9473884857741976
 31
0.0
  0
CIRCLE
  5
6EF
330
1F
100
AcDbEntity
  8
PCB_BOT
100
AcDbCircle
 10
-0.6023625014857501
 20
0.8750072740152461
 30
0.0
 40
0.0722704255722269
  0
CIRCLE
  5
6F0
330
1F
100
AcDbEntity
  8
PCB_OUTLINE
100
AcDbCircle
 10
-0.6023625014857501
 20
0.8750072740152461
 30
0.0
 40
0.0722704255722269
  0
CIRCLE
  5
6F1
330
1F
100
AcDbEntity
  8
PCB_TOP
100
AcDbCircle
 10
-0.6023625014857501
 20
0.8750072740152461
 30
0.0
 40
0.0722704255722269
  0
LINE
  5
6F2
330
1F
100
AcDbEntity
  8
PCB_BOT
100
AcDbLine
 10
-0.6023625014857644
 20
0.9773697653457418
 30
0.0
 11
-0.6023625014857644
 21
0.7726447826847647
 31
0.0
  0
LINE
  5
6F3
330
1F
100
AcDbEntity
  8
PCB_OUTLINE
100
AcDbLine
 10
-0.6023625014857501
 20
0.9773697653457487
 30
0.0
 11
-0.6023625014857501
 21
0.7726447826847718
 31
0.0
  0
LINE
  5
6F4
330
1F
100
AcDbEntity
  8
PCB_TOP
100
AcDbLine
 10
-0.6023625014857501
 20
0.9773697653457487
 30
0.0
 11
-0.6023625014857501
 21
0.7726447826847718
 31
0.0
  0
LINE
  5
6F5
330
1F
100
AcDbEntity
  8
PCB_BOT
100
AcDbLine
 10
-0.5000000101552688
 20
0.8750072740152532
 30
0.0
 11
-0.7047249928162458
 21
0.8750072740152532
 31
0.0
  0
HATCH
  5
6F6
330
1F
100
AcDbEntity
  8
PCB_TOP
100
AcDbHatch
 10
0.0
 20
0.0
 30
0.0
210
0.0
220
0.0
230
1.0
  2
SOLID
 70
     1
 71
     0
 91
        3
 92
        7
 72
     1
 73
     1
 93
        3
 10
-0.6023625014857644
 20
0.9472776995874808
 42
0.1989123673796765
 10
-0.6534654094871259
 20
0.9261101820166144
 42
0.0
 10
-0.6023625014857644
 20
0.8750072740152532
 42
0.0
 97
        0
 92
        7
 72
     1
 73
     1
 93
        3
 10
-0.6534654094871259
 20
0.9261101820166144
 42
0.1989123673796716
 10
-0.6746329270579921
 20
0.8750072740152532
 42
0.0
 10
-0.6023625014857644
 20
0.8750072740152532
 42
0.0
 97
        0
 92
        7
 72
     1
 73
     1
 93
        3
 10
-0.55125959348441
 20
0.9261101820166112
 42
0.1989123673796498
 10
-0.6023625014857644
 20
0.9472776995874808
 42
0.0
 10
-0.6023625014857644
 20
0.8750072740152603
 42
0.0
 97
        0
 75
     0
 76
     1
 47
0.0001896584045076
 98
        3
 10
-0.6183934280480587
 20
0.9237322962145492
 10
-0.6415503338343953
 20
0.9043871435667334
 10
-0.5861257317646889
 20
0.9093182448875259
  0
LINE
  5
6F7
330
1F
100
AcDbEntity
  8
PCB_OUTLINE
100
AcDbLine
 10
-0.5000000101552688
 20
0.8750072740152603
 30
0.0
 11
-0.7047249928162316
 21
0.8750072740152603
 31
0.0
  0
LINE
  5
6F8
330
1F
100
AcDbEntity
  8
PCB_TOP
100
AcDbLine
 10
-0.5000000101552688
 20
0.8750072740152603
 30
0.0
 11
-0.7047249928162316
 21
0.8750072740152603
 31
0.0
  0
TEXT
  5
6F9
330
1F
100
AcDbEntity
  8
PCB_OUTLINE
100
AcDbText
 10
2.801567072112603
 20
0.6028506468138986
 30
0.0
 40
0.0299327383810564
  1
PCB_OUTLINE
  7
ROMANS
100
AcDbText
  0
HATCH
  5
6FA
330
1F
100
AcDbEntity
  8
PCB_BOT
100
AcDbHatch
 10
0.0
 20
0.0
 30
0.0
210
0.0
220
0.0
230
1.0
  2
SOLID
 70
     1
 71
     0
 91
        3
 92
        7
 72
     1
 73
     1
 93
        3
 10
2.902361936900533
 20
0.8750073340057793
 42
0.0
 10
2.902361936900533
 20
0.8027369084335518
 42
0.1989123673796551
 10
2.953464844901886
 20
0.823904426004425
 42
0.0
 97
        0
 92
        7
 72
     1
 73
     1
 93
        3
 10
2.974632362472759
 20
0.8750073340057793
 42
0.0
 10
2.902361936900533
 20
0.8750073340057758
 42
0.0
 10
2.953464844901886
 20
0.8239044260044217
 42
0.1989123673796482
 97
        0
 92
        7
 72
     1
 73
     1
 93
        3
 10
2.953464844901886
 20
0.9261102420071374
 42
0.0
 10
2.902361936900533
 20
0.8750073340057793
 42
0.0
 10
2.974632362472759
 20
0.8750073340057793
 42
0.1989123673796509
 97
        0
 75
     0
 76
     1
 47
0.0001896584045076
 98
        3
 10
2.925811425870662
 20
0.8342135505410901
 10
2.951245968647754
 20
0.8501448847632635
 10
2.949347897399788
 20
0.878593666693515
  0
LINE
  5
6FB
330
1F
100
AcDbEntity
  8
PCB_BOT
100
AcDbLine
 10
2.829980725141595
 20
0.8026261222468491
 30
0.0
 11
2.97474314865947
 21
0.9473885457647169
 31
0.0
  0
LINE
  5
6FC
330
1F
100
AcDbEntity
  8
PCB_BOT
100
AcDbLine
 10
2.829980725141595
 20
0.9473885457647169
 30
0.0
 11
2.97474314865947
 21
0.802626122246842
 31
0.0
  0
HATCH
  5
6FD
330
1F
100
AcDbEntity
  8
PCB_OUTLINE
100
AcDbHatch
 10
0.0
 20
0.0
 30
0.0
210
0.0
220
0.0
230
1.0
  2
SOLID
 70
     1
 71
     0
 91
        2
 92
        7
 72
     1
 73
     1
 93
        3
 10
2.902361936900539
 20
0.8750073340057902
 42
0.0
 10
2.851259028899163
 20
0.8239044260044217
 42
0.1989123673796946
 10
2.902361936900533
 20
0.8027369084335518
 42
0.0
 97
        0
 92
        7
 72
     1
 73
     1
 93
        3
 10
2.902361936900526
 20
0.8750073340057793
 42
0.0
 10
2.830091511328305
 20
0.8750073340057793
 42
0.1989123673796509
 10
2.851259028899163
 20
0.8239044260044217
 42
0.0
 97
        0
 75
     0
 76
     1
 47
0.0001896584045076
 98
        2
 10
2.889747587091378
 20
0.8228340650043682
 10
2.854442879797673
 20
0.8493862433156882
  0
LINE
  5
6FE
330
1F
100
AcDbEntity
  8
PCB_OUTLINE
100
AcDbLine
 10
2.829980725141595
 20
0.8026261222468562
 30
0.0
 11
2.974743148659483
 21
0.947388545764724
 31
0.0
  0
LINE
  5
6FF
330
1F
100
AcDbEntity
  8
PCB_OUTLINE
100
AcDbLine
 10
2.829980725141608
 20
0.947388545764724
 30
0.0
 11
2.974743148659483
 21
0.8026261222468491
 31
0.0
  0
LINE
  5
700
330
1F
100
AcDbEntity
  8
PCB_TOP
100
AcDbLine
 10
2.829980725141608
 20
0.947388545764724
 30
0.0
 11
2.974743148659483
 21
0.8026261222468491
 31
0.0
  0
LINE
  5
701
330
1F
100
AcDbEntity
  8
PCB_TOP
100
AcDbLine
 10
2.829980725141595
 20
0.8026261222468562
 30
0.0
 11
2.974743148659483
 21
0.947388545764724
 31
0.0
  0
CIRCLE
  5
702
330
1F
100
AcDbEntity
  8
PCB_BOT
100
AcDbCircle
 10
2.902361936900547
 20
0.8750073340057722
 30
0.0
 40
0.0722704255722269
  0
CIRCLE
  5
703
330
1F
100
AcDbEntity
  8
PCB_OUTLINE
100
AcDbCircle
 10
2.902361936900547
 20
0.8750073340057722
 30
0.0
 40
0.0722704255722269
  0
CIRCLE
  5
704
330
1F
100
AcDbEntity
  8
PCB_TOP
100
AcDbCircle
 10
2.902361936900547
 20
0.8750073340057722
 30
0.0
 40
0.0722704255722269
  0
LINE
  5
705
330
1F
100
AcDbEntity
  8
PCB_BOT
100
AcDbLine
 10
2.902361936900533
 20
0.9773698253362679
 30
0.0
 11
2.902361936900533
 21
0.7726448426752909
 31
0.0
  0
LINE
  5
706
330
1F
100
AcDbEntity
  8
PCB_OUTLINE
100
AcDbLine
 10
2.902361936900547
 20
0.9773698253362752
 30
0.0
 11
2.902361936900547
 21
0.7726448426752981
 31
0.0
  0
LINE
  5
707
330
1F
100
AcDbEntity
  8
PCB_TOP
100
AcDbLine
 10
2.902361936900547
 20
0.9773698253362752
 30
0.0
 11
2.902361936900547
 21
0.7726448426752981
 31
0.0
  0
TEXT
  5
708
330
1F
100
AcDbEntity
  8
PCB_TOP
100
AcDbText
 10
2.801567072112603
 20
0.6596640890296987
 30
0.0
 40
0.0299327383810564
  1
PCB_TOP
  7
ROMANS
100
AcDbText
  0
TEXT
  5
709
330
1F
100
AcDbEntity
  8
PCB_BOT
100
AcDbText
 10
2.801567072112603
 20
0.5435686249456069
 30
0.0
 40
0.0299327383810564
  1
PCB_BOT
  7
ROMANS
100
AcDbText
  0
LINE
  5
70A
330
1F
100
AcDbEntity
  8
PCB_BOT
100
AcDbLine
 10
3.004724428231028
 20
0.8750073340057793
 30
0.0
 11
2.799999445570051
 21
0.8750073340057793
 31
0.0
  0
HATCH
  5
70B
330
1F
100
AcDbEntity
  8
PCB_TOP
100
AcDbHatch
 10
0.0
 20
0.0
 30
0.0
210
0.0
220
0.0
230
1.0
  2
SOLID
 70
     1
 71
     0
 91
        3
 92
        7
 72
     1
 73
     1
 93
        3
 10
2.902361936900533
 20
0.9472777595780071
 42
0.1989123673796765
 10
2.851259028899171
 20
0.9261102420071408
 42
0.0
 10
2.902361936900533
 20
0.8750073340057793
 42
0.0
 97
        0
 92
        7
 72
     1
 73
     1
 93
        3
 10
2.851259028899171
 20
0.9261102420071408
 42
0.1989123673796716
 10
2.830091511328305
 20
0.8750073340057793
 42
0.0
 10
2.902361936900533
 20
0.8750073340057793
 42
0.0
 97
        0
 92
        7
 72
     1
 73
     1
 93
        3
 10
2.953464844901886
 20
0.9261102420071374
 42
0.1989123673796498
 10
2.902361936900533
 20
0.9472777595780071
 42
0.0
 10
2.902361936900533
 20
0.8750073340057864
 42
0.0
 97
        0
 75
     0
 76
     1
 47
0.0001896584045076
 98
        3
 10
2.886331010338238
 20
0.9237323562050754
 10
2.863174104551901
 20
0.9043872035572595
 10
2.918598706621608
 20
0.9093183048780524
  0
LINE
  5
70C
330
1F
100
AcDbEntity
  8
PCB_OUTLINE
100
AcDbLine
 10
3.004724428231028
 20
0.8750073340057864
 30
0.0
 11
2.799999445570064
 21
0.8750073340057864
 31
0.0
  0
LINE
  5
70D
330
1F
100
AcDbEntity
  8
PCB_TOP
100
AcDbLine
 10
3.004724428231028
 20
0.8750073340057864
 30
0.0
 11
2.799999445570064
 21
0.8750073340057864
 31
0.0
  0
LWPOLYLINE
  5
70E
330
1F
100
AcDbEntity
  8
PCB_BOT
100
AcDbPolyline
 90
        4
 70
     1
 43
0.0
 10
-0.0000000203105408
 20
1.750014548030519
 10
2.29999944557005
 20
1.750014667956555
 10
2.29999944557005
 20
0.0000000000550031
 10
0.0
 20
0.0
  0
LWPOLYLINE
  5
70F
330
1F
100
AcDbEntity
  8
PCB_OUTLINE
100
AcDbPolyline
 90
        4
 70
     1
 43
0.0
 10
0.0
 20
0.0
 10
2.29999944557005
 20
0.0000000000550031
 10
2.29999944557005
 20
1.750014667956555
 10
-0.0000000203105408
 20
1.750014548030519
  0
CIRCLE
  5
710
330
1F
100
AcDbEntity
  8
PCB_OUTLINE
100
AcDbCircle
 10
0.5899999840420236
 20
0.2750000000550035
 30
0.0
 40
0.015
  0
CIRCLE
  5
711
330
1F
100
AcDbEntity
  8
PCB_OUTLINE
100
AcDbCircle
 10
0.6699999840420219
 20
0.2750000000550035
 30
0.0
 40
0.015
  0
CIRCLE
  5
712
330
1F
100
AcDbEntity
  8
PCB_OUTLINE
100
AcDbCircle
 10
0.7499999840420202
 20
0.2750000000550035
 30
0.0
 40
0.015
  0
CIRCLE
  5
713
330
1F
100
AcDbEntity
  8
PCB_OUTLINE
100
AcDbCircle
 10
0.8299999840420182
 20
0.2750000000550035
 30
0.0
 40
0.015
  0
CIRCLE
  5
714
330
1F
100
AcDbEntity
  8
PCB_OUTLINE
100
AcDbCircle
 10
0.9099999840420236
 20
0.2750000000550035
 30
0.0
 40
0.015
  0
CIRCLE
  5
715
330
1F
100
AcDbEntity
  8
PCB_OUTLINE
100
AcDbCircle
 10
0.9899999840420219
 20
0.2750000000550035
 30
0.0
 40
0.015
  0
CIRCLE
  5
716
330
1F
100
AcDbEntity
  8
PCB_OUTLINE
100
AcDbCircle
 10
1.149999984042018
 20
0.2750000000550035
 30
0.0
 40
0.015
  0
CIRCLE
  5
717
330
1F
100
AcDbEntity
  8
PCB_OUTLINE
100
AcDbCircle
 10
1.069999984042012
 20
0.2750000000550035
 30
0.0
 40
0.015
  0
CIRCLE
  5
718
330
1F
100
AcDbEntity
  8
PCB_OUTLINE
100
AcDbCircle
 10
0.5899999840420236
 20
0.1950000000550034
 30
0.0
 40
0.015
  0
CIRCLE
  5
719
330
1F
100
AcDbEntity
  8
PCB_OUTLINE
100
AcDbCircle
 10
0.5899999840420236
 20
0.1150000000550033
 30
0.0
 40
0.015
  0
CIRCLE
  5
71A
330
1F
100
AcDbEntity
  8
PCB_OUTLINE
100
AcDbCircle
 10
0.6699999840420219
 20
0.1950000000550034
 30
0.0
 40
0.015
  0
CIRCLE
  5
71B
330
1F
100
AcDbEntity
  8
PCB_OUTLINE
100
AcDbCircle
 10
0.6699999840420219
 20
0.1150000000550033
 30
0.0
 40
0.015
  0
CIRCLE
  5
71C
330
1F
100
AcDbEntity
  8
PCB_OUTLINE
100
AcDbCircle
 10
0.7499999840420202
 20
0.1950000000550034
 30
0.0
 40
0.015
  0
CIRCLE
  5
71D
330
1F
100
AcDbEntity
  8
PCB_OUTLINE
100
AcDbCircle
 10
0.7499999840420202
 20
0.1150000000550033
 30
0.0
 40
0.015
  0
CIRCLE
  5
71E
330
1F
100
AcDbEntity
  8
PCB_OUTLINE
100
AcDbCircle
 10
0.8299999840420182
 20
0.1950000000550034
 30
0.0
 40
0.015
  0
CIRCLE
  5
71F
330
1F
100
AcDbEntity
  8
PCB_OUTLINE
100
AcDbCircle
 10
0.8299999840420182
 20
0.1150000000550033
 30
0.0
 40
0.015
  0
CIRCLE
  5
720
330
1F
100
AcDbEntity
  8
PCB_OUTLINE
100
AcDbCircle
 10
0.9099999840420236
 20
0.1950000000550034
 30
0.0
 40
0.015
  0
CIRCLE
  5
721
330
1F
100
AcDbEntity
  8
PCB_OUTLINE
100
AcDbCircle
 10
0.9099999840420236
 20
0.1150000000550033
 30
0.0
 40
0.015
  0
CIRCLE
  5
722
330
1F
100
AcDbEntity
  8
PCB_OUTLINE
100
AcDbCircle
 10
0.9899999840420219
 20
0.1950000000550034
 30
0.0
 40
0.015
  0
CIRCLE
  5
723
330
1F
100
AcDbEntity
  8
PCB_OUTLINE
100
AcDbCircle
 10
0.9899999840420219
 20
0.1150000000550033
 30
0.0
 40
0.015
  0
CIRCLE
  5
724
330
1F
100
AcDbEntity
  8
PCB_OUTLINE
100
AcDbCircle
 10
1.149999984042018
 20
0.1950000000550034
 30
0.0
 40
0.015
  0
CIRCLE
  5
725
330
1F
100
AcDbEntity
  8
PCB_OUTLINE
100
AcDbCircle
 10
1.149999984042018
 20
0.1150000000550033
 30
0.0
 40
0.015
  0
CIRCLE
  5
726
330
1F
100
AcDbEntity
  8
PCB_OUTLINE
100
AcDbCircle
 10
1.069999984042012
 20
0.1950000000550034
 30
0.0
 40
0.015
  0
CIRCLE
  5
727
330
1F
100
AcDbEntity
  8
PCB_OUTLINE
100
AcDbCircle
 10
1.069999984042012
 20
0.1150000000550033
 30
0.0
 40
0.015
  0
CIRCLE
  5
728
330
1F
100
AcDbEntity
  8
PCB_OUTLINE
100
AcDbCircle
 10
0.5899999840420236
 20
0.0350000000550033
 30
0.0
 40
0.015
  0
CIRCLE
  5
729
330
1F
100
AcDbEntity
  8
PCB_OUTLINE
100
AcDbCircle
 10
0.6699999840420219
 20
0.0350000000550033
 30
0.0
 40
0.015
  0
CIRCLE
  5
72A
330
1F
100
AcDbEntity
  8
PCB_OUTLINE
100
AcDbCircle
 10
0.7499999840420202
 20
0.0350000000550033
 30
0.0
 40
0.015
  0
CIRCLE
  5
72B
330
1F
100
AcDbEntity
  8
PCB_OUTLINE
100
AcDbCircle
 10
0.8299999840420182
 20
0.0350000000550033
 30
0.0
 40
0.015
  0
CIRCLE
  5
72C
330
1F
100
AcDbEntity
  8
PCB_OUTLINE
100
AcDbCircle
 10
0.9099999840420236
 20
0.0350000000550033
 30
0.0
 40
0.015
  0
CIRCLE
  5
72D
330
1F
100
AcDbEntity
  8
PCB_OUTLINE
100
AcDbCircle
 10
0.9899999840420219
 20
0.0350000000550033
 30
0.0
 40
0.015
  0
CIRCLE
  5
72E
330
1F
100
AcDbEntity
  8
PCB_OUTLINE
100
AcDbCircle
 10
1.149999984042018
 20
0.0350000000550033
 30
0.0
 40
0.015
  0
CIRCLE
  5
72F
330
1F
100
AcDbEntity
  8
PCB_OUTLINE
100
AcDbCircle
 10
1.069999984042012
 20
0.0350000000550033
 30
0.0
 40
0.015
  0
CIRCLE
  5
730
330
1F
100
AcDbEntity
  8
PCB_OUTLINE
100
AcDbCircle
 10
1.709999984042013
 20
0.2750000000550035
 30
0.0
 40
0.015
  0
CIRCLE
  5
731
330
1F
100
AcDbEntity
  8
PCB_OUTLINE
100
AcDbCircle
 10
1.629999984042014
 20
0.2750000000550035
 30
0.0
 40
0.015
  0
CIRCLE
  5
732
330
1F
100
AcDbEntity
  8
PCB_OUTLINE
100
AcDbCircle
 10
1.549999984042016
 20
0.2750000000550035
 30
0.0
 40
0.015
  0
CIRCLE
  5
733
330
1F
100
AcDbEntity
  8
PCB_OUTLINE
100
AcDbCircle
 10
1.469999984042019
 20
0.2750000000550035
 30
0.0
 40
0.015
  0
CIRCLE
  5
734
330
1F
100
AcDbEntity
  8
PCB_OUTLINE
100
AcDbCircle
 10
1.389999984042012
 20
0.2750000000550035
 30
0.0
 40
0.015
  0
CIRCLE
  5
735
330
1F
100
AcDbEntity
  8
PCB_OUTLINE
100
AcDbCircle
 10
1.309999984042014
 20
0.2750000000550035
 30
0.0
 40
0.015
  0
CIRCLE
  5
736
330
1F
100
AcDbEntity
  8
PCB_OUTLINE
100
AcDbCircle
 10
1.229999984042024
 20
0.2750000000550035
 30
0.0
 40
0.015
  0
CIRCLE
  5
737
330
1F
100
AcDbEntity
  8
PCB_OUTLINE
100
AcDbCircle
 10
1.709999984042013
 20
0.1950000000550034
 30
0.0
 40
0.015
  0
CIRCLE
  5
738
330
1F
100
AcDbEntity
  8
PCB_OUTLINE
100
AcDbCircle
 10
1.709999984042013
 20
0.1150000000550033
 30
0.0
 40
0.015
  0
CIRCLE
  5
739
330
1F
100
AcDbEntity
  8
PCB_OUTLINE
100
AcDbCircle
 10
1.629999984042014
 20
0.1950000000550034
 30
0.0
 40
0.015
  0
CIRCLE
  5
73A
330
1F
100
AcDbEntity
  8
PCB_OUTLINE
100
AcDbCircle
 10
1.629999984042014
 20
0.1150000000550033
 30
0.0
 40
0.015
  0
CIRCLE
  5
73B
330
1F
100
AcDbEntity
  8
PCB_OUTLINE
100
AcDbCircle
 10
1.549999984042016
 20
0.1950000000550034
 30
0.0
 40
0.015
  0
CIRCLE
  5
73C
330
1F
100
AcDbEntity
  8
PCB_OUTLINE
100
AcDbCircle
 10
1.549999984042016
 20
0.1150000000550033
 30
0.0
 40
0.015
  0
CIRCLE
  5
73D
330
1F
100
AcDbEntity
  8
PCB_OUTLINE
100
AcDbCircle
 10
1.469999984042019
 20
0.1950000000550034
 30
0.0
 40
0.015
  0
CIRCLE
  5
73E
330
1F
100
AcDbEntity
  8
PCB_OUTLINE
100
AcDbCircle
 10
1.469999984042019
 20
0.1150000000550033
 30
0.0
 40
0.015
  0
CIRCLE
  5
73F
330
1F
100
AcDbEntity
  8
PCB_OUTLINE
100
AcDbCircle
 10
1.389999984042012
 20
0.1950000000550034
 30
0.0
 40
0.015
  0
CIRCLE
  5
740
330
1F
100
AcDbEntity
  8
PCB_OUTLINE
100
AcDbCircle
 10
1.389999984042012
 20
0.1150000000550033
 30
0.0
 40
0.015
  0
CIRCLE
  5
741
330
1F
100
AcDbEntity
  8
PCB_OUTLINE
100
AcDbCircle
 10
1.309999984042014
 20
0.1950000000550034
 30
0.0
 40
0.015
  0
CIRCLE
  5
742
330
1F
100
AcDbEntity
  8
PCB_OUTLINE
100
AcDbCircle
 10
1.309999984042014
 20
0.1150000000550033
 30
0.0
 40
0.015
  0
CIRCLE
  5
743
330
1F
100
AcDbEntity
  8
PCB_OUTLINE
100
AcDbCircle
 10
1.229999984042024
 20
0.1950000000550034
 30
0.0
 40
0.015
  0
CIRCLE
  5
744
330
1F
100
AcDbEntity
  8
PCB_OUTLINE
100
AcDbCircle
 10
1.229999984042024
 20
0.1150000000550033
 30
0.0
 40
0.015
  0
CIRCLE
  5
745
330
1F
100
AcDbEntity
  8
PCB_OUTLINE
100
AcDbCircle
 10
1.709999984042013
 20
0.0350000000550033
 30
0.0
 40
0.015
  0
CIRCLE
  5
746
330
1F
100
AcDbEntity
  8
PCB_OUTLINE
100
AcDbCircle
 10
1.629999984042014
 20
0.0350000000550033
 30
0.0
 40
0.015
  0
CIRCLE
  5
747
330
1F
100
AcDbEntity
  8
PCB_OUTLINE
100
AcDbCircle
 10
1.549999984042016
 20
0.0350000000550033
 30
0.0
 40
0.015
  0
CIRCLE
  5
748
330
1F
100
AcDbEntity
  8
PCB_OUTLINE
100
AcDbCircle
 10
1.469999984042019
 20
0.0350000000550033
 30
0.0
 40
0.015
  0
CIRCLE
  5
749
330
1F
100
AcDbEntity
  8
PCB_OUTLINE
100
AcDbCircle
 10
1.389999984042012
 20
0.0350000000550033
 30
0.0
 40
0.015
  0
CIRCLE
  5
74A
330
1F
100
AcDbEntity
  8
PCB_OUTLINE
100
AcDbCircle
 10
1.309999984042014
 20
0.0350000000550033
 30
0.0
 40
0.015
  0
CIRCLE
  5
74B
330
1F
100
AcDbEntity
  8
PCB_OUTLINE
100
AcDbCircle
 10
1.229999984042024
 20
0.0350000000550033
 30
0.0
 40
0.015
  0
CIRCLE
  5
74C
330
1F
100
AcDbEntity
  8
PCB_OUTLINE
100
AcDbCircle
 10
2.269999984042009
 20
0.2750000000550035
 30
0.0
 40
0.015
  0
CIRCLE
  5
74D
330
1F
100
AcDbEntity
  8
PCB_OUTLINE
100
AcDbCircle
 10
2.269999984042009
 20
0.1950000000550034
 30
0.0
 40
0.015
  0
CIRCLE
  5
74E
330
1F
100
AcDbEntity
  8
PCB_OUTLINE
100
AcDbCircle
 10
2.269999984042009
 20
0.1150000000550033
 30
0.0
 40
0.015
  0
CIRCLE
  5
74F
330
1F
100
AcDbEntity
  8
PCB_OUTLINE
100
AcDbCircle
 10
2.269999984042009
 20
0.0350000000550033
 30
0.0
 40
0.015
  0
CIRCLE
  5
750
330
1F
100
AcDbEntity
  8
PCB_OUTLINE
100
AcDbCircle
 10
2.029999984042014
 20
0.2750000000550035
 30
0.0
 40
0.015
  0
CIRCLE
  5
751
330
1F
100
AcDbEntity
  8
PCB_OUTLINE
100
AcDbCircle
 10
2.109999984042012
 20
0.2750000000550035
 30
0.0
 40
0.015
  0
CIRCLE
  5
752
330
1F
100
AcDbEntity
  8
PCB_OUTLINE
100
AcDbCircle
 10
2.189999984042003
 20
0.2750000000550035
 30
0.0
 40
0.015
  0
CIRCLE
  5
753
330
1F
100
AcDbEntity
  8
PCB_OUTLINE
100
AcDbCircle
 10
2.029999984042014
 20
0.1950000000550034
 30
0.0
 40
0.015
  0
CIRCLE
  5
754
330
1F
100
AcDbEntity
  8
PCB_OUTLINE
100
AcDbCircle
 10
2.029999984042014
 20
0.1150000000550033
 30
0.0
 40
0.015
  0
CIRCLE
  5
755
330
1F
100
AcDbEntity
  8
PCB_OUTLINE
100
AcDbCircle
 10
2.109999984042012
 20
0.1950000000550034
 30
0.0
 40
0.015
  0
CIRCLE
  5
756
330
1F
100
AcDbEntity
  8
PCB_OUTLINE
100
AcDbCircle
 10
2.109999984042012
 20
0.1150000000550033
 30
0.0
 40
0.015
  0
CIRCLE
  5
757
330
1F
100
AcDbEntity
  8
PCB_OUTLINE
100
AcDbCircle
 10
2.189999984042003
 20
0.1950000000550034
 30
0.0
 40
0.015
  0
CIRCLE
  5
758
330
1F
100
AcDbEntity
  8
PCB_OUTLINE
100
AcDbCircle
 10
2.189999984042003
 20
0.1150000000550033
 30
0.0
 40
0.015
  0
CIRCLE
  5
759
330
1F
100
AcDbEntity
  8
PCB_OUTLINE
100
AcDbCircle
 10
2.029999984042014
 20
0.0350000000550033
 30
0.0
 40
0.015
  0
CIRCLE
  5
75A
330
1F
100
AcDbEntity
  8
PCB_OUTLINE
100
AcDbCircle
 10
2.109999984042012
 20
0.0350000000550033
 30
0.0
 40
0.015
  0
CIRCLE
  5
75B
330
1F
100
AcDbEntity
  8
PCB_OUTLINE
100
AcDbCircle
 10
2.189999984042003
 20
0.0350000000550033
 30
0.0
 40
0.015
  0
CIRCLE
  5
75C
330
1F
100
AcDbEntity
  8
PCB_OUTLINE
100
AcDbCircle
 10
0.2699999840420233
 20
0.2750000000550035
 30
0.0
 40
0.015
  0
CIRCLE
  5
75D
330
1F
100
AcDbEntity
  8
PCB_OUTLINE
100
AcDbCircle
 10
0.189999984042025
 20
0.2750000000550035
 30
0.0
 40
0.015
  0
CIRCLE
  5
75E
330
1F
100
AcDbEntity
  8
PCB_OUTLINE
100
AcDbCircle
 10
0.0299999840420284
 20
0.2750000000550035
 30
0.0
 40
0.015
  0
CIRCLE
  5
75F
330
1F
100
AcDbEntity
  8
PCB_OUTLINE
100
AcDbCircle
 10
0.1099999840420338
 20
0.2750000000550035
 30
0.0
 40
0.015
  0
CIRCLE
  5
760
330
1F
100
AcDbEntity
  8
PCB_OUTLINE
100
AcDbCircle
 10
0.2699999840420233
 20
0.1950000000550034
 30
0.0
 40
0.015
  0
CIRCLE
  5
761
330
1F
100
AcDbEntity
  8
PCB_OUTLINE
100
AcDbCircle
 10
0.2699999840420233
 20
0.1150000000550033
 30
0.0
 40
0.015
  0
CIRCLE
  5
762
330
1F
100
AcDbEntity
  8
PCB_OUTLINE
100
AcDbCircle
 10
0.189999984042025
 20
0.1950000000550034
 30
0.0
 40
0.015
  0
CIRCLE
  5
763
330
1F
100
AcDbEntity
  8
PCB_OUTLINE
100
AcDbCircle
 10
0.189999984042025
 20
0.1150000000550033
 30
0.0
 40
0.015
  0
CIRCLE
  5
764
330
1F
100
AcDbEntity
  8
PCB_OUTLINE
100
AcDbCircle
 10
0.0299999840420284
 20
0.1950000000550034
 30
0.0
 40
0.015
  0
CIRCLE
  5
765
330
1F
100
AcDbEntity
  8
PCB_OUTLINE
100
AcDbCircle
 10
0.0299999840420284
 20
0.1150000000550033
 30
0.0
 40
0.015
  0
CIRCLE
  5
766
330
1F
100
AcDbEntity
  8
PCB_OUTLINE
100
AcDbCircle
 10
0.1099999840420338
 20
0.1950000000550034
 30
0.0
 40
0.015
  0
CIRCLE
  5
767
330
1F
100
AcDbEntity
  8
PCB_OUTLINE
100
AcDbCircle
 10
0.1099999840420338
 20
0.1150000000550033
 30
0.0
 40
0.015
  0
CIRCLE
  5
768
330
1F
100
AcDbEntity
  8
PCB_OUTLINE
100
AcDbCircle
 10
0.2699999840420233
 20
0.0350000000550033
 30
0.0
 40
0.015
  0
CIRCLE
  5
769
330
1F
100
AcDbEntity
  8
PCB_OUTLINE
100
AcDbCircle
 10
0.189999984042025
 20
0.0350000000550033
 30
0.0
 40
0.015
  0
CIRCLE
  5
76A
330
1F
100
AcDbEntity
  8
PCB_OUTLINE
100
AcDbCircle
 10
0.0299999840420284
 20
0.0350000000550033
 30
0.0
 40
0.015
  0
CIRCLE
  5
76B
330
1F
100
AcDbEntity
  8
PCB_OUTLINE
100
AcDbCircle
 10
0.1099999840420338
 20
0.0350000000550033
 30
0.0
 40
0.015
  0
CIRCLE
  5
76C
330
1F
100
AcDbEntity
  8
PCB_OUTLINE
100
AcDbCircle
 10
0.5899999840420236
 20
0.3550000000550035
 30
0.0
 40
0.015
  0
CIRCLE
  5
76D
330
1F
100
AcDbEntity
  8
PCB_OUTLINE
100
AcDbCircle
 10
0.5899999840420236
 20
0.4350000000550036
 30
0.0
 40
0.015
  0
CIRCLE
  5
76E
330
1F
100
AcDbEntity
  8
PCB_OUTLINE
100
AcDbCircle
 10
0.6699999840420219
 20
0.3550000000550035
 30
0.0
 40
0.015
  0
CIRCLE
  5
76F
330
1F
100
AcDbEntity
  8
PCB_OUTLINE
100
AcDbCircle
 10
0.6699999840420219
 20
0.4350000000550036
 30
0.0
 40
0.015
  0
CIRCLE
  5
770
330
1F
100
AcDbEntity
  8
PCB_OUTLINE
100
AcDbCircle
 10
0.7499999840420202
 20
0.3550000000550035
 30
0.0
 40
0.015
  0
CIRCLE
  5
771
330
1F
100
AcDbEntity
  8
PCB_OUTLINE
100
AcDbCircle
 10
0.7499999840420202
 20
0.4350000000550036
 30
0.0
 40
0.015
  0
CIRCLE
  5
772
330
1F
100
AcDbEntity
  8
PCB_OUTLINE
100
AcDbCircle
 10
0.8299999840420182
 20
0.3550000000550035
 30
0.0
 40
0.015
  0
CIRCLE
  5
773
330
1F
100
AcDbEntity
  8
PCB_OUTLINE
100
AcDbCircle
 10
0.8299999840420182
 20
0.4350000000550036
 30
0.0
 40
0.015
  0
CIRCLE
  5
774
330
1F
100
AcDbEntity
  8
PCB_OUTLINE
100
AcDbCircle
 10
0.9099999840420236
 20
0.3550000000550035
 30
0.0
 40
0.015
  0
CIRCLE
  5
775
330
1F
100
AcDbEntity
  8
PCB_OUTLINE
100
AcDbCircle
 10
0.9099999840420236
 20
0.4350000000550036
 30
0.0
 40
0.015
  0
CIRCLE
  5
776
330
1F
100
AcDbEntity
  8
PCB_OUTLINE
100
AcDbCircle
 10
0.9899999840420219
 20
0.3550000000550035
 30
0.0
 40
0.015
  0
CIRCLE
  5
777
330
1F
100
AcDbEntity
  8
PCB_OUTLINE
100
AcDbCircle
 10
0.9899999840420219
 20
0.4350000000550036
 30
0.0
 40
0.015
  0
CIRCLE
  5
778
330
1F
100
AcDbEntity
  8
PCB_OUTLINE
100
AcDbCircle
 10
1.149999984042018
 20
0.3550000000550035
 30
0.0
 40
0.015
  0
CIRCLE
  5
779
330
1F
100
AcDbEntity
  8
PCB_OUTLINE
100
AcDbCircle
 10
1.149999984042018
 20
0.4350000000550036
 30
0.0
 40
0.015
  0
CIRCLE
  5
77A
330
1F
100
AcDbEntity
  8
PCB_OUTLINE
100
AcDbCircle
 10
1.069999984042012
 20
0.3550000000550035
 30
0.0
 40
0.015
  0
CIRCLE
  5
77B
330
1F
100
AcDbEntity
  8
PCB_OUTLINE
100
AcDbCircle
 10
1.069999984042012
 20
0.4350000000550036
 30
0.0
 40
0.015
  0
CIRCLE
  5
77C
330
1F
100
AcDbEntity
  8
PCB_OUTLINE
100
AcDbCircle
 10
0.5899999840420236
 20
0.5150000000550037
 30
0.0
 40
0.015
  0
CIRCLE
  5
77D
330
1F
100
AcDbEntity
  8
PCB_OUTLINE
100
AcDbCircle
 10
0.6699999840420219
 20
0.5150000000550037
 30
0.0
 40
0.015
  0
CIRCLE
  5
77E
330
1F
100
AcDbEntity
  8
PCB_OUTLINE
100
AcDbCircle
 10
0.7499999840420202
 20
0.5150000000550037
 30
0.0
 40
0.015
  0
CIRCLE
  5
77F
330
1F
100
AcDbEntity
  8
PCB_OUTLINE
100
AcDbCircle
 10
0.8299999840420182
 20
0.5150000000550037
 30
0.0
 40
0.015
  0
CIRCLE
  5
780
330
1F
100
AcDbEntity
  8
PCB_OUTLINE
100
AcDbCircle
 10
0.9099999840420236
 20
0.5150000000550037
 30
0.0
 40
0.015
  0
CIRCLE
  5
781
330
1F
100
AcDbEntity
  8
PCB_OUTLINE
100
AcDbCircle
 10
0.9899999840420219
 20
0.5150000000550037
 30
0.0
 40
0.015
  0
CIRCLE
  5
782
330
1F
100
AcDbEntity
  8
PCB_OUTLINE
100
AcDbCircle
 10
1.149999984042018
 20
0.5150000000550037
 30
0.0
 40
0.015
  0
CIRCLE
  5
783
330
1F
100
AcDbEntity
  8
PCB_OUTLINE
100
AcDbCircle
 10
1.069999984042012
 20
0.5150000000550037
 30
0.0
 40
0.015
  0
CIRCLE
  5
784
330
1F
100
AcDbEntity
  8
PCB_OUTLINE
100
AcDbCircle
 10
1.709999984042013
 20
0.3550000000550035
 30
0.0
 40
0.015
  0
CIRCLE
  5
785
330
1F
100
AcDbEntity
  8
PCB_OUTLINE
100
AcDbCircle
 10
1.709999984042013
 20
0.4350000000550036
 30
0.0
 40
0.015
  0
CIRCLE
  5
786
330
1F
100
AcDbEntity
  8
PCB_OUTLINE
100
AcDbCircle
 10
1.629999984042014
 20
0.3550000000550035
 30
0.0
 40
0.015
  0
CIRCLE
  5
787
330
1F
100
AcDbEntity
  8
PCB_OUTLINE
100
AcDbCircle
 10
1.629999984042014
 20
0.4350000000550036
 30
0.0
 40
0.015
  0
CIRCLE
  5
788
330
1F
100
AcDbEntity
  8
PCB_OUTLINE
100
AcDbCircle
 10
1.549999984042016
 20
0.3550000000550035
 30
0.0
 40
0.015
  0
CIRCLE
  5
789
330
1F
100
AcDbEntity
  8
PCB_OUTLINE
100
AcDbCircle
 10
1.549999984042016
 20
0.4350000000550036
 30
0.0
 40
0.015
  0
CIRCLE
  5
78A
330
1F
100
AcDbEntity
  8
PCB_OUTLINE
100
AcDbCircle
 10
1.469999984042019
 20
0.3550000000550035
 30
0.0
 40
0.015
  0
CIRCLE
  5
78B
330
1F
100
AcDbEntity
  8
PCB_OUTLINE
100
AcDbCircle
 10
1.469999984042019
 20
0.4350000000550036
 30
0.0
 40
0.015
  0
CIRCLE
  5
78C
330
1F
100
AcDbEntity
  8
PCB_OUTLINE
100
AcDbCircle
 10
1.389999984042012
 20
0.3550000000550035
 30
0.0
 40
0.015
  0
CIRCLE
  5
78D
330
1F
100
AcDbEntity
  8
PCB_OUTLINE
100
AcDbCircle
 10
1.389999984042012
 20
0.4350000000550036
 30
0.0
 40
0.015
  0
CIRCLE
  5
78E
330
1F
100
AcDbEntity
  8
PCB_OUTLINE
100
AcDbCircle
 10
1.309999984042014
 20
0.3550000000550035
 30
0.0
 40
0.015
  0
CIRCLE
  5
78F
330
1F
100
AcDbEntity
  8
PCB_OUTLINE
100
AcDbCircle
 10
1.309999984042014
 20
0.4350000000550036
 30
0.0
 40
0.015
  0
CIRCLE
  5
790
330
1F
100
AcDbEntity
  8
PCB_OUTLINE
100
AcDbCircle
 10
1.229999984042024
 20
0.3550000000550035
 30
0.0
 40
0.015
  0
CIRCLE
  5
791
330
1F
100
AcDbEntity
  8
PCB_OUTLINE
100
AcDbCircle
 10
1.229999984042024
 20
0.4350000000550036
 30
0.0
 40
0.015
  0
CIRCLE
  5
792
330
1F
100
AcDbEntity
  8
PCB_OUTLINE
100
AcDbCircle
 10
1.709999984042013
 20
0.5150000000550037
 30
0.0
 40
0.015
  0
CIRCLE
  5
793
330
1F
100
AcDbEntity
  8
PCB_OUTLINE
100
AcDbCircle
 10
1.629999984042014
 20
0.5150000000550037
 30
0.0
 40
0.015
  0
CIRCLE
  5
794
330
1F
100
AcDbEntity
  8
PCB_OUTLINE
100
AcDbCircle
 10
1.549999984042016
 20
0.5150000000550037
 30
0.0
 40
0.015
  0
CIRCLE
  5
795
330
1F
100
AcDbEntity
  8
PCB_OUTLINE
100
AcDbCircle
 10
1.469999984042019
 20
0.5150000000550037
 30
0.0
 40
0.015
  0
CIRCLE
  5
796
330
1F
100
AcDbEntity
  8
PCB_OUTLINE
100
AcDbCircle
 10
1.389999984042012
 20
0.5150000000550037
 30
0.0
 40
0.015
  0
CIRCLE
  5
797
330
1F
100
AcDbEntity
  8
PCB_OUTLINE
100
AcDbCircle
 10
1.309999984042014
 20
0.5150000000550037
 30
0.0
 40
0.015
  0
CIRCLE
  5
798
330
1F
100
AcDbEntity
  8
PCB_OUTLINE
100
AcDbCircle
 10
1.229999984042024
 20
0.5150000000550037
 30
0.0
 40
0.015
  0
CIRCLE
  5
799
330
1F
100
AcDbEntity
  8
PCB_OUTLINE
100
AcDbCircle
 10
2.269999984042009
 20
0.3550000000550035
 30
0.0
 40
0.015
  0
CIRCLE
  5
79A
330
1F
100
AcDbEntity
  8
PCB_OUTLINE
100
AcDbCircle
 10
2.269999984042009
 20
0.4350000000550036
 30
0.0
 40
0.015
  0
CIRCLE
  5
79B
330
1F
100
AcDbEntity
  8
PCB_OUTLINE
100
AcDbCircle
 10
2.269999984042009
 20
0.5150000000550037
 30
0.0
 40
0.015
  0
CIRCLE
  5
79C
330
1F
100
AcDbEntity
  8
PCB_OUTLINE
100
AcDbCircle
 10
2.029999984042014
 20
0.3550000000550035
 30
0.0
 40
0.015
  0
CIRCLE
  5
79D
330
1F
100
AcDbEntity
  8
PCB_OUTLINE
100
AcDbCircle
 10
2.029999984042014
 20
0.4350000000550036
 30
0.0
 40
0.015
  0
CIRCLE
  5
79E
330
1F
100
AcDbEntity
  8
PCB_OUTLINE
100
AcDbCircle
 10
2.109999984042012
 20
0.3550000000550035
 30
0.0
 40
0.015
  0
CIRCLE
  5
79F
330
1F
100
AcDbEntity
  8
PCB_OUTLINE
100
AcDbCircle
 10
2.109999984042012
 20
0.4350000000550036
 30
0.0
 40
0.015
  0
CIRCLE
  5
7A0
330
1F
100
AcDbEntity
  8
PCB_OUTLINE
100
AcDbCircle
 10
2.189999984042003
 20
0.3550000000550035
 30
0.0
 40
0.015
  0
CIRCLE
  5
7A1
330
1F
100
AcDbEntity
  8
PCB_OUTLINE
100
AcDbCircle
 10
2.189999984042003
 20
0.4350000000550036
 30
0.0
 40
0.015
  0
CIRCLE
  5
7A2
330
1F
100
AcDbEntity
  8
PCB_OUTLINE
100
AcDbCircle
 10
1.789999984042012
 20
0.5150000000550037
 30
0.0
 40
0.015
  0
CIRCLE
  5
7A3
330
1F
100
AcDbEntity
  8
PCB_OUTLINE
100
AcDbCircle
 10
1.86999998404201
 20
0.5150000000550037
 30
0.0
 40
0.015
  0
CIRCLE
  5
7A4
330
1F
100
AcDbEntity
  8
PCB_OUTLINE
100
AcDbCircle
 10
1.949999984042007
 20
0.5150000000550037
 30
0.0
 40
0.015
  0
CIRCLE
  5
7A5
330
1F
100
AcDbEntity
  8
PCB_OUTLINE
100
AcDbCircle
 10
2.029999984042014
 20
0.5150000000550037
 30
0.0
 40
0.015
  0
CIRCLE
  5
7A6
330
1F
100
AcDbEntity
  8
PCB_OUTLINE
100
AcDbCircle
 10
2.109999984042012
 20
0.5150000000550037
 30
0.0
 40
0.015
  0
CIRCLE
  5
7A7
330
1F
100
AcDbEntity
  8
PCB_OUTLINE
100
AcDbCircle
 10
2.189999984042003
 20
0.5150000000550037
 30
0.0
 40
0.015
  0
CIRCLE
  5
7A8
330
1F
100
AcDbEntity
  8
PCB_OUTLINE
100
AcDbCircle
 10
0.2699999840420233
 20
0.3550000000550035
 30
0.0
 40
0.015
  0
CIRCLE
  5
7A9
330
1F
100
AcDbEntity
  8
PCB_OUTLINE
100
AcDbCircle
 10
0.2699999840420233
 20
0.4350000000550036
 30
0.0
 40
0.015
  0
CIRCLE
  5
7AA
330
1F
100
AcDbEntity
  8
PCB_OUTLINE
100
AcDbCircle
 10
0.189999984042025
 20
0.3550000000550035
 30
0.0
 40
0.015
  0
CIRCLE
  5
7AB
330
1F
100
AcDbEntity
  8
PCB_OUTLINE
100
AcDbCircle
 10
0.189999984042025
 20
0.4350000000550036
 30
0.0
 40
0.015
  0
CIRCLE
  5
7AC
330
1F
100
AcDbEntity
  8
PCB_OUTLINE
100
AcDbCircle
 10
0.0299999840420284
 20
0.3550000000550035
 30
0.0
 40
0.015
  0
CIRCLE
  5
7AD
330
1F
100
AcDbEntity
  8
PCB_OUTLINE
100
AcDbCircle
 10
0.0299999840420284
 20
0.4350000000550036
 30
0.0
 40
0.015
  0
CIRCLE
  5
7AE
330
1F
100
AcDbEntity
  8
PCB_OUTLINE
100
AcDbCircle
 10
0.1099999840420338
 20
0.3550000000550035
 30
0.0
 40
0.015
  0
CIRCLE
  5
7AF
330
1F
100
AcDbEntity
  8
PCB_OUTLINE
100
AcDbCircle
 10
0.1099999840420338
 20
0.4350000000550036
 30
0.0
 40
0.015
  0
CIRCLE
  5
7B0
330
1F
100
AcDbEntity
  8
PCB_OUTLINE
100
AcDbCircle
 10
0.2699999840420233
 20
0.5150000000550037
 30
0.0
 40
0.015
  0
CIRCLE
  5
7B1
330
1F
100
AcDbEntity
  8
PCB_OUTLINE
100
AcDbCircle
 10
0.189999984042025
 20
0.5150000000550037
 30
0.0
 40
0.015
  0
CIRCLE
  5
7B2
330
1F
100
AcDbEntity
  8
PCB_OUTLINE
100
AcDbCircle
 10
0.0299999840420284
 20
0.5150000000550037
 30
0.0
 40
0.015
  0
CIRCLE
  5
7B3
330
1F
100
AcDbEntity
  8
PCB_OUTLINE
100
AcDbCircle
 10
0.1099999840420338
 20
0.5150000000550037
 30
0.0
 40
0.015
  0
CIRCLE
  5
7B4
330
1F
100
AcDbEntity
  8
PCB_OUTLINE
100
AcDbCircle
 10
0.3499999840420216
 20
0.5150000000550037
 30
0.0
 40
0.015
  0
CIRCLE
  5
7B5
330
1F
100
AcDbEntity
  8
PCB_OUTLINE
100
AcDbCircle
 10
0.5099999840420182
 20
0.5150000000550037
 30
0.0
 40
0.015
  0
CIRCLE
  5
7B6
330
1F
100
AcDbEntity
  8
PCB_OUTLINE
100
AcDbCircle
 10
0.4299999840420128
 20
0.5150000000550037
 30
0.0
 40
0.015
  0
CIRCLE
  5
7B7
330
1F
100
AcDbEntity
  8
PCB_OUTLINE
100
AcDbCircle
 10
0.2699999840420233
 20
0.675000000055004
 30
0.0
 40
0.015
  0
CIRCLE
  5
7B8
330
1F
100
AcDbEntity
  8
PCB_OUTLINE
100
AcDbCircle
 10
0.2699999840420233
 20
0.5950000000550038
 30
0.0
 40
0.015
  0
CIRCLE
  5
7B9
330
1F
100
AcDbEntity
  8
PCB_OUTLINE
100
AcDbCircle
 10
0.189999984042025
 20
0.675000000055004
 30
0.0
 40
0.015
  0
CIRCLE
  5
7BA
330
1F
100
AcDbEntity
  8
PCB_OUTLINE
100
AcDbCircle
 10
0.189999984042025
 20
0.5950000000550038
 30
0.0
 40
0.015
  0
CIRCLE
  5
7BB
330
1F
100
AcDbEntity
  8
PCB_OUTLINE
100
AcDbCircle
 10
0.0299999840420284
 20
0.675000000055004
 30
0.0
 40
0.015
  0
CIRCLE
  5
7BC
330
1F
100
AcDbEntity
  8
PCB_OUTLINE
100
AcDbCircle
 10
0.0299999840420284
 20
0.5950000000550038
 30
0.0
 40
0.015
  0
CIRCLE
  5
7BD
330
1F
100
AcDbEntity
  8
PCB_OUTLINE
100
AcDbCircle
 10
0.1099999840420338
 20
0.675000000055004
 30
0.0
 40
0.015
  0
CIRCLE
  5
7BE
330
1F
100
AcDbEntity
  8
PCB_OUTLINE
100
AcDbCircle
 10
0.1099999840420338
 20
0.5950000000550038
 30
0.0
 40
0.015
  0
CIRCLE
  5
7BF
330
1F
100
AcDbEntity
  8
PCB_OUTLINE
100
AcDbCircle
 10
0.3499999840420216
 20
0.675000000055004
 30
0.0
 40
0.015
  0
CIRCLE
  5
7C0
330
1F
100
AcDbEntity
  8
PCB_OUTLINE
100
AcDbCircle
 10
0.3499999840420216
 20
0.5950000000550038
 30
0.0
 40
0.015
  0
CIRCLE
  5
7C1
330
1F
100
AcDbEntity
  8
PCB_OUTLINE
100
AcDbCircle
 10
0.5099999840420182
 20
0.675000000055004
 30
0.0
 40
0.015
  0
CIRCLE
  5
7C2
330
1F
100
AcDbEntity
  8
PCB_OUTLINE
100
AcDbCircle
 10
0.5099999840420182
 20
0.5950000000550038
 30
0.0
 40
0.015
  0
CIRCLE
  5
7C3
330
1F
100
AcDbEntity
  8
PCB_OUTLINE
100
AcDbCircle
 10
0.4299999840420128
 20
0.675000000055004
 30
0.0
 40
0.015
  0
CIRCLE
  5
7C4
330
1F
100
AcDbEntity
  8
PCB_OUTLINE
100
AcDbCircle
 10
0.4299999840420128
 20
0.5950000000550038
 30
0.0
 40
0.015
  0
CIRCLE
  5
7C5
330
1F
100
AcDbEntity
  8
PCB_OUTLINE
100
AcDbCircle
 10
0.7499999840420131
 20
0.675000000055004
 30
0.0
 40
0.015
  0
CIRCLE
  5
7C6
330
1F
100
AcDbEntity
  8
PCB_OUTLINE
100
AcDbCircle
 10
0.7499999840420131
 20
0.5950000000550038
 30
0.0
 40
0.015
  0
CIRCLE
  5
7C7
330
1F
100
AcDbEntity
  8
PCB_OUTLINE
100
AcDbCircle
 10
0.8299999840420111
 20
0.675000000055004
 30
0.0
 40
0.015
  0
CIRCLE
  5
7C8
330
1F
100
AcDbEntity
  8
PCB_OUTLINE
100
AcDbCircle
 10
0.8299999840420111
 20
0.5950000000550038
 30
0.0
 40
0.015
  0
CIRCLE
  5
7C9
330
1F
100
AcDbEntity
  8
PCB_OUTLINE
100
AcDbCircle
 10
0.9899999840420079
 20
0.675000000055004
 30
0.0
 40
0.015
  0
CIRCLE
  5
7CA
330
1F
100
AcDbEntity
  8
PCB_OUTLINE
100
AcDbCircle
 10
0.9899999840420079
 20
0.5950000000550038
 30
0.0
 40
0.015
  0
CIRCLE
  5
7CB
330
1F
100
AcDbEntity
  8
PCB_OUTLINE
100
AcDbCircle
 10
0.9099999840420023
 20
0.675000000055004
 30
0.0
 40
0.015
  0
CIRCLE
  5
7CC
330
1F
100
AcDbEntity
  8
PCB_OUTLINE
100
AcDbCircle
 10
0.9099999840420023
 20
0.5950000000550038
 30
0.0
 40
0.015
  0
CIRCLE
  5
7CD
330
1F
100
AcDbEntity
  8
PCB_OUTLINE
100
AcDbCircle
 10
0.6699999840420148
 20
0.675000000055004
 30
0.0
 40
0.015
  0
CIRCLE
  5
7CE
330
1F
100
AcDbEntity
  8
PCB_OUTLINE
100
AcDbCircle
 10
0.6699999840420148
 20
0.5950000000550038
 30
0.0
 40
0.015
  0
CIRCLE
  5
7CF
330
1F
100
AcDbEntity
  8
PCB_OUTLINE
100
AcDbCircle
 10
0.5899999840420236
 20
0.675000000055004
 30
0.0
 40
0.015
  0
CIRCLE
  5
7D0
330
1F
100
AcDbEntity
  8
PCB_OUTLINE
100
AcDbCircle
 10
0.5899999840420236
 20
0.5950000000550038
 30
0.0
 40
0.015
  0
CIRCLE
  5
7D1
330
1F
100
AcDbEntity
  8
PCB_OUTLINE
100
AcDbCircle
 10
1.149999984042018
 20
0.675000000055004
 30
0.0
 40
0.015
  0
CIRCLE
  5
7D2
330
1F
100
AcDbEntity
  8
PCB_OUTLINE
100
AcDbCircle
 10
1.149999984042018
 20
0.5950000000550038
 30
0.0
 40
0.015
  0
CIRCLE
  5
7D3
330
1F
100
AcDbEntity
  8
PCB_OUTLINE
100
AcDbCircle
 10
1.069999984042012
 20
0.675000000055004
 30
0.0
 40
0.015
  0
CIRCLE
  5
7D4
330
1F
100
AcDbEntity
  8
PCB_OUTLINE
100
AcDbCircle
 10
1.069999984042012
 20
0.5950000000550038
 30
0.0
 40
0.015
  0
CIRCLE
  5
7D5
330
1F
100
AcDbEntity
  8
PCB_OUTLINE
100
AcDbCircle
 10
1.709999984042013
 20
0.675000000055004
 30
0.0
 40
0.015
  0
CIRCLE
  5
7D6
330
1F
100
AcDbEntity
  8
PCB_OUTLINE
100
AcDbCircle
 10
1.709999984042013
 20
0.5950000000550038
 30
0.0
 40
0.015
  0
CIRCLE
  5
7D7
330
1F
100
AcDbEntity
  8
PCB_OUTLINE
100
AcDbCircle
 10
1.629999984042014
 20
0.675000000055004
 30
0.0
 40
0.015
  0
CIRCLE
  5
7D8
330
1F
100
AcDbEntity
  8
PCB_OUTLINE
100
AcDbCircle
 10
1.629999984042014
 20
0.5950000000550038
 30
0.0
 40
0.015
  0
CIRCLE
  5
7D9
330
1F
100
AcDbEntity
  8
PCB_OUTLINE
100
AcDbCircle
 10
1.549999984042016
 20
0.675000000055004
 30
0.0
 40
0.015
  0
CIRCLE
  5
7DA
330
1F
100
AcDbEntity
  8
PCB_OUTLINE
100
AcDbCircle
 10
1.549999984042016
 20
0.5950000000550038
 30
0.0
 40
0.015
  0
CIRCLE
  5
7DB
330
1F
100
AcDbEntity
  8
PCB_OUTLINE
100
AcDbCircle
 10
1.469999984042019
 20
0.675000000055004
 30
0.0
 40
0.015
  0
CIRCLE
  5
7DC
330
1F
100
AcDbEntity
  8
PCB_OUTLINE
100
AcDbCircle
 10
1.469999984042019
 20
0.5950000000550038
 30
0.0
 40
0.015
  0
CIRCLE
  5
7DD
330
1F
100
AcDbEntity
  8
PCB_OUTLINE
100
AcDbCircle
 10
1.389999984042012
 20
0.675000000055004
 30
0.0
 40
0.015
  0
CIRCLE
  5
7DE
330
1F
100
AcDbEntity
  8
PCB_OUTLINE
100
AcDbCircle
 10
1.389999984042012
 20
0.5950000000550038
 30
0.0
 40
0.015
  0
CIRCLE
  5
7DF
330
1F
100
AcDbEntity
  8
PCB_OUTLINE
100
AcDbCircle
 10
1.309999984042014
 20
0.675000000055004
 30
0.0
 40
0.015
  0
CIRCLE
  5
7E0
330
1F
100
AcDbEntity
  8
PCB_OUTLINE
100
AcDbCircle
 10
1.309999984042014
 20
0.5950000000550038
 30
0.0
 40
0.015
  0
CIRCLE
  5
7E1
330
1F
100
AcDbEntity
  8
PCB_OUTLINE
100
AcDbCircle
 10
1.229999984042024
 20
0.675000000055004
 30
0.0
 40
0.015
  0
CIRCLE
  5
7E2
330
1F
100
AcDbEntity
  8
PCB_OUTLINE
100
AcDbCircle
 10
1.229999984042024
 20
0.5950000000550038
 30
0.0
 40
0.015
  0
CIRCLE
  5
7E3
330
1F
100
AcDbEntity
  8
PCB_OUTLINE
100
AcDbCircle
 10
2.269999984042009
 20
0.675000000055004
 30
0.0
 40
0.015
  0
CIRCLE
  5
7E4
330
1F
100
AcDbEntity
  8
PCB_OUTLINE
100
AcDbCircle
 10
2.269999984042009
 20
0.5950000000550038
 30
0.0
 40
0.015
  0
CIRCLE
  5
7E5
330
1F
100
AcDbEntity
  8
PCB_OUTLINE
100
AcDbCircle
 10
1.789999984042012
 20
0.675000000055004
 30
0.0
 40
0.015
  0
CIRCLE
  5
7E6
330
1F
100
AcDbEntity
  8
PCB_OUTLINE
100
AcDbCircle
 10
1.789999984042012
 20
0.5950000000550038
 30
0.0
 40
0.015
  0
CIRCLE
  5
7E7
330
1F
100
AcDbEntity
  8
PCB_OUTLINE
100
AcDbCircle
 10
1.86999998404201
 20
0.675000000055004
 30
0.0
 40
0.015
  0
CIRCLE
  5
7E8
330
1F
100
AcDbEntity
  8
PCB_OUTLINE
100
AcDbCircle
 10
1.86999998404201
 20
0.5950000000550038
 30
0.0
 40
0.015
  0
CIRCLE
  5
7E9
330
1F
100
AcDbEntity
  8
PCB_OUTLINE
100
AcDbCircle
 10
1.949999984042007
 20
0.675000000055004
 30
0.0
 40
0.015
  0
CIRCLE
  5
7EA
330
1F
100
AcDbEntity
  8
PCB_OUTLINE
100
AcDbCircle
 10
1.949999984042007
 20
0.5950000000550038
 30
0.0
 40
0.015
  0
CIRCLE
  5
7EB
330
1F
100
AcDbEntity
  8
PCB_OUTLINE
100
AcDbCircle
 10
2.029999984042014
 20
0.675000000055004
 30
0.0
 40
0.015
  0
CIRCLE
  5
7EC
330
1F
100
AcDbEntity
  8
PCB_OUTLINE
100
AcDbCircle
 10
2.029999984042014
 20
0.5950000000550038
 30
0.0
 40
0.015
  0
CIRCLE
  5
7ED
330
1F
100
AcDbEntity
  8
PCB_OUTLINE
100
AcDbCircle
 10
2.109999984042012
 20
0.675000000055004
 30
0.0
 40
0.015
  0
CIRCLE
  5
7EE
330
1F
100
AcDbEntity
  8
PCB_OUTLINE
100
AcDbCircle
 10
2.109999984042012
 20
0.5950000000550038
 30
0.0
 40
0.015
  0
CIRCLE
  5
7EF
330
1F
100
AcDbEntity
  8
PCB_OUTLINE
100
AcDbCircle
 10
2.189999984042003
 20
0.675000000055004
 30
0.0
 40
0.015
  0
CIRCLE
  5
7F0
330
1F
100
AcDbEntity
  8
PCB_OUTLINE
100
AcDbCircle
 10
2.189999984042003
 20
0.5950000000550038
 30
0.0
 40
0.015
  0
CIRCLE
  5
7F1
330
1F
100
AcDbEntity
  8
PCB_OUTLINE
100
AcDbCircle
 10
0.5899999840420236
 20
0.8350000000550037
 30
0.0
 40
0.015
  0
CIRCLE
  5
7F2
330
1F
100
AcDbEntity
  8
PCB_OUTLINE
100
AcDbCircle
 10
0.6699999840420219
 20
0.8350000000550037
 30
0.0
 40
0.015
  0
CIRCLE
  5
7F3
330
1F
100
AcDbEntity
  8
PCB_OUTLINE
100
AcDbCircle
 10
0.7499999840420202
 20
0.8350000000550037
 30
0.0
 40
0.015
  0
CIRCLE
  5
7F4
330
1F
100
AcDbEntity
  8
PCB_OUTLINE
100
AcDbCircle
 10
0.8299999840420182
 20
0.8350000000550037
 30
0.0
 40
0.015
  0
CIRCLE
  5
7F5
330
1F
100
AcDbEntity
  8
PCB_OUTLINE
100
AcDbCircle
 10
0.9099999840420236
 20
0.8350000000550037
 30
0.0
 40
0.015
  0
CIRCLE
  5
7F6
330
1F
100
AcDbEntity
  8
PCB_OUTLINE
100
AcDbCircle
 10
0.9899999840420219
 20
0.8350000000550037
 30
0.0
 40
0.015
  0
CIRCLE
  5
7F7
330
1F
100
AcDbEntity
  8
PCB_OUTLINE
100
AcDbCircle
 10
1.149999984042018
 20
0.8350000000550037
 30
0.0
 40
0.015
  0
CIRCLE
  5
7F8
330
1F
100
AcDbEntity
  8
PCB_OUTLINE
100
AcDbCircle
 10
1.069999984042012
 20
0.8350000000550037
 30
0.0
 40
0.015
  0
CIRCLE
  5
7F9
330
1F
100
AcDbEntity
  8
PCB_OUTLINE
100
AcDbCircle
 10
1.709999984042013
 20
0.8350000000550037
 30
0.0
 40
0.015
  0
CIRCLE
  5
7FA
330
1F
100
AcDbEntity
  8
PCB_OUTLINE
100
AcDbCircle
 10
1.629999984042014
 20
0.8350000000550037
 30
0.0
 40
0.015
  0
CIRCLE
  5
7FB
330
1F
100
AcDbEntity
  8
PCB_OUTLINE
100
AcDbCircle
 10
1.549999984042016
 20
0.8350000000550037
 30
0.0
 40
0.015
  0
CIRCLE
  5
7FC
330
1F
100
AcDbEntity
  8
PCB_OUTLINE
100
AcDbCircle
 10
1.469999984042019
 20
0.8350000000550037
 30
0.0
 40
0.015
  0
CIRCLE
  5
7FD
330
1F
100
AcDbEntity
  8
PCB_OUTLINE
100
AcDbCircle
 10
1.389999984042012
 20
0.8350000000550037
 30
0.0
 40
0.015
  0
CIRCLE
  5
7FE
330
1F
100
AcDbEntity
  8
PCB_OUTLINE
100
AcDbCircle
 10
1.309999984042014
 20
0.8350000000550037
 30
0.0
 40
0.015
  0
CIRCLE
  5
7FF
330
1F
100
AcDbEntity
  8
PCB_OUTLINE
100
AcDbCircle
 10
1.229999984042024
 20
0.8350000000550037
 30
0.0
 40
0.015
  0
CIRCLE
  5
800
330
1F
100
AcDbEntity
  8
PCB_OUTLINE
100
AcDbCircle
 10
0.5099999840420182
 20
0.7550000000550039
 30
0.0
 40
0.015
  0
CIRCLE
  5
801
330
1F
100
AcDbEntity
  8
PCB_OUTLINE
100
AcDbCircle
 10
0.4299999840420128
 20
0.7550000000550039
 30
0.0
 40
0.015
  0
CIRCLE
  5
802
330
1F
100
AcDbEntity
  8
PCB_OUTLINE
100
AcDbCircle
 10
0.7499999840420131
 20
0.7550000000550039
 30
0.0
 40
0.015
  0
CIRCLE
  5
803
330
1F
100
AcDbEntity
  8
PCB_OUTLINE
100
AcDbCircle
 10
0.8299999840420111
 20
0.7550000000550039
 30
0.0
 40
0.015
  0
CIRCLE
  5
804
330
1F
100
AcDbEntity
  8
PCB_OUTLINE
100
AcDbCircle
 10
0.9899999840420079
 20
0.7550000000550039
 30
0.0
 40
0.015
  0
CIRCLE
  5
805
330
1F
100
AcDbEntity
  8
PCB_OUTLINE
100
AcDbCircle
 10
0.9099999840420023
 20
0.7550000000550039
 30
0.0
 40
0.015
  0
CIRCLE
  5
806
330
1F
100
AcDbEntity
  8
PCB_OUTLINE
100
AcDbCircle
 10
0.6699999840420148
 20
0.7550000000550039
 30
0.0
 40
0.015
  0
CIRCLE
  5
807
330
1F
100
AcDbEntity
  8
PCB_OUTLINE
100
AcDbCircle
 10
0.5899999840420236
 20
0.7550000000550039
 30
0.0
 40
0.015
  0
CIRCLE
  5
808
330
1F
100
AcDbEntity
  8
PCB_OUTLINE
100
AcDbCircle
 10
1.149999984042018
 20
0.7550000000550039
 30
0.0
 40
0.015
  0
CIRCLE
  5
809
330
1F
100
AcDbEntity
  8
PCB_OUTLINE
100
AcDbCircle
 10
1.069999984042012
 20
0.7550000000550039
 30
0.0
 40
0.015
  0
CIRCLE
  5
80A
330
1F
100
AcDbEntity
  8
PCB_OUTLINE
100
AcDbCircle
 10
1.709999984042013
 20
0.7550000000550039
 30
0.0
 40
0.015
  0
CIRCLE
  5
80B
330
1F
100
AcDbEntity
  8
PCB_OUTLINE
100
AcDbCircle
 10
1.629999984042014
 20
0.7550000000550039
 30
0.0
 40
0.015
  0
CIRCLE
  5
80C
330
1F
100
AcDbEntity
  8
PCB_OUTLINE
100
AcDbCircle
 10
1.549999984042016
 20
0.7550000000550039
 30
0.0
 40
0.015
  0
CIRCLE
  5
80D
330
1F
100
AcDbEntity
  8
PCB_OUTLINE
100
AcDbCircle
 10
1.469999984042019
 20
0.7550000000550039
 30
0.0
 40
0.015
  0
CIRCLE
  5
80E
330
1F
100
AcDbEntity
  8
PCB_OUTLINE
100
AcDbCircle
 10
1.389999984042012
 20
0.7550000000550039
 30
0.0
 40
0.015
  0
CIRCLE
  5
80F
330
1F
100
AcDbEntity
  8
PCB_OUTLINE
100
AcDbCircle
 10
1.309999984042014
 20
0.7550000000550039
 30
0.0
 40
0.015
  0
CIRCLE
  5
810
330
1F
100
AcDbEntity
  8
PCB_OUTLINE
100
AcDbCircle
 10
1.229999984042024
 20
0.7550000000550039
 30
0.0
 40
0.015
  0
CIRCLE
  5
811
330
1F
100
AcDbEntity
  8
PCB_OUTLINE
100
AcDbCircle
 10
1.789999984042012
 20
0.7550000000550039
 30
0.0
 40
0.015
  0
CIRCLE
  5
812
330
1F
100
AcDbEntity
  8
PCB_OUTLINE
100
AcDbCircle
 10
1.86999998404201
 20
0.7550000000550039
 30
0.0
 40
0.015
  0
CIRCLE
  5
813
330
1F
100
AcDbEntity
  8
PCB_OUTLINE
100
AcDbCircle
 10
0.5099999840420182
 20
0.9950000000550039
 30
0.0
 40
0.015
  0
CIRCLE
  5
814
330
1F
100
AcDbEntity
  8
PCB_OUTLINE
100
AcDbCircle
 10
0.5099999840420182
 20
1.075000000055003
 30
0.0
 40
0.015
  0
CIRCLE
  5
815
330
1F
100
AcDbEntity
  8
PCB_OUTLINE
100
AcDbCircle
 10
0.4299999840420128
 20
0.9950000000550039
 30
0.0
 40
0.015
  0
CIRCLE
  5
816
330
1F
100
AcDbEntity
  8
PCB_OUTLINE
100
AcDbCircle
 10
0.4299999840420128
 20
1.075000000055003
 30
0.0
 40
0.015
  0
CIRCLE
  5
817
330
1F
100
AcDbEntity
  8
PCB_OUTLINE
100
AcDbCircle
 10
0.7499999840420131
 20
0.9950000000550039
 30
0.0
 40
0.015
  0
CIRCLE
  5
818
330
1F
100
AcDbEntity
  8
PCB_OUTLINE
100
AcDbCircle
 10
0.7499999840420131
 20
1.075000000055003
 30
0.0
 40
0.015
  0
CIRCLE
  5
819
330
1F
100
AcDbEntity
  8
PCB_OUTLINE
100
AcDbCircle
 10
0.8299999840420111
 20
0.9950000000550039
 30
0.0
 40
0.015
  0
CIRCLE
  5
81A
330
1F
100
AcDbEntity
  8
PCB_OUTLINE
100
AcDbCircle
 10
0.8299999840420111
 20
1.075000000055003
 30
0.0
 40
0.015
  0
CIRCLE
  5
81B
330
1F
100
AcDbEntity
  8
PCB_OUTLINE
100
AcDbCircle
 10
0.9899999840420079
 20
0.9950000000550039
 30
0.0
 40
0.015
  0
CIRCLE
  5
81C
330
1F
100
AcDbEntity
  8
PCB_OUTLINE
100
AcDbCircle
 10
0.9899999840420079
 20
1.075000000055003
 30
0.0
 40
0.015
  0
CIRCLE
  5
81D
330
1F
100
AcDbEntity
  8
PCB_OUTLINE
100
AcDbCircle
 10
0.9099999840420023
 20
0.9950000000550039
 30
0.0
 40
0.015
  0
CIRCLE
  5
81E
330
1F
100
AcDbEntity
  8
PCB_OUTLINE
100
AcDbCircle
 10
0.9099999840420023
 20
1.075000000055003
 30
0.0
 40
0.015
  0
CIRCLE
  5
81F
330
1F
100
AcDbEntity
  8
PCB_OUTLINE
100
AcDbCircle
 10
0.6699999840420148
 20
0.9950000000550039
 30
0.0
 40
0.015
  0
CIRCLE
  5
820
330
1F
100
AcDbEntity
  8
PCB_OUTLINE
100
AcDbCircle
 10
0.6699999840420148
 20
1.075000000055003
 30
0.0
 40
0.015
  0
CIRCLE
  5
821
330
1F
100
AcDbEntity
  8
PCB_OUTLINE
100
AcDbCircle
 10
0.5899999840420236
 20
0.9950000000550039
 30
0.0
 40
0.015
  0
CIRCLE
  5
822
330
1F
100
AcDbEntity
  8
PCB_OUTLINE
100
AcDbCircle
 10
0.5899999840420236
 20
1.075000000055003
 30
0.0
 40
0.015
  0
CIRCLE
  5
823
330
1F
100
AcDbEntity
  8
PCB_OUTLINE
100
AcDbCircle
 10
1.149999984042018
 20
0.9950000000550039
 30
0.0
 40
0.015
  0
CIRCLE
  5
824
330
1F
100
AcDbEntity
  8
PCB_OUTLINE
100
AcDbCircle
 10
1.149999984042018
 20
1.075000000055003
 30
0.0
 40
0.015
  0
CIRCLE
  5
825
330
1F
100
AcDbEntity
  8
PCB_OUTLINE
100
AcDbCircle
 10
1.069999984042012
 20
0.9950000000550039
 30
0.0
 40
0.015
  0
CIRCLE
  5
826
330
1F
100
AcDbEntity
  8
PCB_OUTLINE
100
AcDbCircle
 10
1.069999984042012
 20
1.075000000055003
 30
0.0
 40
0.015
  0
CIRCLE
  5
827
330
1F
100
AcDbEntity
  8
PCB_OUTLINE
100
AcDbCircle
 10
1.709999984042013
 20
0.9950000000550039
 30
0.0
 40
0.015
  0
CIRCLE
  5
828
330
1F
100
AcDbEntity
  8
PCB_OUTLINE
100
AcDbCircle
 10
1.709999984042013
 20
1.075000000055003
 30
0.0
 40
0.015
  0
CIRCLE
  5
829
330
1F
100
AcDbEntity
  8
PCB_OUTLINE
100
AcDbCircle
 10
1.629999984042014
 20
0.9950000000550039
 30
0.0
 40
0.015
  0
CIRCLE
  5
82A
330
1F
100
AcDbEntity
  8
PCB_OUTLINE
100
AcDbCircle
 10
1.629999984042014
 20
1.075000000055003
 30
0.0
 40
0.015
  0
CIRCLE
  5
82B
330
1F
100
AcDbEntity
  8
PCB_OUTLINE
100
AcDbCircle
 10
1.549999984042016
 20
0.9950000000550039
 30
0.0
 40
0.015
  0
CIRCLE
  5
82C
330
1F
100
AcDbEntity
  8
PCB_OUTLINE
100
AcDbCircle
 10
1.549999984042016
 20
1.075000000055003
 30
0.0
 40
0.015
  0
CIRCLE
  5
82D
330
1F
100
AcDbEntity
  8
PCB_OUTLINE
100
AcDbCircle
 10
1.469999984042019
 20
0.9950000000550039
 30
0.0
 40
0.015
  0
CIRCLE
  5
82E
330
1F
100
AcDbEntity
  8
PCB_OUTLINE
100
AcDbCircle
 10
1.469999984042019
 20
1.075000000055003
 30
0.0
 40
0.015
  0
CIRCLE
  5
82F
330
1F
100
AcDbEntity
  8
PCB_OUTLINE
100
AcDbCircle
 10
1.389999984042012
 20
0.9950000000550039
 30
0.0
 40
0.015
  0
CIRCLE
  5
830
330
1F
100
AcDbEntity
  8
PCB_OUTLINE
100
AcDbCircle
 10
1.389999984042012
 20
1.075000000055003
 30
0.0
 40
0.015
  0
CIRCLE
  5
831
330
1F
100
AcDbEntity
  8
PCB_OUTLINE
100
AcDbCircle
 10
1.309999984042014
 20
0.9950000000550039
 30
0.0
 40
0.015
  0
CIRCLE
  5
832
330
1F
100
AcDbEntity
  8
PCB_OUTLINE
100
AcDbCircle
 10
1.309999984042014
 20
1.075000000055003
 30
0.0
 40
0.015
  0
CIRCLE
  5
833
330
1F
100
AcDbEntity
  8
PCB_OUTLINE
100
AcDbCircle
 10
1.229999984042024
 20
0.9950000000550039
 30
0.0
 40
0.015
  0
CIRCLE
  5
834
330
1F
100
AcDbEntity
  8
PCB_OUTLINE
100
AcDbCircle
 10
1.229999984042024
 20
1.075000000055003
 30
0.0
 40
0.015
  0
CIRCLE
  5
835
330
1F
100
AcDbEntity
  8
PCB_OUTLINE
100
AcDbCircle
 10
1.789999984042012
 20
0.9950000000550039
 30
0.0
 40
0.015
  0
CIRCLE
  5
836
330
1F
100
AcDbEntity
  8
PCB_OUTLINE
100
AcDbCircle
 10
1.789999984042012
 20
1.075000000055003
 30
0.0
 40
0.015
  0
CIRCLE
  5
837
330
1F
100
AcDbEntity
  8
PCB_OUTLINE
100
AcDbCircle
 10
1.86999998404201
 20
0.9950000000550039
 30
0.0
 40
0.015
  0
CIRCLE
  5
838
330
1F
100
AcDbEntity
  8
PCB_OUTLINE
100
AcDbCircle
 10
1.86999998404201
 20
1.075000000055003
 30
0.0
 40
0.015
  0
CIRCLE
  5
839
330
1F
100
AcDbEntity
  8
PCB_OUTLINE
100
AcDbCircle
 10
0.7499999840420131
 20
0.915000000055004
 30
0.0
 40
0.015
  0
CIRCLE
  5
83A
330
1F
100
AcDbEntity
  8
PCB_OUTLINE
100
AcDbCircle
 10
0.8299999840420111
 20
0.915000000055004
 30
0.0
 40
0.015
  0
CIRCLE
  5
83B
330
1F
100
AcDbEntity
  8
PCB_OUTLINE
100
AcDbCircle
 10
0.9899999840420079
 20
0.915000000055004
 30
0.0
 40
0.015
  0
CIRCLE
  5
83C
330
1F
100
AcDbEntity
  8
PCB_OUTLINE
100
AcDbCircle
 10
0.9099999840420023
 20
0.915000000055004
 30
0.0
 40
0.015
  0
CIRCLE
  5
83D
330
1F
100
AcDbEntity
  8
PCB_OUTLINE
100
AcDbCircle
 10
0.6699999840420148
 20
0.915000000055004
 30
0.0
 40
0.015
  0
CIRCLE
  5
83E
330
1F
100
AcDbEntity
  8
PCB_OUTLINE
100
AcDbCircle
 10
0.5899999840420236
 20
0.915000000055004
 30
0.0
 40
0.015
  0
CIRCLE
  5
83F
330
1F
100
AcDbEntity
  8
PCB_OUTLINE
100
AcDbCircle
 10
1.149999984042018
 20
0.915000000055004
 30
0.0
 40
0.015
  0
CIRCLE
  5
840
330
1F
100
AcDbEntity
  8
PCB_OUTLINE
100
AcDbCircle
 10
1.069999984042012
 20
0.915000000055004
 30
0.0
 40
0.015
  0
CIRCLE
  5
841
330
1F
100
AcDbEntity
  8
PCB_OUTLINE
100
AcDbCircle
 10
1.709999984042013
 20
0.915000000055004
 30
0.0
 40
0.015
  0
CIRCLE
  5
842
330
1F
100
AcDbEntity
  8
PCB_OUTLINE
100
AcDbCircle
 10
1.629999984042014
 20
0.915000000055004
 30
0.0
 40
0.015
  0
CIRCLE
  5
843
330
1F
100
AcDbEntity
  8
PCB_OUTLINE
100
AcDbCircle
 10
1.549999984042016
 20
0.915000000055004
 30
0.0
 40
0.015
  0
CIRCLE
  5
844
330
1F
100
AcDbEntity
  8
PCB_OUTLINE
100
AcDbCircle
 10
1.469999984042019
 20
0.915000000055004
 30
0.0
 40
0.015
  0
CIRCLE
  5
845
330
1F
100
AcDbEntity
  8
PCB_OUTLINE
100
AcDbCircle
 10
1.389999984042012
 20
0.915000000055004
 30
0.0
 40
0.015
  0
CIRCLE
  5
846
330
1F
100
AcDbEntity
  8
PCB_OUTLINE
100
AcDbCircle
 10
1.309999984042014
 20
0.915000000055004
 30
0.0
 40
0.015
  0
CIRCLE
  5
847
330
1F
100
AcDbEntity
  8
PCB_OUTLINE
100
AcDbCircle
 10
1.229999984042024
 20
0.915000000055004
 30
0.0
 40
0.015
  0
CIRCLE
  5
848
330
1F
100
AcDbEntity
  8
PCB_OUTLINE
100
AcDbCircle
 10
0.5099999840420182
 20
1.155000000055004
 30
0.0
 40
0.015
  0
CIRCLE
  5
849
330
1F
100
AcDbEntity
  8
PCB_OUTLINE
100
AcDbCircle
 10
0.4299999840420128
 20
1.155000000055004
 30
0.0
 40
0.015
  0
CIRCLE
  5
84A
330
1F
100
AcDbEntity
  8
PCB_OUTLINE
100
AcDbCircle
 10
0.7499999840420131
 20
1.155000000055004
 30
0.0
 40
0.015
  0
CIRCLE
  5
84B
330
1F
100
AcDbEntity
  8
PCB_OUTLINE
100
AcDbCircle
 10
0.8299999840420111
 20
1.155000000055004
 30
0.0
 40
0.015
  0
CIRCLE
  5
84C
330
1F
100
AcDbEntity
  8
PCB_OUTLINE
100
AcDbCircle
 10
0.9899999840420079
 20
1.155000000055004
 30
0.0
 40
0.015
  0
CIRCLE
  5
84D
330
1F
100
AcDbEntity
  8
PCB_OUTLINE
100
AcDbCircle
 10
0.9099999840420023
 20
1.155000000055004
 30
0.0
 40
0.015
  0
CIRCLE
  5
84E
330
1F
100
AcDbEntity
  8
PCB_OUTLINE
100
AcDbCircle
 10
0.6699999840420148
 20
1.155000000055004
 30
0.0
 40
0.015
  0
CIRCLE
  5
84F
330
1F
100
AcDbEntity
  8
PCB_OUTLINE
100
AcDbCircle
 10
0.5899999840420236
 20
1.155000000055004
 30
0.0
 40
0.015
  0
CIRCLE
  5
850
330
1F
100
AcDbEntity
  8
PCB_OUTLINE
100
AcDbCircle
 10
1.149999984042018
 20
1.155000000055004
 30
0.0
 40
0.015
  0
CIRCLE
  5
851
330
1F
100
AcDbEntity
  8
PCB_OUTLINE
100
AcDbCircle
 10
1.069999984042012
 20
1.155000000055004
 30
0.0
 40
0.015
  0
CIRCLE
  5
852
330
1F
100
AcDbEntity
  8
PCB_OUTLINE
100
AcDbCircle
 10
1.709999984042013
 20
1.155000000055004
 30
0.0
 40
0.015
  0
CIRCLE
  5
853
330
1F
100
AcDbEntity
  8
PCB_OUTLINE
100
AcDbCircle
 10
1.629999984042014
 20
1.155000000055004
 30
0.0
 40
0.015
  0
CIRCLE
  5
854
330
1F
100
AcDbEntity
  8
PCB_OUTLINE
100
AcDbCircle
 10
1.549999984042016
 20
1.155000000055004
 30
0.0
 40
0.015
  0
CIRCLE
  5
855
330
1F
100
AcDbEntity
  8
PCB_OUTLINE
100
AcDbCircle
 10
1.469999984042019
 20
1.155000000055004
 30
0.0
 40
0.015
  0
CIRCLE
  5
856
330
1F
100
AcDbEntity
  8
PCB_OUTLINE
100
AcDbCircle
 10
1.389999984042012
 20
1.155000000055004
 30
0.0
 40
0.015
  0
CIRCLE
  5
857
330
1F
100
AcDbEntity
  8
PCB_OUTLINE
100
AcDbCircle
 10
1.309999984042014
 20
1.155000000055004
 30
0.0
 40
0.015
  0
CIRCLE
  5
858
330
1F
100
AcDbEntity
  8
PCB_OUTLINE
100
AcDbCircle
 10
1.229999984042024
 20
1.155000000055004
 30
0.0
 40
0.015
  0
CIRCLE
  5
859
330
1F
100
AcDbEntity
  8
PCB_OUTLINE
100
AcDbCircle
 10
1.789999984042012
 20
1.155000000055004
 30
0.0
 40
0.015
  0
CIRCLE
  5
85A
330
1F
100
AcDbEntity
  8
PCB_OUTLINE
100
AcDbCircle
 10
1.86999998404201
 20
1.155000000055004
 30
0.0
 40
0.015
  0
CIRCLE
  5
85B
330
1F
100
AcDbEntity
  8
PCB_OUTLINE
100
AcDbCircle
 10
0.5099999840420182
 20
1.235000000055004
 30
0.0
 40
0.015
  0
CIRCLE
  5
85C
330
1F
100
AcDbEntity
  8
PCB_OUTLINE
100
AcDbCircle
 10
0.4299999840420128
 20
1.235000000055004
 30
0.0
 40
0.015
  0
CIRCLE
  5
85D
330
1F
100
AcDbEntity
  8
PCB_OUTLINE
100
AcDbCircle
 10
0.7499999840420131
 20
1.315000000055004
 30
0.0
 40
0.015
  0
CIRCLE
  5
85E
330
1F
100
AcDbEntity
  8
PCB_OUTLINE
100
AcDbCircle
 10
0.7499999840420131
 20
1.235000000055004
 30
0.0
 40
0.015
  0
CIRCLE
  5
85F
330
1F
100
AcDbEntity
  8
PCB_OUTLINE
100
AcDbCircle
 10
0.8299999840420111
 20
1.315000000055004
 30
0.0
 40
0.015
  0
CIRCLE
  5
860
330
1F
100
AcDbEntity
  8
PCB_OUTLINE
100
AcDbCircle
 10
0.8299999840420111
 20
1.235000000055004
 30
0.0
 40
0.015
  0
CIRCLE
  5
861
330
1F
100
AcDbEntity
  8
PCB_OUTLINE
100
AcDbCircle
 10
0.9899999840420079
 20
1.315000000055004
 30
0.0
 40
0.015
  0
CIRCLE
  5
862
330
1F
100
AcDbEntity
  8
PCB_OUTLINE
100
AcDbCircle
 10
0.9899999840420079
 20
1.235000000055004
 30
0.0
 40
0.015
  0
CIRCLE
  5
863
330
1F
100
AcDbEntity
  8
PCB_OUTLINE
100
AcDbCircle
 10
0.9099999840420023
 20
1.315000000055004
 30
0.0
 40
0.015
  0
CIRCLE
  5
864
330
1F
100
AcDbEntity
  8
PCB_OUTLINE
100
AcDbCircle
 10
0.9099999840420023
 20
1.235000000055004
 30
0.0
 40
0.015
  0
CIRCLE
  5
865
330
1F
100
AcDbEntity
  8
PCB_OUTLINE
100
AcDbCircle
 10
0.6699999840420148
 20
1.315000000055004
 30
0.0
 40
0.015
  0
CIRCLE
  5
866
330
1F
100
AcDbEntity
  8
PCB_OUTLINE
100
AcDbCircle
 10
0.6699999840420148
 20
1.235000000055004
 30
0.0
 40
0.015
  0
CIRCLE
  5
867
330
1F
100
AcDbEntity
  8
PCB_OUTLINE
100
AcDbCircle
 10
0.5899999840420236
 20
1.315000000055004
 30
0.0
 40
0.015
  0
CIRCLE
  5
868
330
1F
100
AcDbEntity
  8
PCB_OUTLINE
100
AcDbCircle
 10
0.5899999840420236
 20
1.235000000055004
 30
0.0
 40
0.015
  0
CIRCLE
  5
869
330
1F
100
AcDbEntity
  8
PCB_OUTLINE
100
AcDbCircle
 10
1.149999984042018
 20
1.315000000055004
 30
0.0
 40
0.015
  0
CIRCLE
  5
86A
330
1F
100
AcDbEntity
  8
PCB_OUTLINE
100
AcDbCircle
 10
1.149999984042018
 20
1.235000000055004
 30
0.0
 40
0.015
  0
CIRCLE
  5
86B
330
1F
100
AcDbEntity
  8
PCB_OUTLINE
100
AcDbCircle
 10
1.069999984042012
 20
1.315000000055004
 30
0.0
 40
0.015
  0
CIRCLE
  5
86C
330
1F
100
AcDbEntity
  8
PCB_OUTLINE
100
AcDbCircle
 10
1.069999984042012
 20
1.235000000055004
 30
0.0
 40
0.015
  0
CIRCLE
  5
86D
330
1F
100
AcDbEntity
  8
PCB_OUTLINE
100
AcDbCircle
 10
1.709999984042013
 20
1.315000000055004
 30
0.0
 40
0.015
  0
CIRCLE
  5
86E
330
1F
100
AcDbEntity
  8
PCB_OUTLINE
100
AcDbCircle
 10
1.709999984042013
 20
1.235000000055004
 30
0.0
 40
0.015
  0
CIRCLE
  5
86F
330
1F
100
AcDbEntity
  8
PCB_OUTLINE
100
AcDbCircle
 10
1.629999984042014
 20
1.315000000055004
 30
0.0
 40
0.015
  0
CIRCLE
  5
870
330
1F
100
AcDbEntity
  8
PCB_OUTLINE
100
AcDbCircle
 10
1.629999984042014
 20
1.235000000055004
 30
0.0
 40
0.015
  0
CIRCLE
  5
871
330
1F
100
AcDbEntity
  8
PCB_OUTLINE
100
AcDbCircle
 10
1.549999984042016
 20
1.315000000055004
 30
0.0
 40
0.015
  0
CIRCLE
  5
872
330
1F
100
AcDbEntity
  8
PCB_OUTLINE
100
AcDbCircle
 10
1.549999984042016
 20
1.235000000055004
 30
0.0
 40
0.015
  0
CIRCLE
  5
873
330
1F
100
AcDbEntity
  8
PCB_OUTLINE
100
AcDbCircle
 10
1.469999984042019
 20
1.315000000055004
 30
0.0
 40
0.015
  0
CIRCLE
  5
874
330
1F
100
AcDbEntity
  8
PCB_OUTLINE
100
AcDbCircle
 10
1.469999984042019
 20
1.235000000055004
 30
0.0
 40
0.015
  0
CIRCLE
  5
875
330
1F
100
AcDbEntity
  8
PCB_OUTLINE
100
AcDbCircle
 10
1.389999984042012
 20
1.315000000055004
 30
0.0
 40
0.015
  0
CIRCLE
  5
876
330
1F
100
AcDbEntity
  8
PCB_OUTLINE
100
AcDbCircle
 10
1.389999984042012
 20
1.235000000055004
 30
0.0
 40
0.015
  0
CIRCLE
  5
877
330
1F
100
AcDbEntity
  8
PCB_OUTLINE
100
AcDbCircle
 10
1.309999984042014
 20
1.315000000055004
 30
0.0
 40
0.015
  0
CIRCLE
  5
878
330
1F
100
AcDbEntity
  8
PCB_OUTLINE
100
AcDbCircle
 10
1.309999984042014
 20
1.235000000055004
 30
0.0
 40
0.015
  0
CIRCLE
  5
879
330
1F
100
AcDbEntity
  8
PCB_OUTLINE
100
AcDbCircle
 10
1.229999984042024
 20
1.315000000055004
 30
0.0
 40
0.015
  0
CIRCLE
  5
87A
330
1F
100
AcDbEntity
  8
PCB_OUTLINE
100
AcDbCircle
 10
1.229999984042024
 20
1.235000000055004
 30
0.0
 40
0.015
  0
CIRCLE
  5
87B
330
1F
100
AcDbEntity
  8
PCB_OUTLINE
100
AcDbCircle
 10
1.789999984042012
 20
1.235000000055004
 30
0.0
 40
0.015
  0
CIRCLE
  5
87C
330
1F
100
AcDbEntity
  8
PCB_OUTLINE
100
AcDbCircle
 10
1.86999998404201
 20
1.235000000055004
 30
0.0
 40
0.015
  0
CIRCLE
  5
87D
330
1F
100
AcDbEntity
  8
PCB_OUTLINE
100
AcDbCircle
 10
0.3499999840420074
 20
1.075000000055003
 30
0.0
 40
0.015
  0
CIRCLE
  5
87E
330
1F
100
AcDbEntity
  8
PCB_OUTLINE
100
AcDbCircle
 10
0.1099999840420125
 20
1.075000000055003
 30
0.0
 40
0.015
  0
CIRCLE
  5
87F
330
1F
100
AcDbEntity
  8
PCB_OUTLINE
100
AcDbCircle
 10
0.0299999840420142
 20
1.075000000055003
 30
0.0
 40
0.015
  0
CIRCLE
  5
880
330
1F
100
AcDbEntity
  8
PCB_OUTLINE
100
AcDbCircle
 10
0.1899999840420108
 20
1.075000000055003
 30
0.0
 40
0.015
  0
CIRCLE
  5
881
330
1F
100
AcDbEntity
  8
PCB_OUTLINE
100
AcDbCircle
 10
0.269999984042002
 20
1.075000000055003
 30
0.0
 40
0.015
  0
CIRCLE
  5
882
330
1F
100
AcDbEntity
  8
PCB_OUTLINE
100
AcDbCircle
 10
0.3499999840420074
 20
1.155000000055004
 30
0.0
 40
0.015
  0
CIRCLE
  5
883
330
1F
100
AcDbEntity
  8
PCB_OUTLINE
100
AcDbCircle
 10
0.1099999840420125
 20
1.155000000055004
 30
0.0
 40
0.015
  0
CIRCLE
  5
884
330
1F
100
AcDbEntity
  8
PCB_OUTLINE
100
AcDbCircle
 10
0.0299999840420142
 20
1.155000000055004
 30
0.0
 40
0.015
  0
CIRCLE
  5
885
330
1F
100
AcDbEntity
  8
PCB_OUTLINE
100
AcDbCircle
 10
0.1899999840420108
 20
1.155000000055004
 30
0.0
 40
0.015
  0
CIRCLE
  5
886
330
1F
100
AcDbEntity
  8
PCB_OUTLINE
100
AcDbCircle
 10
0.269999984042002
 20
1.155000000055004
 30
0.0
 40
0.015
  0
CIRCLE
  5
887
330
1F
100
AcDbEntity
  8
PCB_OUTLINE
100
AcDbCircle
 10
0.3499999840420074
 20
1.235000000055004
 30
0.0
 40
0.015
  0
CIRCLE
  5
888
330
1F
100
AcDbEntity
  8
PCB_OUTLINE
100
AcDbCircle
 10
0.1099999840420125
 20
1.315000000055004
 30
0.0
 40
0.015
  0
CIRCLE
  5
889
330
1F
100
AcDbEntity
  8
PCB_OUTLINE
100
AcDbCircle
 10
0.1099999840420125
 20
1.235000000055004
 30
0.0
 40
0.015
  0
CIRCLE
  5
88A
330
1F
100
AcDbEntity
  8
PCB_OUTLINE
100
AcDbCircle
 10
0.0299999840420142
 20
1.315000000055004
 30
0.0
 40
0.015
  0
CIRCLE
  5
88B
330
1F
100
AcDbEntity
  8
PCB_OUTLINE
100
AcDbCircle
 10
0.0299999840420142
 20
1.235000000055004
 30
0.0
 40
0.015
  0
CIRCLE
  5
88C
330
1F
100
AcDbEntity
  8
PCB_OUTLINE
100
AcDbCircle
 10
0.1899999840420108
 20
1.315000000055004
 30
0.0
 40
0.015
  0
CIRCLE
  5
88D
330
1F
100
AcDbEntity
  8
PCB_OUTLINE
100
AcDbCircle
 10
0.1899999840420108
 20
1.235000000055004
 30
0.0
 40
0.015
  0
CIRCLE
  5
88E
330
1F
100
AcDbEntity
  8
PCB_OUTLINE
100
AcDbCircle
 10
0.269999984042002
 20
1.315000000055004
 30
0.0
 40
0.015
  0
CIRCLE
  5
88F
330
1F
100
AcDbEntity
  8
PCB_OUTLINE
100
AcDbCircle
 10
0.269999984042002
 20
1.235000000055004
 30
0.0
 40
0.015
  0
CIRCLE
  5
890
330
1F
100
AcDbEntity
  8
PCB_OUTLINE
100
AcDbCircle
 10
2.029999984042006
 20
1.075000000055003
 30
0.0
 40
0.015
  0
CIRCLE
  5
891
330
1F
100
AcDbEntity
  8
PCB_OUTLINE
100
AcDbCircle
 10
2.109999984042004
 20
1.075000000055003
 30
0.0
 40
0.015
  0
CIRCLE
  5
892
330
1F
100
AcDbEntity
  8
PCB_OUTLINE
100
AcDbCircle
 10
2.189999984042003
 20
1.075000000055003
 30
0.0
 40
0.015
  0
CIRCLE
  5
893
330
1F
100
AcDbEntity
  8
PCB_OUTLINE
100
AcDbCircle
 10
1.949999984042007
 20
1.075000000055003
 30
0.0
 40
0.015
  0
CIRCLE
  5
894
330
1F
100
AcDbEntity
  8
PCB_OUTLINE
100
AcDbCircle
 10
2.029999984042006
 20
1.155000000055004
 30
0.0
 40
0.015
  0
CIRCLE
  5
895
330
1F
100
AcDbEntity
  8
PCB_OUTLINE
100
AcDbCircle
 10
2.109999984042004
 20
1.155000000055004
 30
0.0
 40
0.015
  0
CIRCLE
  5
896
330
1F
100
AcDbEntity
  8
PCB_OUTLINE
100
AcDbCircle
 10
2.189999984042003
 20
1.155000000055004
 30
0.0
 40
0.015
  0
CIRCLE
  5
897
330
1F
100
AcDbEntity
  8
PCB_OUTLINE
100
AcDbCircle
 10
1.949999984042007
 20
1.155000000055004
 30
0.0
 40
0.015
  0
CIRCLE
  5
898
330
1F
100
AcDbEntity
  8
PCB_OUTLINE
100
AcDbCircle
 10
2.029999984042006
 20
1.235000000055004
 30
0.0
 40
0.015
  0
CIRCLE
  5
899
330
1F
100
AcDbEntity
  8
PCB_OUTLINE
100
AcDbCircle
 10
2.109999984042004
 20
1.235000000055004
 30
0.0
 40
0.015
  0
CIRCLE
  5
89A
330
1F
100
AcDbEntity
  8
PCB_OUTLINE
100
AcDbCircle
 10
2.189999984042003
 20
1.235000000055004
 30
0.0
 40
0.015
  0
CIRCLE
  5
89B
330
1F
100
AcDbEntity
  8
PCB_OUTLINE
100
AcDbCircle
 10
1.949999984042007
 20
1.235000000055004
 30
0.0
 40
0.015
  0
CIRCLE
  5
89C
330
1F
100
AcDbEntity
  8
PCB_OUTLINE
100
AcDbCircle
 10
2.269999984042001
 20
1.155000000055004
 30
0.0
 40
0.015
  0
CIRCLE
  5
89D
330
1F
100
AcDbEntity
  8
PCB_OUTLINE
100
AcDbCircle
 10
2.269999984042001
 20
1.235000000055004
 30
0.0
 40
0.015
  0
CIRCLE
  5
89E
330
1F
100
AcDbEntity
  8
PCB_OUTLINE
100
AcDbCircle
 10
2.029999984042006
 20
1.475000000055004
 30
0.0
 40
0.015
  0
CIRCLE
  5
89F
330
1F
100
AcDbEntity
  8
PCB_OUTLINE
100
AcDbCircle
 10
2.029999984042006
 20
1.395000000055004
 30
0.0
 40
0.015
  0
CIRCLE
  5
8A0
330
1F
100
AcDbEntity
  8
PCB_OUTLINE
100
AcDbCircle
 10
2.109999984042004
 20
1.475000000055004
 30
0.0
 40
0.015
  0
CIRCLE
  5
8A1
330
1F
100
AcDbEntity
  8
PCB_OUTLINE
100
AcDbCircle
 10
2.109999984042004
 20
1.395000000055004
 30
0.0
 40
0.015
  0
CIRCLE
  5
8A2
330
1F
100
AcDbEntity
  8
PCB_OUTLINE
100
AcDbCircle
 10
2.189999984042003
 20
1.475000000055004
 30
0.0
 40
0.015
  0
CIRCLE
  5
8A3
330
1F
100
AcDbEntity
  8
PCB_OUTLINE
100
AcDbCircle
 10
2.189999984042003
 20
1.395000000055004
 30
0.0
 40
0.015
  0
CIRCLE
  5
8A4
330
1F
100
AcDbEntity
  8
PCB_OUTLINE
100
AcDbCircle
 10
2.029999984042006
 20
1.315000000055004
 30
0.0
 40
0.015
  0
CIRCLE
  5
8A5
330
1F
100
AcDbEntity
  8
PCB_OUTLINE
100
AcDbCircle
 10
2.109999984042004
 20
1.315000000055004
 30
0.0
 40
0.015
  0
CIRCLE
  5
8A6
330
1F
100
AcDbEntity
  8
PCB_OUTLINE
100
AcDbCircle
 10
2.189999984042003
 20
1.315000000055004
 30
0.0
 40
0.015
  0
CIRCLE
  5
8A7
330
1F
100
AcDbEntity
  8
PCB_OUTLINE
100
AcDbCircle
 10
2.269999984042001
 20
1.475000000055004
 30
0.0
 40
0.015
  0
CIRCLE
  5
8A8
330
1F
100
AcDbEntity
  8
PCB_OUTLINE
100
AcDbCircle
 10
2.269999984042001
 20
1.395000000055004
 30
0.0
 40
0.015
  0
CIRCLE
  5
8A9
330
1F
100
AcDbEntity
  8
PCB_OUTLINE
100
AcDbCircle
 10
2.269999984042001
 20
1.315000000055004
 30
0.0
 40
0.015
  0
CIRCLE
  5
8AA
330
1F
100
AcDbEntity
  8
PCB_OUTLINE
100
AcDbCircle
 10
0.7499999840420131
 20
1.475000000055004
 30
0.0
 40
0.015
  0
CIRCLE
  5
8AB
330
1F
100
AcDbEntity
  8
PCB_OUTLINE
100
AcDbCircle
 10
0.8299999840420111
 20
1.475000000055004
 30
0.0
 40
0.015
  0
CIRCLE
  5
8AC
330
1F
100
AcDbEntity
  8
PCB_OUTLINE
100
AcDbCircle
 10
0.9899999840420079
 20
1.475000000055004
 30
0.0
 40
0.015
  0
CIRCLE
  5
8AD
330
1F
100
AcDbEntity
  8
PCB_OUTLINE
100
AcDbCircle
 10
0.9099999840420023
 20
1.475000000055004
 30
0.0
 40
0.015
  0
CIRCLE
  5
8AE
330
1F
100
AcDbEntity
  8
PCB_OUTLINE
100
AcDbCircle
 10
0.6699999840420148
 20
1.475000000055004
 30
0.0
 40
0.015
  0
CIRCLE
  5
8AF
330
1F
100
AcDbEntity
  8
PCB_OUTLINE
100
AcDbCircle
 10
0.5899999840420236
 20
1.475000000055004
 30
0.0
 40
0.015
  0
CIRCLE
  5
8B0
330
1F
100
AcDbEntity
  8
PCB_OUTLINE
100
AcDbCircle
 10
1.149999984042018
 20
1.475000000055004
 30
0.0
 40
0.015
  0
CIRCLE
  5
8B1
330
1F
100
AcDbEntity
  8
PCB_OUTLINE
100
AcDbCircle
 10
1.069999984042012
 20
1.475000000055004
 30
0.0
 40
0.015
  0
CIRCLE
  5
8B2
330
1F
100
AcDbEntity
  8
PCB_OUTLINE
100
AcDbCircle
 10
1.709999984042013
 20
1.475000000055004
 30
0.0
 40
0.015
  0
CIRCLE
  5
8B3
330
1F
100
AcDbEntity
  8
PCB_OUTLINE
100
AcDbCircle
 10
1.629999984042014
 20
1.475000000055004
 30
0.0
 40
0.015
  0
CIRCLE
  5
8B4
330
1F
100
AcDbEntity
  8
PCB_OUTLINE
100
AcDbCircle
 10
1.549999984042016
 20
1.475000000055004
 30
0.0
 40
0.015
  0
CIRCLE
  5
8B5
330
1F
100
AcDbEntity
  8
PCB_OUTLINE
100
AcDbCircle
 10
1.469999984042019
 20
1.475000000055004
 30
0.0
 40
0.015
  0
CIRCLE
  5
8B6
330
1F
100
AcDbEntity
  8
PCB_OUTLINE
100
AcDbCircle
 10
1.389999984042012
 20
1.475000000055004
 30
0.0
 40
0.015
  0
CIRCLE
  5
8B7
330
1F
100
AcDbEntity
  8
PCB_OUTLINE
100
AcDbCircle
 10
1.309999984042014
 20
1.475000000055004
 30
0.0
 40
0.015
  0
CIRCLE
  5
8B8
330
1F
100
AcDbEntity
  8
PCB_OUTLINE
100
AcDbCircle
 10
1.229999984042024
 20
1.475000000055004
 30
0.0
 40
0.015
  0
CIRCLE
  5
8B9
330
1F
100
AcDbEntity
  8
PCB_OUTLINE
100
AcDbCircle
 10
0.7499999840420131
 20
1.395000000055004
 30
0.0
 40
0.015
  0
CIRCLE
  5
8BA
330
1F
100
AcDbEntity
  8
PCB_OUTLINE
100
AcDbCircle
 10
0.8299999840420111
 20
1.395000000055004
 30
0.0
 40
0.015
  0
CIRCLE
  5
8BB
330
1F
100
AcDbEntity
  8
PCB_OUTLINE
100
AcDbCircle
 10
0.9899999840420079
 20
1.395000000055004
 30
0.0
 40
0.015
  0
CIRCLE
  5
8BC
330
1F
100
AcDbEntity
  8
PCB_OUTLINE
100
AcDbCircle
 10
0.9099999840420023
 20
1.395000000055004
 30
0.0
 40
0.015
  0
CIRCLE
  5
8BD
330
1F
100
AcDbEntity
  8
PCB_OUTLINE
100
AcDbCircle
 10
0.6699999840420148
 20
1.395000000055004
 30
0.0
 40
0.015
  0
CIRCLE
  5
8BE
330
1F
100
AcDbEntity
  8
PCB_OUTLINE
100
AcDbCircle
 10
0.5899999840420236
 20
1.395000000055004
 30
0.0
 40
0.015
  0
CIRCLE
  5
8BF
330
1F
100
AcDbEntity
  8
PCB_OUTLINE
100
AcDbCircle
 10
1.149999984042018
 20
1.395000000055004
 30
0.0
 40
0.015
  0
CIRCLE
  5
8C0
330
1F
100
AcDbEntity
  8
PCB_OUTLINE
100
AcDbCircle
 10
1.069999984042012
 20
1.395000000055004
 30
0.0
 40
0.015
  0
CIRCLE
  5
8C1
330
1F
100
AcDbEntity
  8
PCB_OUTLINE
100
AcDbCircle
 10
1.709999984042013
 20
1.395000000055004
 30
0.0
 40
0.015
  0
CIRCLE
  5
8C2
330
1F
100
AcDbEntity
  8
PCB_OUTLINE
100
AcDbCircle
 10
1.629999984042014
 20
1.395000000055004
 30
0.0
 40
0.015
  0
CIRCLE
  5
8C3
330
1F
100
AcDbEntity
  8
PCB_OUTLINE
100
AcDbCircle
 10
1.549999984042016
 20
1.395000000055004
 30
0.0
 40
0.015
  0
CIRCLE
  5
8C4
330
1F
100
AcDbEntity
  8
PCB_OUTLINE
100
AcDbCircle
 10
1.469999984042019
 20
1.395000000055004
 30
0.0
 40
0.015
  0
CIRCLE
  5
8C5
330
1F
100
AcDbEntity
  8
PCB_OUTLINE
100
AcDbCircle
 10
1.389999984042012
 20
1.395000000055004
 30
0.0
 40
0.015
  0
CIRCLE
  5
8C6
330
1F
100
AcDbEntity
  8
PCB_OUTLINE
100
AcDbCircle
 10
1.309999984042014
 20
1.395000000055004
 30
0.0
 40
0.015
  0
CIRCLE
  5
8C7
330
1F
100
AcDbEntity
  8
PCB_OUTLINE
100
AcDbCircle
 10
1.229999984042024
 20
1.395000000055004
 30
0.0
 40
0.015
  0
CIRCLE
  5
8C8
330
1F
100
AcDbEntity
  8
PCB_OUTLINE
100
AcDbCircle
 10
0.1099999840420125
 20
1.475000000055004
 30
0.0
 40
0.015
  0
CIRCLE
  5
8C9
330
1F
100
AcDbEntity
  8
PCB_OUTLINE
100
AcDbCircle
 10
0.0299999840420142
 20
1.475000000055004
 30
0.0
 40
0.015
  0
CIRCLE
  5
8CA
330
1F
100
AcDbEntity
  8
PCB_OUTLINE
100
AcDbCircle
 10
0.1899999840420108
 20
1.475000000055004
 30
0.0
 40
0.015
  0
CIRCLE
  5
8CB
330
1F
100
AcDbEntity
  8
PCB_OUTLINE
100
AcDbCircle
 10
0.269999984042002
 20
1.475000000055004
 30
0.0
 40
0.015
  0
CIRCLE
  5
8CC
330
1F
100
AcDbEntity
  8
PCB_OUTLINE
100
AcDbCircle
 10
0.1099999840420125
 20
1.395000000055004
 30
0.0
 40
0.015
  0
CIRCLE
  5
8CD
330
1F
100
AcDbEntity
  8
PCB_OUTLINE
100
AcDbCircle
 10
0.0299999840420142
 20
1.395000000055004
 30
0.0
 40
0.015
  0
CIRCLE
  5
8CE
330
1F
100
AcDbEntity
  8
PCB_OUTLINE
100
AcDbCircle
 10
0.1899999840420108
 20
1.395000000055004
 30
0.0
 40
0.015
  0
CIRCLE
  5
8CF
330
1F
100
AcDbEntity
  8
PCB_OUTLINE
100
AcDbCircle
 10
0.269999984042002
 20
1.395000000055004
 30
0.0
 40
0.015
  0
CIRCLE
  5
8D0
330
1F
100
AcDbEntity
  8
PCB_OUTLINE
100
AcDbCircle
 10
0.7499999840420131
 20
1.635000000055003
 30
0.0
 40
0.015
  0
CIRCLE
  5
8D1
330
1F
100
AcDbEntity
  8
PCB_OUTLINE
100
AcDbCircle
 10
0.7499999840420131
 20
1.715000000055004
 30
0.0
 40
0.015
  0
CIRCLE
  5
8D2
330
1F
100
AcDbEntity
  8
PCB_OUTLINE
100
AcDbCircle
 10
0.8299999840420111
 20
1.635000000055003
 30
0.0
 40
0.015
  0
CIRCLE
  5
8D3
330
1F
100
AcDbEntity
  8
PCB_OUTLINE
100
AcDbCircle
 10
0.8299999840420111
 20
1.715000000055004
 30
0.0
 40
0.015
  0
CIRCLE
  5
8D4
330
1F
100
AcDbEntity
  8
PCB_OUTLINE
100
AcDbCircle
 10
0.9899999840420079
 20
1.635000000055003
 30
0.0
 40
0.015
  0
CIRCLE
  5
8D5
330
1F
100
AcDbEntity
  8
PCB_OUTLINE
100
AcDbCircle
 10
0.9899999840420079
 20
1.715000000055004
 30
0.0
 40
0.015
  0
CIRCLE
  5
8D6
330
1F
100
AcDbEntity
  8
PCB_OUTLINE
100
AcDbCircle
 10
0.9099999840420023
 20
1.635000000055003
 30
0.0
 40
0.015
  0
CIRCLE
  5
8D7
330
1F
100
AcDbEntity
  8
PCB_OUTLINE
100
AcDbCircle
 10
0.9099999840420023
 20
1.715000000055004
 30
0.0
 40
0.015
  0
CIRCLE
  5
8D8
330
1F
100
AcDbEntity
  8
PCB_OUTLINE
100
AcDbCircle
 10
0.6699999840420148
 20
1.635000000055003
 30
0.0
 40
0.015
  0
CIRCLE
  5
8D9
330
1F
100
AcDbEntity
  8
PCB_OUTLINE
100
AcDbCircle
 10
0.5899999840420236
 20
1.635000000055003
 30
0.0
 40
0.015
  0
CIRCLE
  5
8DA
330
1F
100
AcDbEntity
  8
PCB_OUTLINE
100
AcDbCircle
 10
1.149999984042018
 20
1.635000000055003
 30
0.0
 40
0.015
  0
CIRCLE
  5
8DB
330
1F
100
AcDbEntity
  8
PCB_OUTLINE
100
AcDbCircle
 10
1.149999984042018
 20
1.715000000055004
 30
0.0
 40
0.015
  0
CIRCLE
  5
8DC
330
1F
100
AcDbEntity
  8
PCB_OUTLINE
100
AcDbCircle
 10
1.069999984042012
 20
1.635000000055003
 30
0.0
 40
0.015
  0
CIRCLE
  5
8DD
330
1F
100
AcDbEntity
  8
PCB_OUTLINE
100
AcDbCircle
 10
1.069999984042012
 20
1.715000000055004
 30
0.0
 40
0.015
  0
CIRCLE
  5
8DE
330
1F
100
AcDbEntity
  8
PCB_OUTLINE
100
AcDbCircle
 10
1.709999984042013
 20
1.635000000055003
 30
0.0
 40
0.015
  0
CIRCLE
  5
8DF
330
1F
100
AcDbEntity
  8
PCB_OUTLINE
100
AcDbCircle
 10
1.709999984042013
 20
1.715000000055004
 30
0.0
 40
0.015
  0
CIRCLE
  5
8E0
330
1F
100
AcDbEntity
  8
PCB_OUTLINE
100
AcDbCircle
 10
1.629999984042014
 20
1.635000000055003
 30
0.0
 40
0.015
  0
CIRCLE
  5
8E1
330
1F
100
AcDbEntity
  8
PCB_OUTLINE
100
AcDbCircle
 10
1.629999984042014
 20
1.715000000055004
 30
0.0
 40
0.015
  0
CIRCLE
  5
8E2
330
1F
100
AcDbEntity
  8
PCB_OUTLINE
100
AcDbCircle
 10
1.549999984042016
 20
1.635000000055003
 30
0.0
 40
0.015
  0
CIRCLE
  5
8E3
330
1F
100
AcDbEntity
  8
PCB_OUTLINE
100
AcDbCircle
 10
1.549999984042016
 20
1.715000000055004
 30
0.0
 40
0.015
  0
CIRCLE
  5
8E4
330
1F
100
AcDbEntity
  8
PCB_OUTLINE
100
AcDbCircle
 10
1.469999984042019
 20
1.635000000055003
 30
0.0
 40
0.015
  0
CIRCLE
  5
8E5
330
1F
100
AcDbEntity
  8
PCB_OUTLINE
100
AcDbCircle
 10
1.469999984042019
 20
1.715000000055004
 30
0.0
 40
0.015
  0
CIRCLE
  5
8E6
330
1F
100
AcDbEntity
  8
PCB_OUTLINE
100
AcDbCircle
 10
1.389999984042012
 20
1.635000000055003
 30
0.0
 40
0.015
  0
CIRCLE
  5
8E7
330
1F
100
AcDbEntity
  8
PCB_OUTLINE
100
AcDbCircle
 10
1.389999984042012
 20
1.715000000055004
 30
0.0
 40
0.015
  0
CIRCLE
  5
8E8
330
1F
100
AcDbEntity
  8
PCB_OUTLINE
100
AcDbCircle
 10
1.309999984042014
 20
1.635000000055003
 30
0.0
 40
0.015
  0
CIRCLE
  5
8E9
330
1F
100
AcDbEntity
  8
PCB_OUTLINE
100
AcDbCircle
 10
1.309999984042014
 20
1.715000000055004
 30
0.0
 40
0.015
  0
CIRCLE
  5
8EA
330
1F
100
AcDbEntity
  8
PCB_OUTLINE
100
AcDbCircle
 10
1.229999984042024
 20
1.635000000055003
 30
0.0
 40
0.015
  0
CIRCLE
  5
8EB
330
1F
100
AcDbEntity
  8
PCB_OUTLINE
100
AcDbCircle
 10
1.229999984042024
 20
1.715000000055004
 30
0.0
 40
0.015
  0
CIRCLE
  5
8EC
330
1F
100
AcDbEntity
  8
PCB_OUTLINE
100
AcDbCircle
 10
0.1099999840420125
 20
1.635000000055003
 30
0.0
 40
0.015
  0
CIRCLE
  5
8ED
330
1F
100
AcDbEntity
  8
PCB_OUTLINE
100
AcDbCircle
 10
0.1099999840420125
 20
1.715000000055004
 30
0.0
 40
0.015
  0
CIRCLE
  5
8EE
330
1F
100
AcDbEntity
  8
PCB_OUTLINE
100
AcDbCircle
 10
0.0299999840420142
 20
1.635000000055003
 30
0.0
 40
0.015
  0
CIRCLE
  5
8EF
330
1F
100
AcDbEntity
  8
PCB_OUTLINE
100
AcDbCircle
 10
0.0299999840420142
 20
1.715000000055004
 30
0.0
 40
0.015
  0
CIRCLE
  5
8F0
330
1F
100
AcDbEntity
  8
PCB_OUTLINE
100
AcDbCircle
 10
0.1899999840420108
 20
1.635000000055003
 30
0.0
 40
0.015
  0
CIRCLE
  5
8F1
330
1F
100
AcDbEntity
  8
PCB_OUTLINE
100
AcDbCircle
 10
0.1899999840420108
 20
1.715000000055004
 30
0.0
 40
0.015
  0
CIRCLE
  5
8F2
330
1F
100
AcDbEntity
  8
PCB_OUTLINE
100
AcDbCircle
 10
0.269999984042002
 20
1.635000000055003
 30
0.0
 40
0.015
  0
CIRCLE
  5
8F3
330
1F
100
AcDbEntity
  8
PCB_OUTLINE
100
AcDbCircle
 10
0.269999984042002
 20
1.715000000055004
 30
0.0
 40
0.015
  0
CIRCLE
  5
8F4
330
1F
100
AcDbEntity
  8
PCB_OUTLINE
100
AcDbCircle
 10
2.029999984042006
 20
1.715000000055004
 30
0.0
 40
0.015
  0
CIRCLE
  5
8F5
330
1F
100
AcDbEntity
  8
PCB_OUTLINE
100
AcDbCircle
 10
2.109999984042004
 20
1.715000000055004
 30
0.0
 40
0.015
  0
CIRCLE
  5
8F6
330
1F
100
AcDbEntity
  8
PCB_OUTLINE
100
AcDbCircle
 10
2.189999984042003
 20
1.715000000055004
 30
0.0
 40
0.015
  0
CIRCLE
  5
8F7
330
1F
100
AcDbEntity
  8
PCB_OUTLINE
100
AcDbCircle
 10
2.269999984042001
 20
1.715000000055004
 30
0.0
 40
0.015
  0
CIRCLE
  5
8F8
330
1F
100
AcDbEntity
  8
PCB_OUTLINE
100
AcDbCircle
 10
2.029999984042006
 20
1.555000000055004
 30
0.0
 40
0.015
  0
CIRCLE
  5
8F9
330
1F
100
AcDbEntity
  8
PCB_OUTLINE
100
AcDbCircle
 10
2.109999984042004
 20
1.555000000055004
 30
0.0
 40
0.015
  0
CIRCLE
  5
8FA
330
1F
100
AcDbEntity
  8
PCB_OUTLINE
100
AcDbCircle
 10
2.189999984042003
 20
1.555000000055004
 30
0.0
 40
0.015
  0
CIRCLE
  5
8FB
330
1F
100
AcDbEntity
  8
PCB_OUTLINE
100
AcDbCircle
 10
2.029999984042006
 20
1.635000000055003
 30
0.0
 40
0.015
  0
CIRCLE
  5
8FC
330
1F
100
AcDbEntity
  8
PCB_OUTLINE
100
AcDbCircle
 10
2.109999984042004
 20
1.635000000055003
 30
0.0
 40
0.015
  0
CIRCLE
  5
8FD
330
1F
100
AcDbEntity
  8
PCB_OUTLINE
100
AcDbCircle
 10
2.189999984042003
 20
1.635000000055003
 30
0.0
 40
0.015
  0
CIRCLE
  5
8FE
330
1F
100
AcDbEntity
  8
PCB_OUTLINE
100
AcDbCircle
 10
2.269999984042001
 20
1.555000000055004
 30
0.0
 40
0.015
  0
CIRCLE
  5
8FF
330
1F
100
AcDbEntity
  8
PCB_OUTLINE
100
AcDbCircle
 10
2.269999984042001
 20
1.635000000055003
 30
0.0
 40
0.015
  0
CIRCLE
  5
900
330
1F
100
AcDbEntity
  8
PCB_OUTLINE
100
AcDbCircle
 10
0.7499999840420131
 20
1.555000000055004
 30
0.0
 40
0.015
  0
CIRCLE
  5
901
330
1F
100
AcDbEntity
  8
PCB_OUTLINE
100
AcDbCircle
 10
0.8299999840420111
 20
1.555000000055004
 30
0.0
 40
0.015
  0
CIRCLE
  5
902
330
1F
100
AcDbEntity
  8
PCB_OUTLINE
100
AcDbCircle
 10
0.9899999840420079
 20
1.555000000055004
 30
0.0
 40
0.015
  0
CIRCLE
  5
903
330
1F
100
AcDbEntity
  8
PCB_OUTLINE
100
AcDbCircle
 10
0.9099999840420023
 20
1.555000000055004
 30
0.0
 40
0.015
  0
CIRCLE
  5
904
330
1F
100
AcDbEntity
  8
PCB_OUTLINE
100
AcDbCircle
 10
0.6699999840420148
 20
1.555000000055004
 30
0.0
 40
0.015
  0
CIRCLE
  5
905
330
1F
100
AcDbEntity
  8
PCB_OUTLINE
100
AcDbCircle
 10
0.5899999840420236
 20
1.555000000055004
 30
0.0
 40
0.015
  0
CIRCLE
  5
906
330
1F
100
AcDbEntity
  8
PCB_OUTLINE
100
AcDbCircle
 10
1.149999984042018
 20
1.555000000055004
 30
0.0
 40
0.015
  0
CIRCLE
  5
907
330
1F
100
AcDbEntity
  8
PCB_OUTLINE
100
AcDbCircle
 10
1.069999984042012
 20
1.555000000055004
 30
0.0
 40
0.015
  0
CIRCLE
  5
908
330
1F
100
AcDbEntity
  8
PCB_OUTLINE
100
AcDbCircle
 10
1.709999984042013
 20
1.555000000055004
 30
0.0
 40
0.015
  0
CIRCLE
  5
909
330
1F
100
AcDbEntity
  8
PCB_OUTLINE
100
AcDbCircle
 10
1.629999984042014
 20
1.555000000055004
 30
0.0
 40
0.015
  0
CIRCLE
  5
90A
330
1F
100
AcDbEntity
  8
PCB_OUTLINE
100
AcDbCircle
 10
1.549999984042016
 20
1.555000000055004
 30
0.0
 40
0.015
  0
CIRCLE
  5
90B
330
1F
100
AcDbEntity
  8
PCB_OUTLINE
100
AcDbCircle
 10
1.469999984042019
 20
1.555000000055004
 30
0.0
 40
0.015
  0
CIRCLE
  5
90C
330
1F
100
AcDbEntity
  8
PCB_OUTLINE
100
AcDbCircle
 10
1.389999984042012
 20
1.555000000055004
 30
0.0
 40
0.015
  0
CIRCLE
  5
90D
330
1F
100
AcDbEntity
  8
PCB_OUTLINE
100
AcDbCircle
 10
1.309999984042014
 20
1.555000000055004
 30
0.0
 40
0.015
  0
CIRCLE
  5
90E
330
1F
100
AcDbEntity
  8
PCB_OUTLINE
100
AcDbCircle
 10
1.229999984042024
 20
1.555000000055004
 30
0.0
 40
0.015
  0
CIRCLE
  5
90F
330
1F
100
AcDbEntity
  8
PCB_OUTLINE
100
AcDbCircle
 10
0.1099999840420125
 20
1.555000000055004
 30
0.0
 40
0.015
  0
CIRCLE
  5
910
330
1F
100
AcDbEntity
  8
PCB_OUTLINE
100
AcDbCircle
 10
0.0299999840420142
 20
1.555000000055004
 30
0.0
 40
0.015
  0
CIRCLE
  5
911
330
1F
100
AcDbEntity
  8
PCB_OUTLINE
100
AcDbCircle
 10
0.1899999840420108
 20
1.555000000055004
 30
0.0
 40
0.015
  0
CIRCLE
  5
912
330
1F
100
AcDbEntity
  8
PCB_OUTLINE
100
AcDbCircle
 10
0.269999984042002
 20
1.555000000055004
 30
0.0
 40
0.015
  0
CIRCLE
  5
914
330
1F
100
AcDbEntity
  8
PCB_OUTLINE
100
AcDbCircle
 10
1.949999984042007
 20
0.7550000000550039
 30
0.0
 40
0.015
  0
CIRCLE
  5
915
330
1F
100
AcDbEntity
  8
PCB_OUTLINE
100
AcDbCircle
 10
2.029999984042014
 20
0.7550000000550039
 30
0.0
 40
0.015
  0
CIRCLE
  5
916
330
1F
100
AcDbEntity
  8
PCB_OUTLINE
100
AcDbCircle
 10
2.109999984042012
 20
0.7550000000550039
 30
0.0
 40
0.015
  0
CIRCLE
  5
917
330
1F
100
AcDbEntity
  8
PCB_OUTLINE
100
AcDbCircle
 10
2.189999984042003
 20
0.7550000000550039
 30
0.0
 40
0.015
  0
CIRCLE
  5
918
330
1F
100
AcDbEntity
  8
PCB_OUTLINE
100
AcDbCircle
 10
1.789999984042012
 20
0.8350000000550037
 30
0.0
 40
0.015
  0
CIRCLE
  5
919
330
1F
100
AcDbEntity
  8
PCB_OUTLINE
100
AcDbCircle
 10
1.86999998404201
 20
0.8350000000550037
 30
0.0
 40
0.015
  0
CIRCLE
  5
91A
330
1F
100
AcDbEntity
  8
PCB_OUTLINE
100
AcDbCircle
 10
1.949999984042007
 20
0.8350000000550037
 30
0.0
 40
0.015
  0
CIRCLE
  5
91B
330
1F
100
AcDbEntity
  8
PCB_OUTLINE
100
AcDbCircle
 10
2.029999984042014
 20
0.8350000000550037
 30
0.0
 40
0.015
  0
CIRCLE
  5
91C
330
1F
100
AcDbEntity
  8
PCB_OUTLINE
100
AcDbCircle
 10
2.109999984042012
 20
0.8350000000550037
 30
0.0
 40
0.015
  0
CIRCLE
  5
91D
330
1F
100
AcDbEntity
  8
PCB_OUTLINE
100
AcDbCircle
 10
2.189999984042003
 20
0.8350000000550037
 30
0.0
 40
0.015
  0
CIRCLE
  5
91E
330
1F
100
AcDbEntity
  8
PCB_OUTLINE
100
AcDbCircle
 10
1.789999984042012
 20
0.915000000055004
 30
0.0
 40
0.015
  0
CIRCLE
  5
91F
330
1F
100
AcDbEntity
  8
PCB_OUTLINE
100
AcDbCircle
 10
1.86999998404201
 20
0.915000000055004
 30
0.0
 40
0.015
  0
CIRCLE
  5
920
330
1F
100
AcDbEntity
  8
PCB_OUTLINE
100
AcDbCircle
 10
1.949999984042007
 20
0.915000000055004
 30
0.0
 40
0.015
  0
CIRCLE
  5
921
330
1F
100
AcDbEntity
  8
PCB_OUTLINE
100
AcDbCircle
 10
2.029999984042014
 20
0.915000000055004
 30
0.0
 40
0.015
  0
CIRCLE
  5
922
330
1F
100
AcDbEntity
  8
PCB_OUTLINE
100
AcDbCircle
 10
2.109999984042012
 20
0.915000000055004
 30
0.0
 40
0.015
  0
CIRCLE
  5
923
330
1F
100
AcDbEntity
  8
PCB_OUTLINE
100
AcDbCircle
 10
2.189999984042003
 20
0.915000000055004
 30
0.0
 40
0.015
  0
CIRCLE
  5
924
330
1F
100
AcDbEntity
  8
PCB_OUTLINE
100
AcDbCircle
 10
1.949999984042007
 20
0.9950000000550039
 30
0.0
 40
0.015
  0
CIRCLE
  5
925
330
1F
100
AcDbEntity
  8
PCB_OUTLINE
100
AcDbCircle
 10
2.029999984042014
 20
0.9950000000550039
 30
0.0
 40
0.015
  0
CIRCLE
  5
926
330
1F
100
AcDbEntity
  8
PCB_OUTLINE
100
AcDbCircle
 10
2.109999984042012
 20
0.9950000000550039
 30
0.0
 40
0.015
  0
CIRCLE
  5
927
330
1F
100
AcDbEntity
  8
PCB_OUTLINE
100
AcDbCircle
 10
2.189999984042003
 20
0.9950000000550039
 30
0.0
 40
0.015
  0
CIRCLE
  5
928
330
1F
100
AcDbEntity
  8
PCB_OUTLINE
100
AcDbCircle
 10
0.2699999840420233
 20
0.7550000000550039
 30
0.0
 40
0.015
  0
CIRCLE
  5
929
330
1F
100
AcDbEntity
  8
PCB_OUTLINE
100
AcDbCircle
 10
0.189999984042025
 20
0.7550000000550039
 30
0.0
 40
0.015
  0
CIRCLE
  5
92A
330
1F
100
AcDbEntity
  8
PCB_OUTLINE
100
AcDbCircle
 10
0.0299999840420284
 20
0.7550000000550039
 30
0.0
 40
0.015
  0
CIRCLE
  5
92B
330
1F
100
AcDbEntity
  8
PCB_OUTLINE
100
AcDbCircle
 10
0.1099999840420338
 20
0.7550000000550039
 30
0.0
 40
0.015
  0
CIRCLE
  5
92C
330
1F
100
AcDbEntity
  8
PCB_OUTLINE
100
AcDbCircle
 10
0.3499999840420216
 20
0.7550000000550039
 30
0.0
 40
0.015
  0
CIRCLE
  5
92D
330
1F
100
AcDbEntity
  8
PCB_OUTLINE
100
AcDbCircle
 10
0.5099999840420182
 20
0.8350000000550037
 30
0.0
 40
0.015
  0
CIRCLE
  5
92E
330
1F
100
AcDbEntity
  8
PCB_OUTLINE
100
AcDbCircle
 10
0.4299999840420128
 20
0.8350000000550037
 30
0.0
 40
0.015
  0
CIRCLE
  5
92F
330
1F
100
AcDbEntity
  8
PCB_OUTLINE
100
AcDbCircle
 10
0.2699999840420233
 20
0.8350000000550037
 30
0.0
 40
0.015
  0
CIRCLE
  5
930
330
1F
100
AcDbEntity
  8
PCB_OUTLINE
100
AcDbCircle
 10
0.189999984042025
 20
0.8350000000550037
 30
0.0
 40
0.015
  0
CIRCLE
  5
931
330
1F
100
AcDbEntity
  8
PCB_OUTLINE
100
AcDbCircle
 10
0.0299999840420284
 20
0.8350000000550037
 30
0.0
 40
0.015
  0
CIRCLE
  5
932
330
1F
100
AcDbEntity
  8
PCB_OUTLINE
100
AcDbCircle
 10
0.1099999840420338
 20
0.8350000000550037
 30
0.0
 40
0.015
  0
CIRCLE
  5
933
330
1F
100
AcDbEntity
  8
PCB_OUTLINE
100
AcDbCircle
 10
0.3499999840420216
 20
0.8350000000550037
 30
0.0
 40
0.015
  0
CIRCLE
  5
934
330
1F
100
AcDbEntity
  8
PCB_OUTLINE
100
AcDbCircle
 10
0.5099999840420182
 20
0.915000000055004
 30
0.0
 40
0.015
  0
CIRCLE
  5
935
330
1F
100
AcDbEntity
  8
PCB_OUTLINE
100
AcDbCircle
 10
0.4299999840420128
 20
0.915000000055004
 30
0.0
 40
0.015
  0
CIRCLE
  5
936
330
1F
100
AcDbEntity
  8
PCB_OUTLINE
100
AcDbCircle
 10
0.2699999840420233
 20
0.915000000055004
 30
0.0
 40
0.015
  0
CIRCLE
  5
937
330
1F
100
AcDbEntity
  8
PCB_OUTLINE
100
AcDbCircle
 10
0.189999984042025
 20
0.915000000055004
 30
0.0
 40
0.015
  0
CIRCLE
  5
938
330
1F
100
AcDbEntity
  8
PCB_OUTLINE
100
AcDbCircle
 10
0.0299999840420284
 20
0.915000000055004
 30
0.0
 40
0.015
  0
CIRCLE
  5
939
330
1F
100
AcDbEntity
  8
PCB_OUTLINE
100
AcDbCircle
 10
0.1099999840420338
 20
0.915000000055004
 30
0.0
 40
0.015
  0
CIRCLE
  5
93A
330
1F
100
AcDbEntity
  8
PCB_OUTLINE
100
AcDbCircle
 10
0.3499999840420216
 20
0.915000000055004
 30
0.0
 40
0.015
  0
CIRCLE
  5
93B
330
1F
100
AcDbEntity
  8
PCB_OUTLINE
100
AcDbCircle
 10
0.2699999840420233
 20
0.9950000000550039
 30
0.0
 40
0.015
  0
CIRCLE
  5
93C
330
1F
100
AcDbEntity
  8
PCB_OUTLINE
100
AcDbCircle
 10
0.189999984042025
 20
0.9950000000550039
 30
0.0
 40
0.015
  0
CIRCLE
  5
93D
330
1F
100
AcDbEntity
  8
PCB_OUTLINE
100
AcDbCircle
 10
0.0299999840420284
 20
0.9950000000550039
 30
0.0
 40
0.015
  0
CIRCLE
  5
93E
330
1F
100
AcDbEntity
  8
PCB_OUTLINE
100
AcDbCircle
 10
0.1099999840420338
 20
0.9950000000550039
 30
0.0
 40
0.015
  0
CIRCLE
  5
93F
330
1F
100
AcDbEntity
  8
PCB_OUTLINE
100
AcDbCircle
 10
0.3499999840420216
 20
0.9950000000550039
 30
0.0
 40
0.015
  0
CIRCLE
  5
940
330
1F
100
AcDbEntity
  8
PCB_OUTLINE
100
AcDbCircle
 10
0.6699999840420148
 20
1.715000000055004
 30
0.0
 40
0.015
  0
CIRCLE
  5
941
330
1F
100
AcDbEntity
  8
PCB_OUTLINE
100
AcDbCircle
 10
0.5899999840420236
 20
1.715000000055004
 30
0.0
 40
0.015
  0
LWPOLYLINE
  5
942
330
1F
100
AcDbEntity
  8
PCB_TOP
100
AcDbPolyline
 90
       22
 70
     0
 43
0.0
 10
0.5550318422648674
 20
0.0000000255900443
 10
1.74499946152803
 20
0.0000000255900443
 10
1.74499946152803
 20
0.3749863026518807
 10
1.779999461528049
 20
0.3749863026518843
 10
1.779999461528027
 20
0.4949863026518925
 10
1.965999461528034
 20
0.4949863026518925
 10
1.965999461528034
 20
0.0000000255900443
 10
2.29999944557005
 20
0.0000000255900443
 10
2.29999944557005
 20
1.750014573565561
 10
1.965999461528034
 20
1.750014693491596
 10
1.965999461528034
 20
1.255028416429748
 10
1.779999461528027
 20
1.255028416429748
 10
1.779999461528049
 20
1.375028416429757
 10
1.74499946152803
 20
1.37502841642976
 10
1.74499946152803
 20
1.750014693491596
 10
0.5549999840420199
 20
1.750014573565561
 10
0.5549999840420199
 20
1.375028296448717
 10
0.519999984042002
 20
1.375028296448715
 10
0.5199999840420233
 20
1.255028296448706
 10
0.3339999840420162
 20
1.255028296448706
 10
0.3339999840420162
 20
1.750014573510554
 10
-0.0000000203105408
 20
1.750014573565561
  0
LINE
  5
943
330
1F
100
AcDbEntity
  8
PCB_TOP
100
AcDbLine
 10
-0.0000000912488503
 20
1.750014573565558
 30
0.0
 11
0.0
 21
0.0000000255350412
 31
0.0
  0
LINE
  5
944
330
1F
100
AcDbEntity
  8
PCB_TOP
100
AcDbLine
 10
0.0
 20
0.0000000255350412
 30
0.0
 11
0.3339999840420162
 21
0.0000000255900443
 31
0.0
  0
LINE
  5
945
330
1F
100
AcDbEntity
  8
PCB_TOP
100
AcDbLine
 10
0.3339999840420162
 20
0.0000000255900443
 30
0.0
 11
0.3339999840420162
 21
0.4949863026518925
 31
0.0
  0
LINE
  5
946
330
1F
100
AcDbEntity
  8
PCB_TOP
100
AcDbLine
 10
0.3339999840420162
 20
0.4949863026518925
 30
0.0
 11
0.5199999840420233
 21
0.4949863026518925
 31
0.0
  0
LINE
  5
947
330
1F
100
AcDbEntity
  8
PCB_TOP
100
AcDbLine
 10
0.5199999840420233
 20
0.4949863026518925
 30
0.0
 11
0.519999984042002
 21
0.3749863026518843
 31
0.0
  0
LINE
  5
948
330
1F
100
AcDbEntity
  8
PCB_TOP
100
AcDbLine
 10
0.519999984042002
 20
0.3749863026518843
 30
0.0
 11
0.5549999840420199
 21
0.3749863026518807
 31
0.0
  0
LINE
  5
949
330
1F
100
AcDbEntity
  8
PCB_TOP
100
AcDbLine
 10
0.5549999840420199
 20
0.3749863026518807
 30
0.0
 11
0.5549999840420199
 21
0.0000000255900443
 31
0.0
  0
LWPOLYLINE
  5
94A
330
1F
100
AcDbEntity
  8
PCB_TOP
100
AcDbPolyline
 90
        6
 70
     1
 43
0.0
 10
0.4049999840420142
 20
0.4549863026518969
 10
0.4799999840420172
 20
0.4549863026518916
 10
0.4799999840420172
 20
0.0095122219213484
 42
-0.2679491924311238
 10
0.4089999840420157
 20
0.0095122219213506
 10
0.4089999840420121
 20
0.3799863026518921
 10
0.4049999840420142
 20
0.3799863026518921
  0
LWPOLYLINE
  5
94B
330
1F
100
AcDbEntity
  8
PCB_TOP
100
AcDbPolyline
 90
        6
 70
     1
 43
0.0
 10
1.894999461528037
 20
0.4549863026518969
 10
1.819999461528034
 20
0.4549863026518916
 10
1.819999461528034
 20
0.0095122219213484
 42
0.2679491924311238
 10
1.890999461528036
 20
0.0095122219213506
 10
1.890999461528038
 20
0.3799863026518921
 10
1.894999461528037
 20
0.3799863026518921
  0
LWPOLYLINE
  5
94C
330
1F
100
AcDbEntity
  8
PCB_TOP
100
AcDbPolyline
 90
        6
 70
     1
 43
0.0
 10
0.4049999840420142
 20
1.295028296448702
 10
0.4799999840420172
 20
1.295028296448708
 10
0.4799999840420172
 20
1.74050237717925
 42
0.2679491924311238
 10
0.4089999840420157
 20
1.740502377179248
 10
0.4089999840420121
 20
1.370028296448706
 10
0.4049999840420142
 20
1.370028296448706
  0
LWPOLYLINE
  5
94D
330
1F
100
AcDbEntity
  8
PCB_TOP
100
AcDbPolyline
 90
        6
 70
     1
 43
0.0
 10
1.894999461528037
 20
1.295028416429744
 10
1.819999461528034
 20
1.29502841642975
 10
1.819999461528034
 20
1.740502497160293
 42
-0.2679491924311238
 10
1.890999461528036
 20
1.74050249716029
 10
1.890999461528038
 20
1.370028416429749
 10
1.894999461528037
 20
1.370028416429749
  0
CIRCLE
  5
94E
330
1F
100
AcDbEntity
  8
Part
100
AcDbCircle
 10
1.844977377113448
 20
1.320007320120905
 30
0.0
 40
0.015
  0
CIRCLE
  5
94F
330
1F
100
AcDbEntity
  8
Part
100
AcDbCircle
 10
0.8544914697284012
 20
0.7710072995502883
 30
0.0
 40
0.0125
  0
CIRCLE
  5
950
330
1F
100
AcDbEntity
  8
Part
100
AcDbCircle
 10
0.6894914697284023
 20
0.7710072995502883
 30
0.0
 40
0.0125
  0
CIRCLE
  5
951
330
1F
100
AcDbEntity
  8
Part
100
AcDbCircle
 10
0.7994914697284017
 20
0.7710072995502883
 30
0.0
 40
0.0125
  0
CIRCLE
  5
952
330
1F
100
AcDbEntity
  8
Part
100
AcDbCircle
 10
0.7444914697284021
 20
0.7710072995502883
 30
0.0
 40
0.0125
  0
CIRCLE
  5
953
330
1F
100
AcDbEntity
  8
Part
100
AcDbCircle
 10
0.9394972949158102
 20
0.5185072995502975
 30
0.0
 40
0.0125
  0
CIRCLE
  5
954
330
1F
100
AcDbEntity
  8
Part
100
AcDbCircle
 10
0.9394972949158102
 20
0.4635072995502997
 30
0.0
 40
0.0125
  0
CIRCLE
  5
955
330
1F
100
AcDbEntity
  8
Part
100
AcDbCircle
 10
0.9394972949158102
 20
0.5735072995502955
 30
0.0
 40
0.0125
  0
CIRCLE
  5
956
330
1F
100
AcDbEntity
  8
Part
100
AcDbCircle
 10
0.9394972949158102
 20
0.6285072995502934
 30
0.0
 40
0.0125
  0
CIRCLE
  5
957
330
1F
100
AcDbEntity
  8
Part
100
AcDbCircle
 10
0.9394972949158102
 20
0.6835072995502915
 30
0.0
 40
0.0125
  0
ARC
  5
958
330
1F
100
AcDbEntity
  8
Part
100
AcDbCircle
 10
0.3879922756940566
 20
1.200709186482184
 30
0.0
 40
0.0300000000000011
100
AcDbArc
 50
0.0000006649649284
 51
66.42182565225638
  0
ARC
  5
959
330
1F
100
AcDbEntity
  8
Part
100
AcDbCircle
 10
0.3879922737119159
 20
0.5492905075468264
 30
0.0
 40
0.0300000000000011
100
AcDbArc
 50
293.5781784781824
 51
0.0000000000008142
  0
LINE
  5
95A
330
1F
100
AcDbEntity
  8
Part
100
AcDbLine
 10
0.3999922737119164
 20
0.5217950533770908
 30
0.0
 11
0.3999922737119164
 21
0.4217950533770877
 31
0.0
  0
ARC
  5
95B
330
1F
100
AcDbEntity
  8
Part
100
AcDbCircle
 10
0.3879922737119159
 20
0.3630072995502922
 30
0.0
 40
0.0599999999999992
100
AcDbArc
 50
11.53695903281522
 51
78.46304096718393
  0
LINE
  5
95C
330
1F
100
AcDbEntity
  8
Part
100
AcDbLine
 10
1.899992274254941
 20
0.4217801317619442
 30
0.0
 11
1.899992273711916
 21
0.5217950533770908
 31
0.0
  0
ARC
  5
95D
330
1F
100
AcDbEntity
  8
Part
100
AcDbCircle
 10
1.911992275734622
 20
1.200724109101674
 30
0.0
 40
0.0300000000000011
100
AcDbArc
 50
113.5781791431418
 51
180.0000006649564
  0
LINE
  5
95E
330
1F
100
AcDbEntity
  8
Part
100
AcDbLine
 10
1.899992275415516
 20
1.22821956313214
 30
0.0
 11
1.899992274254941
 21
1.328219563132144
 31
0.0
  0
ARC
  5
95F
330
1F
100
AcDbEntity
  8
Part
100
AcDbCircle
 10
1.911992273572663
 20
1.387007317098208
 30
0.0
 40
0.059999999999999
100
AcDbArc
 50
191.5369596977755
 51
258.4630416321457
  0
LINE
  5
960
330
1F
100
AcDbEntity
  8
Part
100
AcDbLine
 10
1.853204519885139
 20
1.375007316415932
 30
0.0
 11
1.753204519885144
 21
1.375007315255369
 31
0.0
  0
ARC
  5
961
330
1F
100
AcDbEntity
  8
Part
100
AcDbCircle
 10
1.72570906557614
 20
1.387007314936266
 30
0.0
 40
0.0300000000000019
100
AcDbArc
 50
270.0000006649548
 51
336.421822186773
  0
ARC
  5
962
330
1F
100
AcDbEntity
  8
Part
100
AcDbCircle
 10
0.5742752541999892
 20
1.387007301532432
 30
0.0
 40
0.0299999999999985
100
AcDbArc
 50
203.5792647275207
 51
270.0000006649716
  0
LINE
  5
963
330
1F
100
AcDbEntity
  8
Part
100
AcDbLine
 10
0.5467800275387234
 20
1.375007301253891
 30
0.0
 11
0.4467800275387114
 21
1.374992395343795
 31
0.0
  0
ARC
  5
964
330
1F
100
AcDbEntity
  8
Part
100
AcDbCircle
 10
0.3879922737119159
 20
1.386992395343794
 30
0.0
 40
0.059999999999999
100
AcDbArc
 50
281.5369590328161
 51
348.4630409671847
  0
LINE
  5
965
330
1F
100
AcDbEntity
  8
Part
100
AcDbLine
 10
0.3999922737119164
 20
1.328204641517001
 30
0.0
 11
0.3999922737119164
 21
1.228204641516998
 31
0.0
  0
CIRCLE
  5
966
330
1F
100
AcDbEntity
  8
Part
100
AcDbCircle
 10
0.4549922737119161
 20
0.4300072995502943
 30
0.0
 40
0.015
  0
CIRCLE
  5
967
330
1F
100
AcDbEntity
  8
Part
100
AcDbCircle
 10
0.4549922737119161
 20
1.320007299550304
 30
0.0
 40
0.015
  0
CIRCLE
  5
968
330
1F
100
AcDbEntity
  8
Part
100
AcDbCircle
 10
0.7669176863120697
 20
1.145507318412718
 30
0.0
 40
0.0125
  0
CIRCLE
  5
969
330
1F
100
AcDbEntity
  8
Part
100
AcDbCircle
 10
0.8219176863120694
 20
1.145507320040627
 30
0.0
 40
0.0125
  0
CIRCLE
  5
96A
330
1F
100
AcDbEntity
  8
Part
100
AcDbCircle
 10
1.845007171858134
 20
0.4300072995502943
 30
0.0
 40
0.015
  0
CIRCLE
  5
96B
330
1F
100
AcDbEntity
  8
Part
100
AcDbCircle
 10
1.845007171858134
 20
0.4300072995502943
 30
0.0
 40
0.015
  0
CIRCLE
  5
96C
330
1F
100
AcDbEntity
  8
Part
100
AcDbCircle
 10
0.932341488293744
 20
1.248007304534386
 30
0.0
 40
0.0125
  0
CIRCLE
  5
96D
330
1F
100
AcDbEntity
  8
Part
100
AcDbCircle
 10
0.9323414899216544
 20
1.303007304534379
 30
0.0
 40
0.0125
  0
CIRCLE
  5
96E
330
1F
100
AcDbEntity
  8
Part
100
AcDbCircle
 10
0.9323414866658341
 20
1.193007304534386
 30
0.0
 40
0.0125
  0
CIRCLE
  5
96F
330
1F
100
AcDbEntity
  8
Part
100
AcDbCircle
 10
0.8769176863120691
 20
1.145507318412718
 30
0.0
 40
0.0125
  0
CIRCLE
  5
970
330
1F
100
AcDbEntity
  8
Part
100
AcDbCircle
 10
0.9394972949158102
 20
0.7385072995502893
 30
0.0
 40
0.0125
  0
CIRCLE
  5
971
330
1F
100
AcDbEntity
  8
Part
100
AcDbCircle
 10
0.9094914697284012
 20
0.7710072995502883
 30
0.0
 40
0.0125
  0
CIRCLE
  5
972
330
1F
100
AcDbEntity
  8
Part
100
AcDbCircle
 10
0.4619922729678301
 20
0.5735072995502955
 30
0.0
 40
0.0125
  0
CIRCLE
  5
973
330
1F
100
AcDbEntity
  8
Part
100
AcDbCircle
 10
0.4619922729678301
 20
0.6285072995502934
 30
0.0
 40
0.0125
  0
CIRCLE
  5
974
330
1F
100
AcDbEntity
  8
Part
100
AcDbCircle
 10
0.4619922729678301
 20
0.6835072995502915
 30
0.0
 40
0.0125
  0
CIRCLE
  5
975
330
1F
100
AcDbEntity
  8
Part
100
AcDbCircle
 10
0.4619922729678301
 20
0.7385072995502893
 30
0.0
 40
0.0125
  0
CIRCLE
  5
976
330
1F
100
AcDbEntity
  8
Part
100
AcDbCircle
 10
1.533367965844496
 20
0.6041126693643501
 30
0.0
 40
0.0125
  0
CIRCLE
  5
977
330
1F
100
AcDbEntity
  8
Part
100
AcDbCircle
 10
1.478367999868811
 20
0.6040514919698912
 30
0.0
 40
0.0125
  0
CIRCLE
  5
978
330
1F
100
AcDbEntity
  8
Part
100
AcDbCircle
 10
1.368058275560172
 20
0.5014287479593116
 30
0.0
 40
0.0125
  0
CIRCLE
  5
979
330
1F
100
AcDbEntity
  8
Part
100
AcDbCircle
 10
1.368119449698812
 20
0.4464287819800147
 30
0.0
 40
0.0125
  0
CIRCLE
  5
97A
330
1F
100
AcDbEntity
  8
Part
100
AcDbCircle
 10
1.367997101421535
 20
0.5564287139386175
 30
0.0
 40
0.0125
  0
CIRCLE
  5
97B
330
1F
100
AcDbEntity
  8
Part
100
AcDbCircle
 10
1.423368033889505
 20
0.6039903178312521
 30
0.0
 40
0.0125
  0
CIRCLE
  5
97C
330
1F
100
AcDbEntity
  8
Part
100
AcDbCircle
 10
1.445478181096961
 20
0.9790073201209118
 30
0.0
 40
0.0125
  0
CIRCLE
  5
97D
330
1F
100
AcDbEntity
  8
Part
100
AcDbCircle
 10
1.61047818109696
 20
0.9790073201209118
 30
0.0
 40
0.0125
  0
CIRCLE
  5
97E
330
1F
100
AcDbEntity
  8
Part
100
AcDbCircle
 10
1.500478181096961
 20
0.9790073201209118
 30
0.0
 40
0.0125
  0
CIRCLE
  5
97F
330
1F
100
AcDbEntity
  8
Part
100
AcDbCircle
 10
1.555478181096961
 20
0.9790073201209118
 30
0.0
 40
0.0125
  0
CIRCLE
  5
980
330
1F
100
AcDbEntity
  8
Part
100
AcDbCircle
 10
1.360472355909552
 20
1.231507320120903
 30
0.0
 40
0.0125
  0
CIRCLE
  5
981
330
1F
100
AcDbEntity
  8
Part
100
AcDbCircle
 10
1.360472355909552
 20
1.2865073201209
 30
0.0
 40
0.0125
  0
CIRCLE
  5
982
330
1F
100
AcDbEntity
  8
Part
100
AcDbCircle
 10
1.360472355909552
 20
1.176507320120905
 30
0.0
 40
0.0125
  0
CIRCLE
  5
983
330
1F
100
AcDbEntity
  8
Part
100
AcDbCircle
 10
1.360472355909552
 20
1.121507320120906
 30
0.0
 40
0.0125
  0
CIRCLE
  5
984
330
1F
100
AcDbEntity
  8
Part
100
AcDbCircle
 10
1.360472355909552
 20
1.066507320120908
 30
0.0
 40
0.0125
  0
CIRCLE
  5
985
330
1F
100
AcDbEntity
  8
Part
100
AcDbCircle
 10
1.360472355909552
 20
1.01150732012091
 30
0.0
 40
0.0125
  0
CIRCLE
  5
986
330
1F
100
AcDbEntity
  8
Part
100
AcDbCircle
 10
1.390478181096963
 20
0.9790073201209118
 30
0.0
 40
0.0125
  0
CIRCLE
  5
987
330
1F
100
AcDbEntity
  8
Part
100
AcDbCircle
 10
1.837977377857534
 20
1.176507320120905
 30
0.0
 40
0.0125
  0
CIRCLE
  5
988
330
1F
100
AcDbEntity
  8
Part
100
AcDbCircle
 10
1.837977377857534
 20
1.121507320120906
 30
0.0
 40
0.0125
  0
CIRCLE
  5
989
330
1F
100
AcDbEntity
  8
Part
100
AcDbCircle
 10
1.837977377857534
 20
1.066507320120908
 30
0.0
 40
0.0125
  0
CIRCLE
  5
98A
330
1F
100
AcDbEntity
  8
Part
100
AcDbCircle
 10
1.837977377857534
 20
1.01150732012091
 30
0.0
 40
0.0125
  0
LWPOLYLINE
  5
98B
330
1F
100
AcDbEntity
  8
Part
100
AcDbPolyline
 90
        5
 70
     0
 43
0.0
 10
0.5495719693647417
 20
0.3800072995494834
 10
0.5199922737119245
 20
0.3800072995494639
 10
0.5199922737119424
 20
0.4950072995502919
 10
0.4049922754155375
 20
0.4950072995502919
 10
0.4049922753492652
 20
0.5245720944842894
  0
LWPOLYLINE
  5
98C
330
1F
100
AcDbEntity
  8
Part
100
AcDbPolyline
 90
        5
 70
     0
 43
0.0
 10
0.4049922737782233
 20
1.22542760198841
 10
0.4049922737119154
 20
1.255007299550306
 10
0.5199922737119424
 20
1.255007299550306
 10
0.5199930190074227
 20
1.370007300998542
 10
0.5495568401425786
 20
1.370007301341656
  0
LWPOLYLINE
  5
98D
330
1F
100
AcDbEntity
  8
Part
100
AcDbPolyline
 90
        5
 70
     0
 43
0.0
 10
1.750427480000335
 20
1.3700073152788
 10
1.779977375633549
 20
1.370007315621751
 10
1.779977379037333
 20
1.255007318197008
 10
1.894584493962155
 20
1.255007321589187
 10
1.894601088766296
 20
1.225168875736535
  0
LWPOLYLINE
  5
98E
330
1F
100
AcDbEntity
  8
Part
100
AcDbPolyline
 90
        5
 70
     0
 43
0.0
 10
1.894990728655951
 20
0.5245731560312242
 10
1.895007171858118
 20
0.4950072995502919
 10
1.780007171858109
 20
0.4950072995502919
 10
1.780007171858126
 20
0.3800072995502988
 10
1.750427610983695
 20
0.3800072995502792
  0
LWPOLYLINE
  5
98F
330
1F
100
AcDbEntity
  8
Part
100
AcDbPolyline
 90
        5
 70
     0
 43
0.0
 10
0.4049922737119367
 20
0.4205485890735489
 10
0.4049922737119367
 20
0.4550072995502929
 10
0.4799922737119397
 20
0.4550072995502929
 10
0.4799922737119397
 20
0.3800072995502934
 10
0.4455335632351769
 20
0.3800072995502934
  0
LWPOLYLINE
  5
990
330
1F
100
AcDbEntity
  8
Part
100
AcDbPolyline
 90
        5
 70
     0
 43
0.0
 10
1.894992274240496
 20
1.329466027377642
 10
1.894992274640415
 20
1.29500731690091
 10
1.819992274640411
 20
1.29500731603048
 10
1.81999227376998
 20
1.370007316030479
 10
1.854450984246699
 20
1.370007316430397
  0
LWPOLYLINE
  5
991
330
1F
100
AcDbEntity
  8
Part
100
AcDbPolyline
 90
        5
 70
     0
 43
0.0
 10
0.4049922737119367
 20
1.32945110582054
 10
0.4049922737119367
 20
1.295007299550305
 10
0.4799922737119397
 20
1.295007299550305
 10
0.4799922737119397
 20
1.370007299550305
 10
0.4455379644357757
 20
1.370007299550305
  0
LWPOLYLINE
  5
992
330
1F
100
AcDbEntity
  8
Part
100
AcDbPolyline
 90
        5
 70
     0
 43
0.0
 10
1.895007171858118
 20
0.4205380667720875
 10
1.895007171858118
 20
0.4550072995502929
 10
1.820007171858114
 20
0.4550072995502929
 10
1.820007171858114
 20
0.3800072995502934
 10
1.854455394636705
 20
0.3800072995502934
  0
LINE
  5
993
330
1F
100
AcDbEntity
  8
Part
100
AcDbLine
 10
1.397972355909614
 20
1.046507320120908
 30
0.0
 11
1.397972355909551
 21
1.27000732012091
 31
0.0
  0
ARC
  5
994
330
1F
100
AcDbEntity
  8
Part
100
AcDbCircle
 10
1.427972355909544
 20
1.270007320120919
 30
0.0
 40
0.0299999999999923
100
AcDbArc
 50
90.00000000001852
 51
180.0000000000178
  0
LINE
  5
995
330
1F
100
AcDbEntity
  8
Part
100
AcDbLine
 10
1.427972355909535
 20
1.300007320120912
 30
0.0
 11
1.719977377113441
 21
1.3000073201209
 31
0.0
  0
LWPOLYLINE
  5
996
330
1F
100
AcDbEntity
  8
Part
100
AcDbPolyline
 90
        2
 70
     0
 43
0.0
 10
1.749977377113441
 20
1.270007320120902
 42
0.4142135623730977
 10
1.719977377113441
 20
1.3000073201209
  0
LINE
  5
997
330
1F
100
AcDbEntity
  8
Part
100
AcDbLine
 10
1.749977377113441
 20
1.270007320120902
 30
0.0
 11
1.749977377113441
 21
1.225007320120907
 31
0.0
  0
ARC
  5
998
330
1F
100
AcDbEntity
  8
Part
100
AcDbCircle
 10
1.770477377857488
 20
1.046507320120908
 30
0.0
 40
0.0299999999999994
100
AcDbArc
 50
269.9999999999982
 51
359.9999999999974
  0
LINE
  5
999
330
1F
100
AcDbEntity
  8
Part
100
AcDbLine
 10
1.770477377857488
 20
1.016507320120908
 30
0.0
 11
1.427972355909594
 21
1.01650732012091
 31
0.0
  0
ARC
  5
99A
330
1F
100
AcDbEntity
  8
Part
100
AcDbCircle
 10
1.427972355909606
 20
1.046507320120899
 30
0.0
 40
0.0299999999999887
100
AcDbArc
 50
179.999999999983
 51
269.9999999999829
  0
LINE
  5
99B
330
1F
100
AcDbEntity
  8
Part
100
AcDbLine
 10
1.770477377857488
 20
1.225007320120907
 30
0.0
 11
1.749977377113441
 21
1.225007320120907
 31
0.0
  0
ARC
  5
99C
330
1F
100
AcDbEntity
  8
Part
100
AcDbCircle
 10
1.770477377857488
 20
1.195007320120907
 30
0.0
 40
0.0299999999999994
100
AcDbArc
 50
0.0000000000025444
 51
90.00000000000143
  0
LINE
  5
99D
330
1F
100
AcDbEntity
  8
Part
100
AcDbLine
 10
1.800477377857489
 20
1.046507320120906
 30
0.0
 11
1.800477377857489
 21
1.195007320120907
 31
0.0
  0
LINE
  5
99E
330
1F
100
AcDbEntity
  8
Part
100
AcDbLine
 10
0.9019972949157446
 20
0.7035072995502909
 30
0.0
 11
0.9019972949158123
 21
0.4800072995502897
 31
0.0
  0
ARC
  5
99F
330
1F
100
AcDbEntity
  8
Part
100
AcDbCircle
 10
0.8719972949158183
 20
0.4800072995502808
 30
0.0
 40
0.0299999999999923
100
AcDbArc
 50
270.0000000000185
 51
0.0000000000178111
  0
LINE
  5
9A0
330
1F
100
AcDbEntity
  8
Part
100
AcDbLine
 10
0.8719972949158291
 20
0.4500072995502884
 30
0.0
 11
0.5799922737119232
 21
0.4500072995502973
 31
0.0
  0
ARC
  5
9A1
330
1F
100
AcDbEntity
  8
Part
100
AcDbCircle
 10
0.5799922737119232
 20
0.4800072995502985
 30
0.0
 40
0.0299999999999998
100
AcDbArc
 50
179.9999999999995
 51
270.0
  0
LINE
  5
9A2
330
1F
100
AcDbEntity
  8
Part
100
AcDbLine
 10
0.5499922737119221
 20
0.4800072995502985
 30
0.0
 11
0.5499922737119221
 21
0.5250072995502914
 31
0.0
  0
ARC
  5
9A3
330
1F
100
AcDbEntity
  8
Part
100
AcDbCircle
 10
0.5294922729678718
 20
0.7035072995502909
 30
0.0
 40
0.0299999999999994
100
AcDbArc
 50
89.99999999999836
 51
179.9999999999974
  0
LINE
  5
9A4
330
1F
100
AcDbEntity
  8
Part
100
AcDbLine
 10
0.5294922729678718
 20
0.7335072995502903
 30
0.0
 11
0.871997294915765
 21
0.7335072995502885
 31
0.0
  0
ARC
  5
9A5
330
1F
100
AcDbEntity
  8
Part
100
AcDbCircle
 10
0.8719972949157579
 20
0.7035072995502998
 30
0.0
 40
0.0299999999999887
100
AcDbArc
 50
359.999999999983
 51
89.9999999999831
  0
LINE
  5
9A6
330
1F
100
AcDbEntity
  8
Part
100
AcDbLine
 10
0.5294922729678753
 20
0.5250072995502914
 30
0.0
 11
0.5499922737119221
 21
0.5250072995502914
 31
0.0
  0
ARC
  5
9A7
330
1F
100
AcDbEntity
  8
Part
100
AcDbCircle
 10
0.5294922729678718
 20
0.5550072995502906
 30
0.0
 40
0.0299999999999994
100
AcDbArc
 50
180.0000000000025
 51
270.0000000000017
  0
LINE
  5
9A8
330
1F
100
AcDbEntity
  8
Part
100
AcDbLine
 10
0.4994922729678743
 20
0.7035072995502927
 30
0.0
 11
0.4994922729678743
 21
0.5550072995502906
 31
0.0
  0
LINE
  5
9A9
330
1F
100
AcDbEntity
  8
Part
100
AcDbLine
 10
0.8648415035821237
 20
1.313000432515396
 30
0.0
 11
0.63634150358212
 21
1.313000430153623
 31
0.0
  0
ARC
  5
9AA
330
1F
100
AcDbEntity
  8
Part
100
AcDbCircle
 10
0.6363415039302929
 20
1.283000430153621
 30
0.0
 40
0.03
100
AcDbArc
 50
90.00000066496047
 51
180.0000006649596
  0
LINE
  5
9AB
330
1F
100
AcDbEntity
  8
Part
100
AcDbLine
 10
0.8648415032339507
 20
1.18300043369628
 30
0.0
 11
0.63634150358212
 21
1.18300043015362
 31
0.0
  0
ARC
  5
9AC
330
1F
100
AcDbEntity
  8
Part
100
AcDbCircle
 10
0.8648415032339507
 20
1.213000432515394
 30
0.0
 40
0.03
100
AcDbArc
 50
270.0000006649609
 51
0.0000006649604501
  0
LINE
  5
9AD
330
1F
100
AcDbEntity
  8
Part
100
AcDbLine
 10
0.8948415007620658
 20
1.28301421995974
 30
0.0
 11
0.8948415035821176
 21
1.213000431334509
 31
0.0
  0
ARC
  5
9AE
330
1F
100
AcDbEntity
  8
Part
100
AcDbCircle
 10
0.8648415039302895
 20
1.283000432515394
 30
0.0
 40
0.03
100
AcDbArc
 50
0.0000006649604501
 51
90.00000066496168
  0
LINE
  5
9AF
330
1F
100
AcDbEntity
  8
Part
100
AcDbLine
 10
0.6063415035821187
 20
1.283000431334495
 30
0.0
 11
0.6063415035821187
 21
1.213000431334487
 31
0.0
  0
ARC
  5
9B0
330
1F
100
AcDbEntity
  8
Part
100
AcDbCircle
 10
0.6363415032339468
 20
1.213000430153622
 30
0.0
 40
0.03
100
AcDbArc
 50
180.0000006649596
 51
270.0000006649609
  0
LINE
  5
9B1
330
1F
100
AcDbEntity
  8
Part
100
AcDbLine
 10
1.435630509506451
 20
0.4365107395153164
 30
0.0
 11
1.664130368155784
 21
0.4367648993799313
 31
0.0
  0
ARC
  5
9B2
330
1F
100
AcDbEntity
  8
Part
100
AcDbCircle
 10
1.664096999207675
 20
0.4667648808218156
 30
0.0
 40
0.03
100
AcDbArc
 50
270.0637300095873
 51
0.0637300095862545
  0
LINE
  5
9B3
330
1F
100
AcDbEntity
  8
Part
100
AcDbLine
 10
1.435485912589548
 20
0.5665106579179901
 30
0.0
 11
1.663985770889397
 21
0.5667648189631032
 31
0.0
  0
ARC
  5
9B4
330
1F
100
AcDbEntity
  8
Part
100
AcDbCircle
 10
1.43551928118817
 20
0.5365106776566049
 30
0.0
 40
0.03
100
AcDbArc
 50
90.06373000958745
 51
180.0637300095869
  0
LINE
  5
9B5
330
1F
100
AcDbEntity
  8
Part
100
AcDbLine
 10
1.405597177619892
 20
0.4664635649249722
 30
0.0
 11
1.405519299396424
 21
0.5364773102371676
 31
0.0
  0
ARC
  5
9B6
330
1F
100
AcDbEntity
  8
Part
100
AcDbCircle
 10
1.43559714055835
 20
0.4665107209571997
 30
0.0
 40
0.03
100
AcDbArc
 50
180.0637300095869
 51
270.0637300095885
  0
LINE
  5
9B7
330
1F
100
AcDbEntity
  8
Part
100
AcDbLine
 10
1.694096980999431
 20
0.466798248241267
 30
0.0
 11
1.694019120932916
 21
0.536798204939904
 31
0.0
  0
ARC
  5
9B8
330
1F
100
AcDbEntity
  8
Part
100
AcDbCircle
 10
1.664019139837505
 20
0.5367648375212199
 30
0.0
 40
0.03
100
AcDbArc
 50
0.0637300095862545
 51
90.06373000958745
  0
TEXT
  5
9B9
330
1F
100
AcDbEntity
  8
Part
100
AcDbText
 10
0.9708826374060995
 20
0.9482747919394217
 30
0.0
 40
0.05625
  1
Innovative
 51
15.0
  7
ARIAL
 72
     1
 11
1.149992460052757
 21
0.9763997919394215
 31
0.0
100
AcDbText
 73
     2
  0
TEXT
  5
9BA
330
1F
100
AcDbEntity
  8
Part
100
AcDbText
 10
1.013476216874039
 20
0.8727250161035872
 30
0.0
 40
0.046875
  1
IPP-8045
  7
ARIAL
 72
     1
 11
1.149992460052757
 21
0.8961625161035872
 31
0.0
100
AcDbText
 73
     2
  0
TEXT
  5
9BB
330
1F
100
AcDbEntity
  8
Part
100
AcDbText
 10
0.8497334644865906
 20
0.8027896365826027
 30
0.0
 40
0.046875
  1
30 - 520 MHz 300W 
  7
ARIAL
 72
     1
 11
1.149992460052757
 21
0.8262271365826027
 31
0.0
100
AcDbText
 73
     2
  0
LINE
  5
9BC
330
1F
100
AcDbEntity
  8
Part
100
AcDbLine
 10
0.4179922737119172
 20
0.5492905075468273
 30
0.0
 11
0.4179922756940579
 21
1.200709186830359
 31
0.0
  0
LINE
  5
9BD
330
1F
100
AcDbEntity
  8
Part
100
AcDbLine
 10
0.5742752545481693
 20
1.357007301532432
 30
0.0
 11
1.725709065924309
 21
1.357007314936264
 31
0.0
  0
LINE
  5
9BE
330
1F
100
AcDbEntity
  8
Part
100
AcDbLine
 10
1.881992275734621
 20
1.200724108753504
 30
0.0
 11
1.881992273692936
 21
0.5492905075551096
 31
0.0
  0
LINE
  5
9BF
330
1F
100
AcDbEntity
  8
Part
100
AcDbLine
 10
1.72570883807934
 20
0.3930078211434851
 30
0.0
 11
0.5742903835539082
 21
0.3930072995502791
 31
0.0
  0
ARC
  5
9C0
330
1F
100
AcDbEntity
  8
Part
100
AcDbCircle
 10
1.911992275734622
 20
0.5492905072069392
 30
0.0
 40
0.0300000000000011
100
AcDbArc
 50
179.9999993350436
 51
246.4218208568582
  0
ARC
  5
9C1
330
1F
100
AcDbEntity
  8
Part
100
AcDbCircle
 10
1.911992273572663
 20
0.363007299210405
 30
0.0
 40
0.059999999999999
100
AcDbArc
 50
101.5369583678543
 51
168.4630403022244
  0
ARC
  5
9C2
330
1F
100
AcDbEntity
  8
Part
100
AcDbCircle
 10
1.725714284183296
 20
0.3630057084704386
 30
0.0
 40
0.0300000000000019
100
AcDbArc
 50
23.57876180482048
 51
90.00058332663867
  0
ARC
  5
9C3
330
1F
100
AcDbEntity
  8
Part
100
AcDbCircle
 10
0.5742804728668212
 20
0.3629939857975137
 30
0.0
 40
0.0299999999999985
100
AcDbArc
 50
90.00058332662183
 51
156.4213192640727
  0
LINE
  5
9C4
330
1F
100
AcDbEntity
  8
Part
100
AcDbLine
 10
1.853204516750952
 20
0.3749923689649397
 30
0.0
 11
1.753204516750957
 21
0.374992370752333
 31
0.0
  0
LINE
  5
9C5
330
1F
100
AcDbEntity
  8
Part
100
AcDbLine
 10
0.5467800244045371
 20
0.3749923923160172
 30
0.0
 11
0.4467800244046174
 21
0.3750072988529411
 31
0.0
  0
MTEXT
  5
A7B
330
1F
100
AcDbEntity
  8
Text
100
AcDbMText
 10
1.092560359011322
 20
-0.0956613811985272
 30
0.0
 40
0.1
 41
2.0564
 71
     2
 72
     5
  1
Er=3.55, 2oz. Cu, Both Sides\P(.032" THK.)
  7
ARIAL
 73
     1
 44
1.0
1001
ACAD
1000
MTEXTBEGIN
1070
    73
1070
     1
1070
    44
1040
1.0
1070
    74
1070
     0
1000
MTEXTEND
  0
TEXT
  5
A7C
330
1F
100
AcDbEntity
  8
Text
100
AcDbText
 10
0.241439562853947
 20
2.035562554397544
 30
-0.062
 40
0.06
  1
%%UTOP & BOTTOM ARTWORK SCALE 1:1
  7
ROMANS
 72
     1
 11
1.092439562853947
 21
2.035562554397544
 31
-0.062
100
AcDbText
  0
TEXT
  5
A7D
330
1F
100
AcDbEntity
  8
Text
100
AcDbText
 10
0.0652967057110903
 20
1.855610750247095
 30
-0.062
 40
0.06
  1
VIEW: LOOKING THRU FROM TOP TO BOTTOM
  7
ROMANS
 72
     1
 11
1.092439562853947
 21
1.855610750247095
 31
-0.062
100
AcDbText
  0
CIRCLE
  5
A7E
330
1F
100
AcDbEntity
  8
PCB_OUTLINE
100
AcDbCircle
 10
2.269999984042009
 20
1.075000000055003
 30
0.0
 40
0.015
  0
CIRCLE
  5
A7F
330
1F
100
AcDbEntity
  8
PCB_OUTLINE
100
AcDbCircle
 10
2.269999984042009
 20
0.7550000000550039
 30
0.0
 40
0.015
  0
CIRCLE
  5
A80
330
1F
100
AcDbEntity
  8
PCB_OUTLINE
100
AcDbCircle
 10
2.269999984042009
 20
0.8350000000550037
 30
0.0
 40
0.015
  0
CIRCLE
  5
A81
330
1F
100
AcDbEntity
  8
PCB_OUTLINE
100
AcDbCircle
 10
2.269999984042009
 20
0.915000000055004
 30
0.0
 40
0.015
  0
CIRCLE
  5
A82
330
1F
100
AcDbEntity
  8
PCB_OUTLINE
100
AcDbCircle
 10
2.269999984042009
 20
0.9950000000550039
 30
0.0
 40
0.015
  0
ENDSEC
  0
SECTION
  2
OBJECTS
  0
DICTIONARY
  5
C
330
0
100
AcDbDictionary
281
     1
  3
ACAD_2007HEADERVARS_RT
350
A89
  3
ACAD_CIP_PREVIOUS_PRODUCT_INFO
350
A2A
  3
ACAD_COLOR
350
C9
  3
ACAD_DETAILVIEWSTYLE
350
A22
  3
ACAD_GROUP
350
D
  3
ACAD_LAYOUT
350
1A
  3
ACAD_MATERIAL
350
C8
  3
ACAD_MLEADERSTYLE
350
2EC
  3
ACAD_MLINESTYLE
350
17
  3
ACAD_PLOTSETTINGS
350
19
  3
ACAD_PLOTSTYLENAME
350
E
  3
ACAD_SCALELIST
350
2CA
  3
ACAD_SECTIONVIEWSTYLE
350
A20
  3
ACAD_TABLESTYLE
350
123
  3
ACAD_VISUALSTYLE
350
296
  3
ACDB_RECOMPOSE_DATA
350
A87
  3
AcDbVariableDictionary
350
9E
  3
AcmDictionary
350
63
  3
AMG
350
49
  3
AMGSNAPSETTINGS
350
6DC
  3
DWGPROPS
350
A88
  0
DICTIONARY
  5
3F2
330
2
100
AcDbDictionary
280
     1
281
     1
  3
ACAD_LAYERSTATES
360
3F3
  0
DICTIONARY
  5
9C6
330
10
100
AcDbDictionary
280
     1
281
     1
  3
ADSK_XREC_LAYER_RECONCILED
360
9C7
  0
DICTIONARY
  5
3E4
330
3E3
100
AcDbDictionary
280
     1
281
     1
  3
ADSK_XREC_LAYER_RECONCILED
360
9C8
  0
DICTIONARY
  5
3E6
330
3E5
100
AcDbDictionary
280
     1
281
     1
  3
ADSK_XREC_LAYER_RECONCILED
360
9C9
  0
DICTIONARY
  5
3E8
330
3E7
100
AcDbDictionary
280
     1
281
     1
  3
ADSK_XREC_LAYER_RECONCILED
360
9CA
  0
DICTIONARY
  5
3EA
330
3E9
100
AcDbDictionary
280
     1
281
     1
  3
ADSK_XREC_LAYER_RECONCILED
360
9CB
  0
DICTIONARY
  5
9CC
330
3EB
100
AcDbDictionary
280
     1
281
     1
  3
ADSK_XREC_LAYER_RECONCILED
360
9CD
  0
DICTIONARY
  5
99
330
1F
100
AcDbDictionary
280
     1
281
     1
  0
DICTIONARY
  5
A89
102
{ACAD_REACTORS
330
C
102
}
330
C
100
AcDbDictionary
281
     1
  3
DIMARCSYM
350
A8A
  3
DIMLTEX1
350
A8C
  3
DIMLTEX2
350
A8D
  3
DIMLTYPE
350
A8B
  0
XRECORD
  5
A2A
102
{ACAD_REACTORS
330
C
102
}
330
C
100
AcDbXrecord
280
     1
300
AMECH_PP
300
2013
300
PDSP_F_S
  0
DICTIONARY
  5
C9
102
{ACAD_REACTORS
330
C
102
}
330
C
100
AcDbDictionary
281
     1
  0
DICTIONARY
  5
A22
102
{ACAD_REACTORS
330
C
102
}
330
C
100
AcDbDictionary
281
     1
  3
Imperial24
350
A23
  0
DICTIONARY
  5
D
102
{ACAD_REACTORS
330
C
102
}
330
C
100
AcDbDictionary
281
     1
  0
DICTIONARY
  5
1A
102
{ACAD_REACTORS
330
C
102
}
330
C
100
AcDbDictionary
281
     1
  3
Layout1
350
1E
  3
Layout2
350
26
  3
Model
350
22
  0
DICTIONARY
  5
C8
102
{ACAD_REACTORS
330
C
102
}
330
C
100
AcDbDictionary
281
     1
  3
ByBlock
350
294
  3
ByLayer
350
293
  3
Global
350
295
  0
DICTIONARY
  5
2EC
102
{ACAD_REACTORS
330
C
102
}
330
C
100
AcDbDictionary
281
     1
  3
Standard
350
2ED
  0
DICTIONARY
  5
17
102
{ACAD_REACTORS
330
C
102
}
330
C
100
AcDbDictionary
281
     1
  3
Standard
350
18
  0
DICTIONARY
  5
19
102
{ACAD_REACTORS
330
C
102
}
330
C
100
AcDbDictionary
281
     1
  0
ACDBDICTIONARYWDFLT
  5
E
102
{ACAD_REACTORS
330
C
102
}
330
C
100
AcDbDictionary
281
     1
  3
Normal
350
F
100
AcDbDictionaryWithDefault
340
F
  0
DICTIONARY
  5
2CA
102
{ACAD_REACTORS
330
C
102
}
330
C
100
AcDbDictionary
281
     1
  3
A0
350
2CB
  3
A1
350
2CC
  3
A2
350
2CD
  3
A3
350
2CE
  3
A4
350
2CF
  3
A5
350
2D0
  3
A6
350
2D1
  3
A7
350
2D2
  3
A8
350
2D3
  3
A9
350
2D4
  3
B0
350
2D5
  3
B1
350
2D6
  3
B2
350
2D7
  3
B3
350
2D8
  3
B4
350
2D9
  3
B5
350
2DA
  3
B6
350
2DB
  3
B7
350
2DC
  3
B8
350
2DD
  3
B9
350
2DE
  3
C0
350
2DF
  3
C1
350
2E0
  3
C2
350
2E1
  3
C3
350
2E2
  3
C4
350
2E3
  3
C5
350
2E4
  3
C6
350
2E5
  3
C7
350
2E6
  3
C8
350
2E7
  3
C9
350
2E8
  3
D0
350
2E9
  3
D1
350
2EA
  3
D2
350
2EB
  0
DICTIONARY
  5
A20
102
{ACAD_REACTORS
330
C
102
}
330
C
100
AcDbDictionary
281
     1
  3
Imperial24
350
A21
  0
DICTIONARY
  5
123
102
{ACAD_REACTORS
330
C
102
}
330
C
100
AcDbDictionary
281
     1
  3
Standard
350
124
  0
DICTIONARY
  5
296
102
{ACAD_REACTORS
330
C
102
}
330
C
100
AcDbDictionary
281
     1
  3
2dWireframe
350
29C
  3
3D Hidden
350
29E
  3
3dWireframe
350
29D
  3
Basic
350
29B
  3
Brighten
350
2A2
  3
ColorChange
350
2A6
  3
Conceptual
350
29F
  3
Dim
350
2A1
  3
EdgeColorOff
350
370
  3
Facepattern
350
2A5
  3
Flat
350
297
  3
FlatWithEdges
350
298
  3
Gouraud
350
299
  3
GouraudWithEdges
350
29A
  3
Hidden
350
3AD
  3
JitterOff
350
36E
  3
Linepattern
350
2A4
  3
OverhangOff
350
36F
  3
Realistic
350
2A0
  3
Shaded
350
3B2
  3
Shaded with edges
350
3B1
  3
Shades of Gray
350
3AE
  3
Sketchy
350
3AF
  3
Thicken
350
2A3
  3
Wireframe
350
3AC
  3
X-Ray
350
3B0
  0
XRECORD
  5
A87
102
{ACAD_REACTORS
330
C
102
}
330
C
100
AcDbXrecord
280
     1
 90
        1
330
124
  0
DICTIONARY
  5
9E
102
{ACAD_REACTORS
330
C
102
}
330
C
100
AcDbDictionary
281
     1
  3
CANNOSCALE
350
310
  3
CMLEADERSTYLE
350
30E
  3
CTABLESTYLE
350
144
  3
CVIEWDETAILSTYLE
350
A83
  3
CVIEWSECTIONSTYLE
350
A84
  3
DIMASSOC
350
A0
  3
INDEXCTL
350
9F
  3
LAYEREVAL
350
36B
  3
LAYERNOTIFY
350
36C
  3
LIGHTINGUNITS
350
311
  3
MSLTSCALE
350
30F
  3
SORTENTS
350
9CE
  3
XCLIPFRAME
350
A85
  0
DICTIONARY
  5
63
102
{ACAD_REACTORS
330
C
102
}
330
C
100
AcDbDictionary
281
     1
  3
AcmStdDictionary
350
69
  3
AMDTSECTSYM_ARROWCOLOR
350
12C
  0
DICTIONARY
  5
49
102
{ACAD_REACTORS
330
C
102
}
330
C
100
AcDbDictionary
281
     1
  0
DICTIONARY
  5
6DC
102
{ACAD_REACTORS
330
C
102
}
330
C
100
AcDbDictionary
281
     1
  0
XRECORD
  5
A88
102
{ACAD_REACTORS
330
C
102
}
330
C
100
AcDbXrecord
280
     1
  1
DWGPROPS COOKIE
  2

  3

  4

  6

  7

  8
scornell
  9

300
AmdtFileType=84
301
=
302
=
303
=
304
=
305
=
306
=
307
=
308
=
309
=
 40
0.0009979282407407
 41
2456157.432928287
 42
2456905.703715336
  1

 90
        1
  0
DICTIONARY
  5
3F3
102
{ACAD_REACTORS
330
3F2
102
}
330
3F2
100
AcDbDictionary
281
     1
  0
XRECORD
  5
9C7
102
{ACAD_REACTORS
330
9C6
102
}
330
9C6
100
AcDbXrecord
280
     1
290
     1
  0
XRECORD
  5
9C8
102
{ACAD_REACTORS
330
3E4
102
}
330
3E4
100
AcDbXrecord
280
     1
290
     1
  0
XRECORD
  5
9C9
102
{ACAD_REACTORS
330
3E6
102
}
330
3E6
100
AcDbXrecord
280
     1
290
     1
  0
XRECORD
  5
9CA
102
{ACAD_REACTORS
330
3E8
102
}
330
3E8
100
AcDbXrecord
280
     1
290
     1
  0
XRECORD
  5
9CB
102
{ACAD_REACTORS
330
3EA
102
}
330
3EA
100
AcDbXrecord
280
     1
290
     1
  0
XRECORD
  5
9CD
102
{ACAD_REACTORS
330
9CC
102
}
330
9CC
100
AcDbXrecord
280
     1
290
     1
  0
XRECORD
  5
A8A
102
{ACAD_REACTORS
330
A89
102
}
330
A89
100
AcDbXrecord
280
     1
 70
     1
  0
XRECORD
  5
A8C
102
{ACAD_REACTORS
330
A89
102
}
330
A89
100
AcDbXrecord
280
     1
340
14
  0
XRECORD
  5
A8D
102
{ACAD_REACTORS
330
A89
102
}
330
A89
100
AcDbXrecord
280
     1
340
14
  0
XRECORD
  5
A8B
102
{ACAD_REACTORS
330
A89
102
}
330
A89
100
AcDbXrecord
280
     1
340
14
  0
ACDBDETAILVIEWSTYLE
  5
A23
102
{ACAD_REACTORS
330
A22
102
}
330
A22
100
AcDbModelDocViewStyle
 70
     0
  3
Imperial24
290
     0
100
AcDbDetailViewStyle
 70
     0
 71
     0
 90
        3
 71
     1
340
11
 40
0.24
340
0
 40
0.24
300

 40
0.36
280
     3
 71
     2
340
16
 90
       25
 71
     3
340
11
 40
0.24
 90
        1
 40
0.75
 90
        1
300
%<\AcVar ViewType \f "%tc1">% %<\AcVar ViewDetailId>%\PSCALE %<\AcVar ViewScale \f "%sn">%
 71
     4
340
16
 90
       25
340
16
 90
       25
280
     0
  0
LAYOUT
  5
1E
102
{ACAD_XDICTIONARY
360
A8E
102
}
102
{ACAD_REACTORS
330
1A
102
}
330
1A
100
AcDbPlotSettings
  1

  2

  4

  6

 40
0.0
 41
0.0
 42
0.0
 43
0.0
 44
0.0
 45
0.0
 46
0.0
 47
0.0
 48
0.0
 49
0.0
140
0.0
141
0.0
142
1.0
143
1.0
 70
   688
 72
     0
 73
     0
 74
     5
  7

 75
    16
147
1.0
148
0.0
149
0.0
100
AcDbLayout
  1
Layout1
 70
     1
 71
     1
 10
0.0
 20
0.0
 11
12.0
 21
9.0
 12
0.0
 22
0.0
 32
0.0
 14
1.000000000000000E+20
 24
1.000000000000000E+20
 34
1.000000000000000E+20
 15
-1.000000000000000E+20
 25
-1.000000000000000E+20
 35
-1.000000000000000E+20
146
0.0
 13
0.0
 23
0.0
 33
0.0
 16
1.0
 26
0.0
 36
0.0
 17
0.0
 27
1.0
 37
0.0
 76
     0
330
1B
  0
LAYOUT
  5
26
102
{ACAD_XDICTIONARY
360
A92
102
}
102
{ACAD_REACTORS
330
1A
102
}
330
1A
100
AcDbPlotSettings
  1

  2

  4

  6

 40
0.0
 41
0.0
 42
0.0
 43
0.0
 44
0.0
 45
0.0
 46
0.0
 47
0.0
 48
0.0
 49
0.0
140
0.0
141
0.0
142
1.0
143
1.0
 70
   688
 72
     0
 73
     0
 74
     5
  7

 75
    16
147
1.0
148
0.0
149
0.0
100
AcDbLayout
  1
Layout2
 70
     1
 71
     2
 10
0.0
 20
0.0
 11
12.0
 21
9.0
 12
0.0
 22
0.0
 32
0.0
 14
0.0
 24
0.0
 34
0.0
 15
0.0
 25
0.0
 35
0.0
146
0.0
 13
0.0
 23
0.0
 33
0.0
 16
1.0
 26
0.0
 36
0.0
 17
0.0
 27
1.0
 37
0.0
 76
     0
330
23
  0
LAYOUT
  5
22
102
{ACAD_XDICTIONARY
360
A90
102
}
102
{ACAD_REACTORS
330
1A
102
}
330
1A
100
AcDbPlotSettings
  1

  2
Microsoft XPS Document Writer
  4
Letter
  6

 40
3.174999952316283
 41
3.174999952316283
 42
3.175003051757812
 43
3.17498779296875
 44
215.8999938964844
 45
279.3999938964844
 46
0.0
 47
0.0
 48
0.0
 49
0.0
140
0.0
141
0.0
142
1.0
143
6.849119936724107
 70
 11952
 72
     0
 73
     1
 74
     0
  7

 75
     0
147
0.1460041595472913
148
0.9590289534723908
149
-206.7291300837655
100
AcDbLayout
  1
Model
 70
     1
 71
     0
 10
0.0
 20
0.0
 11
12.0
 21
9.0
 12
0.0
 22
0.0
 32
0.0
 14
0.0
 24
0.0
 34
0.0
 15
0.0
 25
0.0
 35
0.0
146
0.0
 13
0.0
 23
0.0
 33
0.0
 16
1.0
 26
0.0
 36
0.0
 17
0.0
 27
1.0
 37
0.0
 76
     0
330
1F
331
291
1001
ACAD_PSEXT
1000
Microsoft XPS Document Writer
1000
Microsoft XPS Document Writer
1000
XPSPort:
1000

1070
     0
  0
MATERIAL
  5
294
102
{ACAD_XDICTIONARY
360
9E4
102
}
102
{ACAD_REACTORS
330
C8
102
}
330
C8
100
AcDbMaterial
  1
ByBlock
 73
     1
 78
     1
172
     1
176
     1
270
     1
274
     1
  0
MATERIAL
  5
293
102
{ACAD_XDICTIONARY
360
9E2
102
}
102
{ACAD_REACTORS
330
C8
102
}
330
C8
100
AcDbMaterial
  1
ByLayer
 73
     1
 78
     1
172
     1
176
     1
270
     1
274
     1
  0
MATERIAL
  5
295
102
{ACAD_XDICTIONARY
360
9E6
102
}
102
{ACAD_REACTORS
330
C8
102
}
330
C8
100
AcDbMaterial
  1
Global
 73
     1
 78
     1
172
     1
176
     1
270
     1
274
     1
  0
MLEADERSTYLE
  5
2ED
102
{ACAD_REACTORS
330
2EC
102
}
330
2EC
100
AcDbMLeaderStyle
170
     2
171
     1
172
     0
 90
        2
 40
0.0
 41
0.0
173
     1
 91
-1056964608
340
14
 92
       -2
290
     1
 42
0.09
291
     1
 43
0.36
  3
Standard
 44
0.18
300

342
11
174
     1
178
     6
175
     1
176
     0
 93
-1056964608
 45
0.18
292
     0
297
     0
 46
0.18
 94
-1056964608
 47
1.0
 49
1.0
140
1.0
293
     1
141
0.0
294
     1
177
     0
142
1.0
295
     0
296
     0
143
0.125
1001
ACAD_MLEADERVER
1070
     2
  0
MLINESTYLE
  5
18
102
{ACAD_REACTORS
330
17
102
}
330
17
100
AcDbMlineStyle
  2
STANDARD
 70
     0
  3

 62
   256
 51
90.0
 52
90.0
 71
     2
 49
0.5
 62
   256
  6
BYLAYER
 49
-0.5
 62
   256
  6
BYLAYER
  0
ACDBPLACEHOLDER
  5
F
102
{ACAD_REACTORS
330
E
102
}
330
E
  0
SCALE
  5
2CB
102
{ACAD_REACTORS
330
2CA
102
}
330
2CA
100
AcDbScale
 70
     0
300
1:1
140
1.0
141
1.0
290
     1
  0
SCALE
  5
2CC
102
{ACAD_REACTORS
330
2CA
102
}
330
2CA
100
AcDbScale
 70
     0
300
1:2
140
1.0
141
2.0
290
     0
  0
SCALE
  5
2CD
102
{ACAD_REACTORS
330
2CA
102
}
330
2CA
100
AcDbScale
 70
     0
300
1:4
140
1.0
141
4.0
290
     0
  0
SCALE
  5
2CE
102
{ACAD_REACTORS
330
2CA
102
}
330
2CA
100
AcDbScale
 70
     0
300
1:5
140
1.0
141
5.0
290
     0
  0
SCALE
  5
2CF
102
{ACAD_REACTORS
330
2CA
102
}
330
2CA
100
AcDbScale
 70
     0
300
1:8
140
1.0
141
8.0
290
     0
  0
SCALE
  5
2D0
102
{ACAD_REACTORS
330
2CA
102
}
330
2CA
100
AcDbScale
 70
     0
300
1:10
140
1.0
141
10.0
290
     0
  0
SCALE
  5
2D1
102
{ACAD_REACTORS
330
2CA
102
}
330
2CA
100
AcDbScale
 70
     0
300
1:16
140
1.0
141
16.0
290
     0
  0
SCALE
  5
2D2
102
{ACAD_REACTORS
330
2CA
102
}
330
2CA
100
AcDbScale
 70
     0
300
1:20
140
1.0
141
20.0
290
     0
  0
SCALE
  5
2D3
102
{ACAD_REACTORS
330
2CA
102
}
330
2CA
100
AcDbScale
 70
     0
300
1:30
140
1.0
141
30.0
290
     0
  0
SCALE
  5
2D4
102
{ACAD_REACTORS
330
2CA
102
}
330
2CA
100
AcDbScale
 70
     0
300
1:40
140
1.0
141
40.0
290
     0
  0
SCALE
  5
2D5
102
{ACAD_REACTORS
330
2CA
102
}
330
2CA
100
AcDbScale
 70
     0
300
1:50
140
1.0
141
50.0
290
     0
  0
SCALE
  5
2D6
102
{ACAD_REACTORS
330
2CA
102
}
330
2CA
100
AcDbScale
 70
     0
300
1:100
140
1.0
141
100.0
290
     0
  0
SCALE
  5
2D7
102
{ACAD_REACTORS
330
2CA
102
}
330
2CA
100
AcDbScale
 70
     0
300
2:1
140
2.0
141
1.0
290
     0
  0
SCALE
  5
2D8
102
{ACAD_REACTORS
330
2CA
102
}
330
2CA
100
AcDbScale
 70
     0
300
4:1
140
4.0
141
1.0
290
     0
  0
SCALE
  5
2D9
102
{ACAD_REACTORS
330
2CA
102
}
330
2CA
100
AcDbScale
 70
     0
300
8:1
140
8.0
141
1.0
290
     0
  0
SCALE
  5
2DA
102
{ACAD_REACTORS
330
2CA
102
}
330
2CA
100
AcDbScale
 70
     0
300
10:1
140
10.0
141
1.0
290
     0
  0
SCALE
  5
2DB
102
{ACAD_REACTORS
330
2CA
102
}
330
2CA
100
AcDbScale
 70
     0
300
100:1
140
100.0
141
1.0
290
     0
  0
SCALE
  5
2DC
102
{ACAD_REACTORS
330
2CA
102
}
330
2CA
100
AcDbScale
 70
     0
300
1/128" = 1'-0"
140
0.0078125
141
12.0
290
     0
  0
SCALE
  5
2DD
102
{ACAD_REACTORS
330
2CA
102
}
330
2CA
100
AcDbScale
 70
     0
300
1/64" = 1'-0"
140
0.015625
141
12.0
290
     0
  0
SCALE
  5
2DE
102
{ACAD_REACTORS
330
2CA
102
}
330
2CA
100
AcDbScale
 70
     0
300
1/32" = 1'-0"
140
0.03125
141
12.0
290
     0
  0
SCALE
  5
2DF
102
{ACAD_REACTORS
330
2CA
102
}
330
2CA
100
AcDbScale
 70
     0
300
1/16" = 1'-0"
140
0.0625
141
12.0
290
     0
  0
SCALE
  5
2E0
102
{ACAD_REACTORS
330
2CA
102
}
330
2CA
100
AcDbScale
 70
     0
300
3/32" = 1'-0"
140
0.09375
141
12.0
290
     0
  0
SCALE
  5
2E1
102
{ACAD_REACTORS
330
2CA
102
}
330
2CA
100
AcDbScale
 70
     0
300
1/8" = 1'-0"
140
0.125
141
12.0
290
     0
  0
SCALE
  5
2E2
102
{ACAD_REACTORS
330
2CA
102
}
330
2CA
100
AcDbScale
 70
     0
300
3/16" = 1'-0"
140
0.1875
141
12.0
290
     0
  0
SCALE
  5
2E3
102
{ACAD_REACTORS
330
2CA
102
}
330
2CA
100
AcDbScale
 70
     0
300
1/4" = 1'-0"
140
0.25
141
12.0
290
     0
  0
SCALE
  5
2E4
102
{ACAD_REACTORS
330
2CA
102
}
330
2CA
100
AcDbScale
 70
     0
300
3/8" = 1'-0"
140
0.375
141
12.0
290
     0
  0
SCALE
  5
2E5
102
{ACAD_REACTORS
330
2CA
102
}
330
2CA
100
AcDbScale
 70
     0
300
1/2" = 1'-0"
140
0.5
141
12.0
290
     0
  0
SCALE
  5
2E6
102
{ACAD_REACTORS
330
2CA
102
}
330
2CA
100
AcDbScale
 70
     0
300
3/4" = 1'-0"
140
0.75
141
12.0
290
     0
  0
SCALE
  5
2E7
102
{ACAD_REACTORS
330
2CA
102
}
330
2CA
100
AcDbScale
 70
     0
300
1" = 1'-0"
140
1.0
141
12.0
290
     0
  0
SCALE
  5
2E8
102
{ACAD_REACTORS
330
2CA
102
}
330
2CA
100
AcDbScale
 70
     0
300
1-1/2" = 1'-0"
140
1.5
141
12.0
290
     0
  0
SCALE
  5
2E9
102
{ACAD_REACTORS
330
2CA
102
}
330
2CA
100
AcDbScale
 70
     0
300
3" = 1'-0"
140
3.0
141
12.0
290
     0
  0
SCALE
  5
2EA
102
{ACAD_REACTORS
330
2CA
102
}
330
2CA
100
AcDbScale
 70
     0
300
6" = 1'-0"
140
6.0
141
12.0
290
     0
  0
SCALE
  5
2EB
102
{ACAD_REACTORS
330
2CA
102
}
330
2CA
100
AcDbScale
 70
     0
300
1'-0" = 1'-0"
140
12.0
141
12.0
290
     0
  0
ACDBSECTIONVIEWSTYLE
  5
A21
102
{ACAD_REACTORS
330
A20
102
}
330
A20
100
AcDbModelDocViewStyle
 70
     0
  3
Imperial24
290
     0
100
AcDbSectionViewStyle
 70
     0
 71
     0
 90
       78
 71
     1
340
11
 40
0.24
340
0
340
0
 40
0.24
300
I, O, Q, S, X, Z
 40
0.48
 90
        3
 40
0.18
 90
        1
 71
     2
340
77
 90
       25
340
16
 90
       50
 40
0.24
 40
0.0
 40
0.24
 71
     3
340
11
 40
0.24
 90
        1
 40
0.75
 90
        1
300
%<\AcVar ViewType \f "%tc1">% %<\AcVar ViewSectionStartId>%-%<\AcVar ViewSectionEndId>%\PSCALE %<\AcVar ViewScale \f "%sn">%
 71
     4
300
ANSI31
 40
1.0
 90
        0
290
     0
290
     0
 90
        6
 40
0.0
 40
1.570796326794896
 40
0.2617993877991494
 40
1.308996938995747
 40
-0.2617993877991494
 40
1.832595714594046
  0
TABLESTYLE
  5
124
102
{ACAD_XDICTIONARY
360
30B
102
}
102
{ACAD_REACTORS
330
123
102
}
330
123
100
AcDbTableStyle
  3
Standard
 70
     0
 71
     0
 40
0.06
 41
0.06
280
     0
281
     0
  7
STANDARD
140
0.18
170
     2
 62
     0
 63
     7
283
     0
274
    -2
284
     1
 64
     0
275
    -2
285
     1
 65
     0
276
    -2
286
     1
 66
     0
277
    -2
287
     1
 67
     0
278
    -2
288
     1
 68
     0
279
    -2
289
     1
 69
     0
  7
STANDARD
140
0.25
170
     5
 62
     0
 63
     7
283
     0
274
    -2
284
     1
 64
     0
275
    -2
285
     1
 65
     0
276
    -2
286
     1
 66
     0
277
    -2
287
     1
 67
     0
278
    -2
288
     1
 68
     0
279
    -2
289
     1
 69
     0
  7
STANDARD
140
0.18
170
     5
 62
     0
 63
     7
283
     0
274
    -2
284
     1
 64
     0
275
    -2
285
     1
 65
     0
276
    -2
286
     1
 66
     0
277
    -2
287
     1
 67
     0
278
    -2
288
     1
 68
     0
279
    -2
289
     1
 69
     0
  0
VISUALSTYLE
  5
29C
102
{ACAD_XDICTIONARY
360
A9F
102
}
102
{ACAD_REACTORS
330
296
102
}
330
296
100
AcDbVisualStyle
  2

 70
     4
 71
     0
 72
     2
 73
     0
 90
        0
 40
-0.6
 41
-30.0
 62
     5
 63
     7
 74
     1
 91
        4
 64
     7
 65
   257
 75
     1
175
     1
 42
1.0
 92
        0
 66
   257
 43
1.0
 76
     1
 77
     6
 78
     2
 67
     7
 79
     5
170
     0
171
     0
290
     0
174
     0
 93
        1
 44
0.0
173
     0
291
     0
 45
0.0
1001
ACAD
1000
AcDbSavedByObjectVersion
1070
     0
  0
VISUALSTYLE
  5
29E
102
{ACAD_XDICTIONARY
360
AA3
102
}
102
{ACAD_REACTORS
330
296
102
}
330
296
100
AcDbVisualStyle
  2

 70
     6
 71
     1
 72
     2
 73
     2
 90
        0
 40
-0.6
 41
-30.0
 62
     5
 63
     7
 74
     2
 91
        2
 64
     7
 65
   257
 75
     2
175
     1
 42
40.0
 92
        0
 66
   257
 43
1.0
 76
     1
 77
     6
 78
     2
 67
     7
 79
     3
170
     0
171
     0
290
     0
174
     0
 93
        1
 44
0.0
173
     0
291
     0
 45
0.0
1001
ACAD
1000
AcDbSavedByObjectVersion
1070
     0
  0
VISUALSTYLE
  5
29D
102
{ACAD_XDICTIONARY
360
AA1
102
}
102
{ACAD_REACTORS
330
296
102
}
330
296
100
AcDbVisualStyle
  2

 70
     5
 71
     0
 72
     2
 73
     0
 90
        0
 40
-0.6
 41
-30.0
 62
     5
 63
     7
 74
     1
 91
        4
 64
     7
 65
   257
 75
     1
175
     1
 42
1.0
 92
        0
 66
   257
 43
1.0
 76
     1
 77
     6
 78
     2
 67
     7
 79
     5
170
     0
171
     0
290
     0
174
     0
 93
        1
 44
0.0
173
     0
291
     0
 45
0.0
1001
ACAD
1000
AcDbSavedByObjectVersion
1070
     0
  0
VISUALSTYLE
  5
29B
102
{ACAD_XDICTIONARY
360
A9D
102
}
102
{ACAD_REACTORS
330
296
102
}
330
296
100
AcDbVisualStyle
  2

 70
     7
 71
     1
 72
     0
 73
     1
 90
        0
 40
-0.6
 41
-30.0
 62
     5
 63
     7
 74
     0
 91
        4
 64
     7
 65
   257
 75
     1
175
     1
 42
1.0
 92
        8
 66
     7
 43
1.0
 76
     1
 77
     6
 78
     2
 67
     7
 79
     5
170
     0
171
     0
290
     0
174
     0
 93
        1
 44
0.0
173
     0
291
     1
 45
0.0
1001
ACAD
1000
AcDbSavedByObjectVersion
1070
     0
  0
VISUALSTYLE
  5
2A2
102
{ACAD_XDICTIONARY
360
AAB
102
}
102
{ACAD_REACTORS
330
296
102
}
330
296
100
AcDbVisualStyle
  2

 70
    12
 71
     2
 72
     2
 73
     0
 90
        0
 40
-0.6
 41
-30.0
 62
     5
 63
     7
 74
     1
 91
        4
 64
     7
 65
   257
 75
     1
175
     1
 42
1.0
 92
        8
 66
     7
 43
1.0
 76
     1
 77
     6
 78
     2
 67
     7
 79
     5
170
     0
171
     0
290
     0
174
     0
 93
        1
 44
50.0
173
     0
291
     1
 45
0.0
1001
ACAD
1000
AcDbSavedByObjectVersion
1070
     0
  0
VISUALSTYLE
  5
2A6
102
{ACAD_XDICTIONARY
360
AB3
102
}
102
{ACAD_REACTORS
330
296
102
}
330
296
100
AcDbVisualStyle
  2

 70
    16
 71
     2
 72
     2
 73
     3
 90
        0
 40
-0.6
 41
-30.0
 62
     5
 63
     8
 74
     1
 91
        4
 64
     7
 65
   257
 75
     1
175
     1
 42
1.0
 92
        8
 66
     8
 43
1.0
 76
     1
 77
     6
 78
     2
 67
     7
 79
     5
170
     0
171
     0
290
     0
174
     0
 93
        1
 44
0.0
173
     0
291
     1
 45
0.0
1001
ACAD
1000
AcDbSavedByObjectVersion
1070
     0
  0
VISUALSTYLE
  5
29F
102
{ACAD_XDICTIONARY
360
AA5
102
}
102
{ACAD_REACTORS
330
296
102
}
330
296
100
AcDbVisualStyle
  2

 70
     9
 71
     3
 72
     2
 73
     0
 90
        0
 40
-0.6
 41
-30.0
 62
     5
 63
     7
 74
     2
 91
        2
 64
     7
 65
   257
 75
     1
175
     1
 42
40.0
 92
        8
 66
     7
 43
1.0
 76
     1
 77
     6
 78
     2
 67
     7
 79
     3
170
     0
171
     0
290
     0
174
     0
 93
        1
 44
0.0
173
     0
291
     0
 45
0.0
1001
ACAD
1000
AcDbSavedByObjectVersion
1070
     0
  0
VISUALSTYLE
  5
2A1
102
{ACAD_XDICTIONARY
360
AA9
102
}
102
{ACAD_REACTORS
330
296
102
}
330
296
100
AcDbVisualStyle
  2

 70
    11
 71
     2
 72
     2
 73
     0
 90
        0
 40
-0.6
 41
-30.0
 62
     5
 63
     7
 74
     1
 91
        4
 64
     7
 65
   257
 75
     1
175
     1
 42
1.0
 92
        8
 66
     7
 43
1.0
 76
     1
 77
     6
 78
     2
 67
     7
 79
     5
170
     0
171
     0
290
     0
174
     0
 93
        1
 44
-50.0
173
     0
291
     1
 45
0.0
1001
ACAD
1000
AcDbSavedByObjectVersion
1070
     0
  0
VISUALSTYLE
  5
370
102
{ACAD_XDICTIONARY
360
AB9
102
}
102
{ACAD_REACTORS
330
296
102
}
330
296
100
AcDbVisualStyle
  2

 70
    22
 71
     2
 72
     2
 73
     0
 90
        0
 40
-0.6
 41
-30.0
 62
     5
 63
     7
 74
     1
 91
        4
 64
     7
 65
   257
 75
     1
175
     1
 42
1.0
 92
        8
 66
     7
 43
1.0
 76
     1
 77
     6
 78
     2
 67
     7
 79
     5
170
     0
171
     0
290
     0
174
     0
 93
        1
 44
0.0
173
     0
291
     1
 45
0.0
1001
ACAD
1000
AcDbSavedByObjectVersion
1070
     0
  0
VISUALSTYLE
  5
2A5
102
{ACAD_XDICTIONARY
360
AB1
102
}
102
{ACAD_REACTORS
330
296
102
}
330
296
100
AcDbVisualStyle
  2

 70
    15
 71
     2
 72
     2
 73
     0
 90
        0
 40
-0.6
 41
-30.0
 62
     5
 63
     7
 74
     1
 91
        4
 64
     7
 65
   257
 75
     1
175
     1
 42
1.0
 92
        8
 66
     7
 43
1.0
 76
     1
 77
     6
 78
     2
 67
     7
 79
     5
170
     0
171
     0
290
     0
174
     0
 93
        1
 44
0.0
173
     0
291
     1
 45
0.0
1001
ACAD
1000
AcDbSavedByObjectVersion
1070
     0
  0
VISUALSTYLE
  5
297
102
{ACAD_XDICTIONARY
360
A95
102
}
102
{ACAD_REACTORS
330
296
102
}
330
296
100
AcDbVisualStyle
  2

 70
     0
 71
     2
 72
     1
 73
     1
 90
        2
 40
-0.6
 41
30.0
 62
     5
 63
     7
 74
     0
 91
        4
 64
     7
 65
   257
 75
     1
175
     1
 42
1.0
 92
        8
 66
     7
 43
1.0
 76
     1
 77
     6
 78
     2
 67
     7
 79
     5
170
     0
171
     0
290
     0
174
     0
 93
       13
 44
0.0
173
     0
291
     1
 45
0.0
1001
ACAD
1000
AcDbSavedByObjectVersion
1070
     0
  0
VISUALSTYLE
  5
298
102
{ACAD_XDICTIONARY
360
A97
102
}
102
{ACAD_REACTORS
330
296
102
}
330
296
100
AcDbVisualStyle
  2

 70
     1
 71
     2
 72
     1
 73
     1
 90
        2
 40
-0.6
 41
30.0
 62
     5
 63
     7
 74
     1
 91
        4
 64
     7
 65
   257
 75
     1
175
     1
 42
1.0
 92
        0
 66
   257
 43
1.0
 76
     1
 77
     6
 78
     2
 67
     7
 79
     5
170
     0
171
     0
290
     0
174
     0
 93
       13
 44
0.0
173
     0
291
     1
 45
0.0
1001
ACAD
1000
AcDbSavedByObjectVersion
1070
     0
  0
VISUALSTYLE
  5
299
102
{ACAD_XDICTIONARY
360
A99
102
}
102
{ACAD_REACTORS
330
296
102
}
330
296
100
AcDbVisualStyle
  2

 70
     2
 71
     2
 72
     2
 73
     1
 90
        2
 40
-0.6
 41
30.0
 62
     5
 63
     7
 74
     0
 91
        4
 64
     7
 65
   257
 75
     1
175
     1
 42
1.0
 92
        0
 66
     7
 43
1.0
 76
     1
 77
     6
 78
     2
 67
     7
 79
     5
170
     0
171
     0
290
     0
174
     0
 93
       13
 44
0.0
173
     0
291
     1
 45
0.0
1001
ACAD
1000
AcDbSavedByObjectVersion
1070
     0
  0
VISUALSTYLE
  5
29A
102
{ACAD_XDICTIONARY
360
A9B
102
}
102
{ACAD_REACTORS
330
296
102
}
330
296
100
AcDbVisualStyle
  2

 70
     3
 71
     2
 72
     2
 73
     1
 90
        2
 40
-0.6
 41
30.0
 62
     5
 63
     7
 74
     1
 91
        4
 64
     7
 65
   257
 75
     1
175
     1
 42
1.0
 92
        0
 66
   257
 43
1.0
 76
     1
 77
     6
 78
     2
 67
     7
 79
     5
170
     0
171
     0
290
     0
174
     0
 93
       13
 44
0.0
173
     0
291
     1
 45
0.0
1001
ACAD
1000
AcDbSavedByObjectVersion
1070
     0
  0
VISUALSTYLE
  5
3AD
102
{ACAD_XDICTIONARY
360
ABD
102
}
102
{ACAD_REACTORS
330
296
102
}
330
296
100
AcDbVisualStyle
  2

 70
     6
 71
     1
 72
     2
 73
     2
 90
        0
 40
-0.6
 41
-30.0
 62
     5
 63
     7
 74
     2
 91
        2
 64
     7
 65
   257
 75
     2
175
     1
 42
40.0
 92
        0
 66
   257
 43
1.0
 76
     1
 77
     6
 78
     2
 67
     7
 79
     3
170
     0
171
     0
290
     0
174
     0
 93
        1
 44
0.0
173
     0
291
     0
 45
0.0
1001
ACAD
1000
AcDbSavedByObjectVersion
1070
     0
  0
VISUALSTYLE
  5
36E
102
{ACAD_XDICTIONARY
360
AB5
102
}
102
{ACAD_REACTORS
330
296
102
}
330
296
100
AcDbVisualStyle
  2

 70
    20
 71
     2
 72
     2
 73
     0
 90
        0
 40
-0.6
 41
-30.0
 62
     5
 63
     7
 74
     1
 91
        4
 64
     7
 65
   257
 75
     1
175
     1
 42
1.0
 92
       10
 66
     7
 43
1.0
 76
     1
 77
     6
 78
     2
 67
     7
 79
     5
170
     0
171
     0
290
     0
174
     0
 93
        1
 44
0.0
173
     0
291
     1
 45
0.0
1001
ACAD
1000
AcDbSavedByObjectVersion
1070
     0
  0
VISUALSTYLE
  5
2A4
102
{ACAD_XDICTIONARY
360
AAF
102
}
102
{ACAD_REACTORS
330
296
102
}
330
296
100
AcDbVisualStyle
  2

 70
    14
 71
     2
 72
     2
 73
     0
 90
        0
 40
-0.6
 41
-30.0
 62
     5
 63
     7
 74
     1
 91
        4
 64
     7
 65
   257
 75
     7
175
     7
 42
1.0
 92
        8
 66
     7
 43
1.0
 76
     1
 77
     6
 78
     2
 67
     7
 79
     5
170
     0
171
     0
290
     0
174
     0
 93
        1
 44
0.0
173
     0
291
     1
 45
0.0
1001
ACAD
1000
AcDbSavedByObjectVersion
1070
     0
  0
VISUALSTYLE
  5
36F
102
{ACAD_XDICTIONARY
360
AB7
102
}
102
{ACAD_REACTORS
330
296
102
}
330
296
100
AcDbVisualStyle
  2

 70
    21
 71
     2
 72
     2
 73
     0
 90
        0
 40
-0.6
 41
-30.0
 62
     5
 63
     7
 74
     1
 91
        4
 64
     7
 65
   257
 75
     1
175
     1
 42
1.0
 92
        9
 66
     7
 43
1.0
 76
     1
 77
     6
 78
     2
 67
     7
 79
     5
170
     0
171
     0
290
     0
174
     0
 93
        1
 44
0.0
173
     0
291
     1
 45
0.0
1001
ACAD
1000
AcDbSavedByObjectVersion
1070
     0
  0
VISUALSTYLE
  5
2A0
102
{ACAD_XDICTIONARY
360
AA7
102
}
102
{ACAD_REACTORS
330
296
102
}
330
296
100
AcDbVisualStyle
  2

 70
     8
 71
     2
 72
     2
 73
     0
 90
        0
 40
-0.6
 41
-30.0
 62
     5
 63
     7
 74
     1
 91
        0
 64
     7
 65
   257
 75
     1
175
     1
 42
1.0
 92
        8
 66
     8
 43
1.0
 76
     1
 77
     6
 78
     2
 67
     7
 79
     5
170
     0
171
     0
290
     0
174
     0
 93
       13
 44
0.0
173
     0
291
     0
 45
0.0
1001
ACAD
1000
AcDbSavedByObjectVersion
1070
     0
  0
VISUALSTYLE
  5
3B2
102
{ACAD_XDICTIONARY
360
AC7
102
}
102
{ACAD_REACTORS
330
296
102
}
330
296
100
AcDbVisualStyle
  2

 70
    27
 71
     2
 72
     2
 73
     1
 90
        2
 40
-0.6
 41
30.0
 62
     5
 63
     7
 74
     0
 91
        4
 64
     7
 65
   257
 75
     1
175
     1
 42
1.0
 92
        8
 66
   257
 43
1.0
 76
     1
 77
     6
 78
     2
 67
     8
 79
     3
170
     0
171
     0
290
     0
174
     0
 93
        5
 44
0.0
173
     0
291
     0
 45
0.0
1001
ACAD
1000
AcDbSavedByObjectVersion
1070
     0
  0
VISUALSTYLE
  5
3B1
102
{ACAD_XDICTIONARY
360
AC5
102
}
102
{ACAD_REACTORS
330
296
102
}
330
296
100
AcDbVisualStyle
  2

 70
    26
 71
     2
 72
     2
 73
     1
 90
        2
 40
-0.6
 41
30.0
 62
     5
 63
     7
 74
     1
 91
       10
 64
     7
 65
   257
 75
     2
175
     1
 42
1.0
 92
        8
 66
   257
 43
1.0
 76
     1
 77
     6
 78
     2
 67
     7
 79
     3
170
     0
171
     0
290
     0
174
     0
 93
        5
 44
0.0
173
     0
291
     0
 45
0.0
1001
ACAD
1000
AcDbSavedByObjectVersion
1070
     0
  0
VISUALSTYLE
  5
3AE
102
{ACAD_XDICTIONARY
360
ABF
102
}
102
{ACAD_REACTORS
330
296
102
}
330
296
100
AcDbVisualStyle
  2

 70
    23
 71
     2
 72
     2
 73
     3
 90
        0
 40
-0.6
 41
-30.0
 62
     5
 63
     7
 74
     2
 91
        2
 64
     7
 65
     7
 75
     1
175
     1
 42
40.0
 92
        8
 66
     7
 43
1.0
 76
     1
 77
     6
 78
     2
 67
     7
 79
     3
170
     0
171
     0
290
     0
174
     0
 93
        1
 44
0.0
173
     0
291
     0
 45
0.0
1001
ACAD
1000
AcDbSavedByObjectVersion
1070
     0
  0
VISUALSTYLE
  5
3AF
102
{ACAD_XDICTIONARY
360
AC1
102
}
102
{ACAD_REACTORS
330
296
102
}
330
296
100
AcDbVisualStyle
  2

 70
    24
 71
     1
 72
     2
 73
     2
 90
        0
 40
-0.6
 41
-30.0
 62
     5
 63
     7
 74
     2
 91
        2
 64
     7
 65
     7
 75
     1
175
     1
 42
40.0
 92
       11
 66
     7
 43
1.0
 76
     1
 77
     6
 78
     2
 67
     7
 79
     6
170
     0
171
     0
290
     0
174
     0
 93
        1
 44
0.0
173
     0
291
     0
 45
0.0
1001
ACAD
1000
AcDbSavedByObjectVersion
1070
     0
  0
VISUALSTYLE
  5
2A3
102
{ACAD_XDICTIONARY
360
AAD
102
}
102
{ACAD_REACTORS
330
296
102
}
330
296
100
AcDbVisualStyle
  2

 70
    13
 71
     2
 72
     2
 73
     0
 90
        0
 40
-0.6
 41
-30.0
 62
     5
 63
     7
 74
     1
 91
        4
 64
     7
 65
   257
 75
     1
175
     1
 42
1.0
 92
       12
 66
     7
 43
1.0
 76
     1
 77
     6
 78
     2
 67
     7
 79
     5
170
     0
171
     0
290
     0
174
     0
 93
        1
 44
0.0
173
     0
291
     1
 45
0.0
1001
ACAD
1000
AcDbSavedByObjectVersion
1070
     0
  0
VISUALSTYLE
  5
3AC
102
{ACAD_XDICTIONARY
360
ABB
102
}
102
{ACAD_REACTORS
330
296
102
}
330
296
100
AcDbVisualStyle
  2

 70
     5
 71
     0
 72
     2
 73
     0
 90
        0
 40
-0.6
 41
-30.0
 62
     5
 63
     7
 74
     1
 91
        4
 64
     7
 65
   257
 75
     1
175
     1
 42
1.0
 92
        0
 66
   257
 43
1.0
 76
     1
 77
     6
 78
     2
 67
     7
 79
     3
170
     0
171
     0
290
     0
174
     0
 93
        1
 44
0.0
173
     0
291
     0
 45
0.0
1001
ACAD
1000
AcDbSavedByObjectVersion
1070
     0
  0
VISUALSTYLE
  5
3B0
102
{ACAD_XDICTIONARY
360
AC3
102
}
102
{ACAD_REACTORS
330
296
102
}
330
296
100
AcDbVisualStyle
  2

 70
    25
 71
     2
 72
     2
 73
     1
 90
        1
 40
0.5
 41
-30.0
 62
     5
 63
     7
 74
     1
 91
        0
 64
     7
 65
   257
 75
     1
175
     1
 42
1.0
 92
        8
 66
     7
 43
1.0
 76
     1
 77
     6
 78
     2
 67
     7
 79
     3
170
     0
171
     0
290
     0
174
     0
 93
       13
 44
0.0
173
     0
291
     0
 45
0.0
1001
ACAD
1000
AcDbSavedByObjectVersion
1070
     0
  0
DICTIONARYVAR
  5
310
102
{ACAD_REACTORS
330
9E
102
}
330
9E
100
DictionaryVariables
280
     0
  1
1:1
  0
DICTIONARYVAR
  5
30E
102
{ACAD_REACTORS
330
9E
102
}
330
9E
100
DictionaryVariables
280
     0
  1
STANDARD
  0
DICTIONARYVAR
  5
144
102
{ACAD_REACTORS
330
9E
102
}
330
9E
100
DictionaryVariables
280
     0
  1
STANDARD
  0
DICTIONARYVAR
  5
A83
102
{ACAD_REACTORS
330
9E
102
}
330
9E
100
DictionaryVariables
280
     0
  1
Imperial24
  0
DICTIONARYVAR
  5
A84
102
{ACAD_REACTORS
330
9E
102
}
330
9E
100
DictionaryVariables
280
     0
  1
Imperial24
  0
DICTIONARYVAR
  5
A0
102
{ACAD_REACTORS
330
9E
102
}
330
9E
100
DictionaryVariables
280
     0
  1
2
  0
DICTIONARYVAR
  5
9F
102
{ACAD_REACTORS
330
9E
102
}
330
9E
100
DictionaryVariables
280
     0
  1
0
  0
DICTIONARYVAR
  5
36B
102
{ACAD_REACTORS
330
9E
102
}
330
9E
100
DictionaryVariables
280
     0
  1
1
  0
DICTIONARYVAR
  5
36C
102
{ACAD_REACTORS
330
9E
102
}
330
9E
100
DictionaryVariables
280
     0
  1
15
  0
DICTIONARYVAR
  5
311
102
{ACAD_REACTORS
330
9E
102
}
330
9E
100
DictionaryVariables
280
     0
  1
0
  0
DICTIONARYVAR
  5
30F
102
{ACAD_REACTORS
330
9E
102
}
330
9E
100
DictionaryVariables
280
     0
  1
0
  0
DICTIONARYVAR
  5
9CE
102
{ACAD_REACTORS
330
9E
102
}
330
9E
100
DictionaryVariables
280
     0
  1
127
  0
DICTIONARYVAR
  5
A85
102
{ACAD_REACTORS
330
9E
102
}
330
9E
100
DictionaryVariables
280
     0
  1
2
  0
DICTIONARY
  5
69
102
{ACAD_REACTORS
330
63
102
}
330
63
100
AcDbDictionary
281
     1
  0
XRECORD
  5
12C
102
{ACAD_REACTORS
330
63
102
}
330
63
100
AcDbXrecord
280
     1
 90
-1023410169
  0
DICTIONARY
  5
A8E
330
1E
100
AcDbDictionary
280
     1
281
     1
  3
ACAD_XREC_ROUNDTRIP
360
A8F
  0
DICTIONARY
  5
A92
330
26
100
AcDbDictionary
280
     1
281
     1
  3
ACAD_XREC_ROUNDTRIP
360
A93
  0
DICTIONARY
  5
A90
330
22
100
AcDbDictionary
280
     1
281
     1
  3
ACAD_XREC_ROUNDTRIP
360
A91
  0
DICTIONARY
  5
9E4
330
294
100
AcDbDictionary
280
     1
281
     1
  3
ACAD_XREC_ROUNDTRIP
360
9E5
  0
DICTIONARY
  5
9E2
330
293
100
AcDbDictionary
280
     1
281
     1
  3
ACAD_XREC_ROUNDTRIP
360
9E3
  0
DICTIONARY
  5
9E6
330
295
100
AcDbDictionary
280
     1
281
     1
  3
ACAD_XREC_ROUNDTRIP
360
9E7
  0
DICTIONARY
  5
30B
330
124
100
AcDbDictionary
280
     1
281
     1
  3
ACAD_ROUNDTRIP_2008_TABLESTYLE_CELLSTYLEMAP
360
A86
  3
ACAD_XREC_ROUNDTRIP
360
A94
  0
DICTIONARY
  5
A9F
330
29C
100
AcDbDictionary
280
     1
281
     1
  3
ACAD_XREC_ROUNDTRIP
360
AA0
  0
DICTIONARY
  5
AA3
330
29E
100
AcDbDictionary
280
     1
281
     1
  3
ACAD_XREC_ROUNDTRIP
360
AA4
  0
DICTIONARY
  5
AA1
330
29D
100
AcDbDictionary
280
     1
281
     1
  3
ACAD_XREC_ROUNDTRIP
360
AA2
  0
DICTIONARY
  5
A9D
330
29B
100
AcDbDictionary
280
     1
281
     1
  3
ACAD_XREC_ROUNDTRIP
360
A9E
  0
DICTIONARY
  5
AAB
330
2A2
100
AcDbDictionary
280
     1
281
     1
  3
ACAD_XREC_ROUNDTRIP
360
AAC
  0
DICTIONARY
  5
AB3
330
2A6
100
AcDbDictionary
280
     1
281
     1
  3
ACAD_XREC_ROUNDTRIP
360
AB4
  0
DICTIONARY
  5
AA5
330
29F
100
AcDbDictionary
280
     1
281
     1
  3
ACAD_XREC_ROUNDTRIP
360
AA6
  0
DICTIONARY
  5
AA9
330
2A1
100
AcDbDictionary
280
     1
281
     1
  3
ACAD_XREC_ROUNDTRIP
360
AAA
  0
DICTIONARY
  5
AB9
330
370
100
AcDbDictionary
280
     1
281
     1
  3
ACAD_XREC_ROUNDTRIP
360
ABA
  0
DICTIONARY
  5
AB1
330
2A5
100
AcDbDictionary
280
     1
281
     1
  3
ACAD_XREC_ROUNDTRIP
360
AB2
  0
DICTIONARY
  5
A95
330
297
100
AcDbDictionary
280
     1
281
     1
  3
ACAD_XREC_ROUNDTRIP
360
A96
  0
DICTIONARY
  5
A97
330
298
100
AcDbDictionary
280
     1
281
     1
  3
ACAD_XREC_ROUNDTRIP
360
A98
  0
DICTIONARY
  5
A99
330
299
100
AcDbDictionary
280
     1
281
     1
  3
ACAD_XREC_ROUNDTRIP
360
A9A
  0
DICTIONARY
  5
A9B
330
29A
100
AcDbDictionary
280
     1
281
     1
  3
ACAD_XREC_ROUNDTRIP
360
A9C
  0
DICTIONARY
  5
ABD
330
3AD
100
AcDbDictionary
280
     1
281
     1
  3
ACAD_XREC_ROUNDTRIP
360
ABE
  0
DICTIONARY
  5
AB5
330
36E
100
AcDbDictionary
280
     1
281
     1
  3
ACAD_XREC_ROUNDTRIP
360
AB6
  0
DICTIONARY
  5
AAF
330
2A4
100
AcDbDictionary
280
     1
281
     1
  3
ACAD_XREC_ROUNDTRIP
360
AB0
  0
DICTIONARY
  5
AB7
330
36F
100
AcDbDictionary
280
     1
281
     1
  3
ACAD_XREC_ROUNDTRIP
360
AB8
  0
DICTIONARY
  5
AA7
330
2A0
100
AcDbDictionary
280
     1
281
     1
  3
ACAD_XREC_ROUNDTRIP
360
AA8
  0
DICTIONARY
  5
AC7
330
3B2
100
AcDbDictionary
280
     1
281
     1
  3
ACAD_XREC_ROUNDTRIP
360
AC8
  0
DICTIONARY
  5
AC5
330
3B1
100
AcDbDictionary
280
     1
281
     1
  3
ACAD_XREC_ROUNDTRIP
360
AC6
  0
DICTIONARY
  5
ABF
330
3AE
100
AcDbDictionary
280
     1
281
     1
  3
ACAD_XREC_ROUNDTRIP
360
AC0
  0
DICTIONARY
  5
AC1
330
3AF
100
AcDbDictionary
280
     1
281
     1
  3
ACAD_XREC_ROUNDTRIP
360
AC2
  0
DICTIONARY
  5
AAD
330
2A3
100
AcDbDictionary
280
     1
281
     1
  3
ACAD_XREC_ROUNDTRIP
360
AAE
  0
DICTIONARY
  5
ABB
330
3AC
100
AcDbDictionary
280
     1
281
     1
  3
ACAD_XREC_ROUNDTRIP
360
ABC
  0
DICTIONARY
  5
AC3
330
3B0
100
AcDbDictionary
280
     1
281
     1
  3
ACAD_XREC_ROUNDTRIP
360
AC4
  0
XRECORD
  5
A8F
102
{ACAD_REACTORS
330
A8E
102
}
330
A8E
100
AcDbXrecord
280
     1
102
SHADEPLOT
 70
     0
102
SHADEPLOTRESLEVEL
 70
     2
102
SHADEPLOTCUSTOMDPI
 70
   300
  0
XRECORD
  5
A93
102
{ACAD_REACTORS
330
A92
102
}
330
A92
100
AcDbXrecord
280
     1
102
SHADEPLOT
 70
     0
102
SHADEPLOTRESLEVEL
 70
     2
102
SHADEPLOTCUSTOMDPI
 70
   300
  0
XRECORD
  5
A91
102
{ACAD_REACTORS
330
A90
102
}
330
A90
100
AcDbXrecord
280
     1
102
SHADEPLOT
 70
     0
102
SHADEPLOTRESLEVEL
 70
     2
102
SHADEPLOTCUSTOMDPI
 70
   300
  0
XRECORD
  5
9E5
102
{ACAD_REACTORS
330
9E4
102
}
330
9E4
100
AcDbXrecord
280
     1
102
MATERIAL
148
0.0
149
0.0
149
0.0
 93
        0
 94
      127
282
     0
 72
     1
 77
     1
171
     1
175
     1
179
     1
273
     0
  0
XRECORD
  5
9E3
102
{ACAD_REACTORS
330
9E2
102
}
330
9E2
100
AcDbXrecord
280
     1
102
MATERIAL
148
0.0
149
0.0
149
0.0
 93
        0
 94
      127
282
     0
 72
     1
 77
     1
171
     1
175
     1
179
     1
273
     0
  0
XRECORD
  5
9E7
102
{ACAD_REACTORS
330
9E6
102
}
330
9E6
100
AcDbXrecord
280
     1
102
MATERIAL
148
0.0
149
0.0
149
0.0
 93
        0
 94
      127
282
     0
 72
     1
 77
     1
171
     1
175
     1
179
     1
273
     0
  0
CELLSTYLEMAP
  5
A86
102
{ACAD_REACTORS
330
30B
102
}
330
30B
100
AcDbCellStyleMap
 90
        3
300
CELLSTYLE
  1
TABLEFORMAT_BEGIN
 90
        5
170
     1
 91
        0
 92
    32768
 62
   257
 93
        1
300
CONTENTFORMAT
  1
CONTENTFORMAT_BEGIN
 90
        0
 91
        0
 92
      512
 93
        0
300

 40
0.0
140
1.0
 94
        5
 62
     0
340
11
144
0.25
309
CONTENTFORMAT_END
171
     1
301
MARGIN
  1
CELLMARGIN_BEGIN
 40
0.06
 40
0.06
 40
0.06
 40
0.06
 40
0.18
 40
0.18
309
CELLMARGIN_END
 94
        6
 95
        1
302
GRIDFORMAT
  1
GRIDFORMAT_BEGIN
 90
        0
 91
        1
 62
     0
 92
       -2
340
0
 93
        0
 40
0.045
309
GRIDFORMAT_END
 95
        2
302
GRIDFORMAT
  1
GRIDFORMAT_BEGIN
 90
        0
 91
        1
 62
     0
 92
       -2
340
0
 93
        0
 40
0.045
309
GRIDFORMAT_END
 95
        4
302
GRIDFORMAT
  1
GRIDFORMAT_BEGIN
 90
        0
 91
        1
 62
     0
 92
       -2
340
0
 93
        0
 40
0.045
309
GRIDFORMAT_END
 95
        8
302
GRIDFORMAT
  1
GRIDFORMAT_BEGIN
 90
        0
 91
        1
 62
     0
 92
       -2
340
0
 93
        0
 40
0.045
309
GRIDFORMAT_END
 95
       16
302
GRIDFORMAT
  1
GRIDFORMAT_BEGIN
 90
        0
 91
        1
 62
     0
 92
       -2
340
0
 93
        0
 40
0.045
309
GRIDFORMAT_END
 95
       32
302
GRIDFORMAT
  1
GRIDFORMAT_BEGIN
 90
        0
 91
        1
 62
     0
 92
       -2
340
0
 93
        0
 40
0.045
309
GRIDFORMAT_END
309
TABLEFORMAT_END
  1
CELLSTYLE_BEGIN
 90
        1
 91
        1
300
_TITLE
309
CELLSTYLE_END
300
CELLSTYLE
  1
TABLEFORMAT_BEGIN
 90
        5
170
     1
 91
        0
 92
        0
 62
   257
 93
        1
300
CONTENTFORMAT
  1
CONTENTFORMAT_BEGIN
 90
        0
 91
        0
 92
      512
 93
        0
300

 40
0.0
140
1.0
 94
        5
 62
     0
340
11
144
0.18
309
CONTENTFORMAT_END
171
     1
301
MARGIN
  1
CELLMARGIN_BEGIN
 40
0.06
 40
0.06
 40
0.06
 40
0.06
 40
0.18
 40
0.18
309
CELLMARGIN_END
 94
        6
 95
        1
302
GRIDFORMAT
  1
GRIDFORMAT_BEGIN
 90
        0
 91
        1
 62
     0
 92
       -2
340
0
 93
        0
 40
0.045
309
GRIDFORMAT_END
 95
        2
302
GRIDFORMAT
  1
GRIDFORMAT_BEGIN
 90
        0
 91
        1
 62
     0
 92
       -2
340
0
 93
        0
 40
0.045
309
GRIDFORMAT_END
 95
        4
302
GRIDFORMAT
  1
GRIDFORMAT_BEGIN
 90
        0
 91
        1
 62
     0
 92
       -2
340
0
 93
        0
 40
0.045
309
GRIDFORMAT_END
 95
        8
302
GRIDFORMAT
  1
GRIDFORMAT_BEGIN
 90
        0
 91
        1
 62
     0
 92
       -2
340
0
 93
        0
 40
0.045
309
GRIDFORMAT_END
 95
       16
302
GRIDFORMAT
  1
GRIDFORMAT_BEGIN
 90
        0
 91
        1
 62
     0
 92
       -2
340
0
 93
        0
 40
0.045
309
GRIDFORMAT_END
 95
       32
302
GRIDFORMAT
  1
GRIDFORMAT_BEGIN
 90
        0
 91
        1
 62
     0
 92
       -2
340
0
 93
        0
 40
0.045
309
GRIDFORMAT_END
309
TABLEFORMAT_END
  1
CELLSTYLE_BEGIN
 90
        2
 91
        1
300
_HEADER
309
CELLSTYLE_END
300
CELLSTYLE
  1
TABLEFORMAT_BEGIN
 90
        5
170
     1
 91
        0
 92
        0
 62
   257
 93
        1
300
CONTENTFORMAT
  1
CONTENTFORMAT_BEGIN
 90
        0
 91
        0
 92
      512
 93
        0
300

 40
0.0
140
1.0
 94
        2
 62
     0
340
11
144
0.18
309
CONTENTFORMAT_END
171
     1
301
MARGIN
  1
CELLMARGIN_BEGIN
 40
0.06
 40
0.06
 40
0.06
 40
0.06
 40
0.18
 40
0.18
309
CELLMARGIN_END
 94
        6
 95
        1
302
GRIDFORMAT
  1
GRIDFORMAT_BEGIN
 90
        0
 91
        1
 62
     0
 92
       -2
340
0
 93
        0
 40
0.045
309
GRIDFORMAT_END
 95
        2
302
GRIDFORMAT
  1
GRIDFORMAT_BEGIN
 90
        0
 91
        1
 62
     0
 92
       -2
340
0
 93
        0
 40
0.045
309
GRIDFORMAT_END
 95
        4
302
GRIDFORMAT
  1
GRIDFORMAT_BEGIN
 90
        0
 91
        1
 62
     0
 92
       -2
340
0
 93
        0
 40
0.045
309
GRIDFORMAT_END
 95
        8
302
GRIDFORMAT
  1
GRIDFORMAT_BEGIN
 90
        0
 91
        1
 62
     0
 92
       -2
340
0
 93
        0
 40
0.045
309
GRIDFORMAT_END
 95
       16
302
GRIDFORMAT
  1
GRIDFORMAT_BEGIN
 90
        0
 91
        1
 62
     0
 92
       -2
340
0
 93
        0
 40
0.045
309
GRIDFORMAT_END
 95
       32
302
GRIDFORMAT
  1
GRIDFORMAT_BEGIN
 90
        0
 91
        1
 62
     0
 92
       -2
340
0
 93
        0
 40
0.045
309
GRIDFORMAT_END
309
TABLEFORMAT_END
  1
CELLSTYLE_BEGIN
 90
        3
 91
        2
300
_DATA
309
CELLSTYLE_END
  0
XRECORD
  5
A94
102
{ACAD_REACTORS
330
30B
102
}
330
30B
100
AcDbXrecord
280
     1
102
ACAD_ROUNDTRIP_PRE2007_TABLESTYLE
 90
      512
 91
        0
  1

 92
      512
 93
        0
  2

 94
      512
 95
        0
  3

  0
XRECORD
  5
AA0
102
{ACAD_REACTORS
330
A9F
102
}
330
A9F
100
AcDbXrecord
280
     1
102
RTVSPost2010Prop28
280
     1
102
RTVSPost2010PropOp28
 70
     1
102
RTVSPost2010Prop29
280
     1
102
RTVSPost2010PropOp29
 70
     1
102
RTVSPost2010Prop30
280
     0
102
RTVSPost2010PropOp30
 70
     1
102
RTVSPost2010Prop31
280
     0
102
RTVSPost2010PropOp31
 70
     1
102
RTVSPost2010Prop32
280
     0
102
RTVSPost2010PropOp32
 70
     1
102
RTVSPost2010Prop33
280
     0
102
RTVSPost2010PropOp33
 70
     1
102
RTVSPost2010Prop34
280
     0
102
RTVSPost2010PropOp34
 70
     1
102
RTVSPost2010Prop35
280
     0
102
RTVSPost2010PropOp35
 70
     1
102
RTVSPost2010Prop36
280
     0
102
RTVSPost2010PropOp36
 70
     1
102
RTVSPost2010Prop37
 90
       50
102
RTVSPost2010PropOp37
 70
     1
102
RTVSPost2010Prop38
140
0.0
102
RTVSPost2010PropOp38
 70
     1
102
RTVSPost2010Prop39
140
1.0
102
RTVSPost2010PropOp39
 70
     1
102
RTVSPost2010Prop40
 90
        0
102
RTVSPost2010PropOp40
 70
     1
102
RTVSPost2010Prop41ColorIndex
 90
       18
102
RTVSPost2010Prop41ColorRGB
 90
        0
102
RTVSPost2010PropOp41
 70
     1
102
RTVSPost2010Prop42
 90
       50
102
RTVSPost2010PropOp42
 70
     1
102
RTVSPost2010Prop43
 90
        3
102
RTVSPost2010PropOp43
 70
     1
102
RTVSPost2010Prop44ColorIndex
 90
        5
102
RTVSPost2010Prop44ColorRGB
 90
      255
102
RTVSPost2010PropOp44
 70
     1
102
RTVSPost2010Prop45
280
     0
102
RTVSPost2010PropOp45
 70
     1
102
RTVSPost2010Prop46
 90
       50
102
RTVSPost2010PropOp46
 70
     1
102
RTVSPost2010Prop47
 90
       50
102
RTVSPost2010PropOp47
 70
     1
102
RTVSPost2010Prop48
 90
       50
102
RTVSPost2010PropOp48
 70
     1
102
RTVSPost2010Prop49
280
     0
102
RTVSPost2010PropOp49
 70
     1
102
RTVSPost2010Prop50
 90
       50
102
RTVSPost2010PropOp50
 70
     1
102
RTVSPost2010Prop51ColorIndex
 90
      256
102
RTVSPost2010Prop51ColorRGB
 90
-16777216
102
RTVSPost2010PropOp51
 70
     0
102
RTVSPost2010Prop52
140
1.0
102
RTVSPost2010PropOp52
 70
     0
102
RTVSPost2010Prop53
 90
        2
102
RTVSPost2010PropOp53
 70
     1
102
RTVSPost2010Prop54
  1
strokes_ogs.tif
102
RTVSPost2010PropOp54
 70
     1
102
RTVSPost2010Prop55
280
     0
102
RTVSPost2010PropOp55
 70
     1
102
RTVSPost2010Prop56
140
1.0
102
RTVSPost2010PropOp56
 70
     1
102
RTVSPost2010Prop57
140
1.0
102
RTVSPost2010PropOp57
 70
     1
102
RTVSPropertyOp0
 70
     1
102
RTVSPropertyOp1
 70
     1
102
RTVSPropertyOp2
 70
     1
102
RTVSPropertyOp3
 70
     1
102
RTVSPropertyOp4
 70
     1
102
RTVSPropertyOp5
 70
     1
102
RTVSPropertyOp6
 70
     1
102
RTVSPropertyOp7
 70
     1
102
RTVSPropertyOp8
 70
     1
102
RTVSPropertyOp9
 70
     1
102
RTVSPropertyOp10
 70
     1
102
RTVSPropertyOp11
 70
     1
102
RTVSPropertyOp12
 70
     1
102
RTVSPropertyOp13
 70
     1
102
RTVSPropertyOp14
 70
     1
102
RTVSPropertyOp15
 70
     1
102
RTVSPropertyOp16
 70
     1
102
RTVSPropertyOp17
 70
     1
102
RTVSPropertyOp18
 70
     1
102
RTVSPropertyOp19
 70
     1
102
RTVSPropertyOp20
 70
     1
102
RTVSPropertyOp21
 70
     1
102
RTVSPropertyOp22
 70
     1
102
RTVSPropertyOp23
 70
     1
102
RTVSPropertyOp24
 70
     1
102
RTVSPropertyOp25
 70
     1
102
RTVSPropertyOp26
 70
     1
102
RTVSPropertyOp27
 70
     1
102
RTVSPropertyOp28
 70
     1
102
RTVSPropertyOp29
 70
     1
102
RTVSPropertyOp30
 70
     1
102
RTVSPropertyOp31
 70
     1
102
RTVSPropertyOp32
 70
     1
102
RTVSPropertyOp33
 70
     1
102
RTVSPropertyOp34
 70
     1
102
RTVSPropertyOp35
 70
     1
102
RTVSPropertyOp36
 70
     1
102
RTVSPropertyOp37
 70
     1
102
RTVSPropertyOp38
 70
     1
102
RTVSPropertyOp39
 70
     1
102
RTVSPropertyOp40
 70
     1
102
RTVSPropertyOp41
 70
     1
102
RTVSPropertyOp42
 70
     1
102
RTVSPropertyOp43
 70
     1
102
RTVSPropertyOp44
 70
     1
102
RTVSPropertyOp45
 70
     1
102
RTVSPropertyOp46
 70
     1
102
RTVSPropertyOp47
 70
     1
102
RTVSPropertyOp48
 70
     1
102
RTVSPropertyOp49
 70
     1
102
RTVSPropertyOp50
 70
     1
102
RTVSPropertyOp51
 70
     0
102
RTVSPropertyOp52
 70
     0
102
RTVSPropertyOp53
 70
     1
102
RTVSPropertyOp54
 70
     1
102
RTVSPropertyOp55
 70
     1
102
RTVSPropertyOp56
 70
     1
102
RTVSPropertyOp57
 70
     1
102
RTVSPropertyOp58
 70
     1
102
RTVSPropertyOp59
 70
     1
102
RTVSPropertyOp60
 70
     1
102
RTVSPropertyOp61
 70
     1
102
RTVSPropertyOp62
 70
     1
  0
XRECORD
  5
AA4
102
{ACAD_REACTORS
330
AA3
102
}
330
AA3
100
AcDbXrecord
280
     1
102
RTVSPost2010Prop28
280
     0
102
RTVSPost2010PropOp28
 70
     1
102
RTVSPost2010Prop29
280
     1
102
RTVSPost2010PropOp29
 70
     1
102
RTVSPost2010Prop30
280
     1
102
RTVSPost2010PropOp30
 70
     1
102
RTVSPost2010Prop31
280
     0
102
RTVSPost2010PropOp31
 70
     1
102
RTVSPost2010Prop32
280
     0
102
RTVSPost2010PropOp32
 70
     1
102
RTVSPost2010Prop33
280
     0
102
RTVSPost2010PropOp33
 70
     1
102
RTVSPost2010Prop34
280
     0
102
RTVSPost2010PropOp34
 70
     1
102
RTVSPost2010Prop35
280
     0
102
RTVSPost2010PropOp35
 70
     1
102
RTVSPost2010Prop36
280
     0
102
RTVSPost2010PropOp36
 70
     1
102
RTVSPost2010Prop37
 90
       50
102
RTVSPost2010PropOp37
 70
     1
102
RTVSPost2010Prop38
140
0.0
102
RTVSPost2010PropOp38
 70
     1
102
RTVSPost2010Prop39
140
1.0
102
RTVSPost2010PropOp39
 70
     1
102
RTVSPost2010Prop40
 90
        0
102
RTVSPost2010PropOp40
 70
     1
102
RTVSPost2010Prop41ColorIndex
 90
       18
102
RTVSPost2010Prop41ColorRGB
 90
        0
102
RTVSPost2010PropOp41
 70
     1
102
RTVSPost2010Prop42
 90
       50
102
RTVSPost2010PropOp42
 70
     1
102
RTVSPost2010Prop43
 90
        3
102
RTVSPost2010PropOp43
 70
     1
102
RTVSPost2010Prop44ColorIndex
 90
        5
102
RTVSPost2010Prop44ColorRGB
 90
      255
102
RTVSPost2010PropOp44
 70
     1
102
RTVSPost2010Prop45
280
     0
102
RTVSPost2010PropOp45
 70
     1
102
RTVSPost2010Prop46
 90
       50
102
RTVSPost2010PropOp46
 70
     1
102
RTVSPost2010Prop47
 90
       50
102
RTVSPost2010PropOp47
 70
     1
102
RTVSPost2010Prop48
 90
       50
102
RTVSPost2010PropOp48
 70
     1
102
RTVSPost2010Prop49
280
     0
102
RTVSPost2010PropOp49
 70
     1
102
RTVSPost2010Prop50
 90
       50
102
RTVSPost2010PropOp50
 70
     1
102
RTVSPost2010Prop51ColorIndex
 90
      256
102
RTVSPost2010Prop51ColorRGB
 90
-16777216
102
RTVSPost2010PropOp51
 70
     0
102
RTVSPost2010Prop52
140
1.0
102
RTVSPost2010PropOp52
 70
     0
102
RTVSPost2010Prop53
 90
        2
102
RTVSPost2010PropOp53
 70
     1
102
RTVSPost2010Prop54
  1
strokes_ogs.tif
102
RTVSPost2010PropOp54
 70
     1
102
RTVSPost2010Prop55
280
     0
102
RTVSPost2010PropOp55
 70
     1
102
RTVSPost2010Prop56
140
1.0
102
RTVSPost2010PropOp56
 70
     1
102
RTVSPost2010Prop57
140
1.0
102
RTVSPost2010PropOp57
 70
     1
102
RTVSPropertyOp0
 70
     1
102
RTVSPropertyOp1
 70
     1
102
RTVSPropertyOp2
 70
     1
102
RTVSPropertyOp3
 70
     1
102
RTVSPropertyOp4
 70
     1
102
RTVSPropertyOp5
 70
     1
102
RTVSPropertyOp6
 70
     1
102
RTVSPropertyOp7
 70
     1
102
RTVSPropertyOp8
 70
     1
102
RTVSPropertyOp9
 70
     1
102
RTVSPropertyOp10
 70
     1
102
RTVSPropertyOp11
 70
     1
102
RTVSPropertyOp12
 70
     1
102
RTVSPropertyOp13
 70
     1
102
RTVSPropertyOp14
 70
     1
102
RTVSPropertyOp15
 70
     1
102
RTVSPropertyOp16
 70
     1
102
RTVSPropertyOp17
 70
     1
102
RTVSPropertyOp18
 70
     1
102
RTVSPropertyOp19
 70
     1
102
RTVSPropertyOp20
 70
     1
102
RTVSPropertyOp21
 70
     1
102
RTVSPropertyOp22
 70
     1
102
RTVSPropertyOp23
 70
     1
102
RTVSPropertyOp24
 70
     1
102
RTVSPropertyOp25
 70
     1
102
RTVSPropertyOp26
 70
     1
102
RTVSPropertyOp27
 70
     1
102
RTVSPropertyOp28
 70
     1
102
RTVSPropertyOp29
 70
     1
102
RTVSPropertyOp30
 70
     1
102
RTVSPropertyOp31
 70
     1
102
RTVSPropertyOp32
 70
     1
102
RTVSPropertyOp33
 70
     1
102
RTVSPropertyOp34
 70
     1
102
RTVSPropertyOp35
 70
     1
102
RTVSPropertyOp36
 70
     1
102
RTVSPropertyOp37
 70
     1
102
RTVSPropertyOp38
 70
     1
102
RTVSPropertyOp39
 70
     1
102
RTVSPropertyOp40
 70
     1
102
RTVSPropertyOp41
 70
     1
102
RTVSPropertyOp42
 70
     1
102
RTVSPropertyOp43
 70
     1
102
RTVSPropertyOp44
 70
     1
102
RTVSPropertyOp45
 70
     1
102
RTVSPropertyOp46
 70
     1
102
RTVSPropertyOp47
 70
     1
102
RTVSPropertyOp48
 70
     1
102
RTVSPropertyOp49
 70
     1
102
RTVSPropertyOp50
 70
     1
102
RTVSPropertyOp51
 70
     0
102
RTVSPropertyOp52
 70
     0
102
RTVSPropertyOp53
 70
     1
102
RTVSPropertyOp54
 70
     1
102
RTVSPropertyOp55
 70
     1
102
RTVSPropertyOp56
 70
     1
102
RTVSPropertyOp57
 70
     1
102
RTVSPropertyOp58
 70
     1
102
RTVSPropertyOp59
 70
     1
102
RTVSPropertyOp60
 70
     1
102
RTVSPropertyOp61
 70
     1
102
RTVSPropertyOp62
 70
     1
  0
XRECORD
  5
AA2
102
{ACAD_REACTORS
330
AA1
102
}
330
AA1
100
AcDbXrecord
280
     1
102
RTVSPost2010Prop28
280
     0
102
RTVSPost2010PropOp28
 70
     1
102
RTVSPost2010Prop29
280
     1
102
RTVSPost2010PropOp29
 70
     1
102
RTVSPost2010Prop30
280
     1
102
RTVSPost2010PropOp30
 70
     1
102
RTVSPost2010Prop31
280
     0
102
RTVSPost2010PropOp31
 70
     1
102
RTVSPost2010Prop32
280
     0
102
RTVSPost2010PropOp32
 70
     1
102
RTVSPost2010Prop33
280
     0
102
RTVSPost2010PropOp33
 70
     1
102
RTVSPost2010Prop34
280
     0
102
RTVSPost2010PropOp34
 70
     1
102
RTVSPost2010Prop35
280
     0
102
RTVSPost2010PropOp35
 70
     1
102
RTVSPost2010Prop36
280
     0
102
RTVSPost2010PropOp36
 70
     1
102
RTVSPost2010Prop37
 90
       50
102
RTVSPost2010PropOp37
 70
     1
102
RTVSPost2010Prop38
140
0.0
102
RTVSPost2010PropOp38
 70
     1
102
RTVSPost2010Prop39
140
1.0
102
RTVSPost2010PropOp39
 70
     1
102
RTVSPost2010Prop40
 90
        0
102
RTVSPost2010PropOp40
 70
     1
102
RTVSPost2010Prop41ColorIndex
 90
       18
102
RTVSPost2010Prop41ColorRGB
 90
        0
102
RTVSPost2010PropOp41
 70
     1
102
RTVSPost2010Prop42
 90
       50
102
RTVSPost2010PropOp42
 70
     1
102
RTVSPost2010Prop43
 90
        3
102
RTVSPost2010PropOp43
 70
     1
102
RTVSPost2010Prop44ColorIndex
 90
        5
102
RTVSPost2010Prop44ColorRGB
 90
      255
102
RTVSPost2010PropOp44
 70
     1
102
RTVSPost2010Prop45
280
     0
102
RTVSPost2010PropOp45
 70
     1
102
RTVSPost2010Prop46
 90
       50
102
RTVSPost2010PropOp46
 70
     1
102
RTVSPost2010Prop47
 90
       50
102
RTVSPost2010PropOp47
 70
     1
102
RTVSPost2010Prop48
 90
       50
102
RTVSPost2010PropOp48
 70
     1
102
RTVSPost2010Prop49
280
     0
102
RTVSPost2010PropOp49
 70
     1
102
RTVSPost2010Prop50
 90
       50
102
RTVSPost2010PropOp50
 70
     1
102
RTVSPost2010Prop51ColorIndex
 90
      256
102
RTVSPost2010Prop51ColorRGB
 90
-16777216
102
RTVSPost2010PropOp51
 70
     0
102
RTVSPost2010Prop52
140
1.0
102
RTVSPost2010PropOp52
 70
     0
102
RTVSPost2010Prop53
 90
        2
102
RTVSPost2010PropOp53
 70
     1
102
RTVSPost2010Prop54
  1
strokes_ogs.tif
102
RTVSPost2010PropOp54
 70
     1
102
RTVSPost2010Prop55
280
     0
102
RTVSPost2010PropOp55
 70
     1
102
RTVSPost2010Prop56
140
1.0
102
RTVSPost2010PropOp56
 70
     1
102
RTVSPost2010Prop57
140
1.0
102
RTVSPost2010PropOp57
 70
     1
102
RTVSPropertyOp0
 70
     1
102
RTVSPropertyOp1
 70
     1
102
RTVSPropertyOp2
 70
     1
102
RTVSPropertyOp3
 70
     1
102
RTVSPropertyOp4
 70
     1
102
RTVSPropertyOp5
 70
     1
102
RTVSPropertyOp6
 70
     1
102
RTVSPropertyOp7
 70
     1
102
RTVSPropertyOp8
 70
     1
102
RTVSPropertyOp9
 70
     1
102
RTVSPropertyOp10
 70
     1
102
RTVSPropertyOp11
 70
     1
102
RTVSPropertyOp12
 70
     1
102
RTVSPropertyOp13
 70
     1
102
RTVSPropertyOp14
 70
     1
102
RTVSPropertyOp15
 70
     1
102
RTVSPropertyOp16
 70
     1
102
RTVSPropertyOp17
 70
     1
102
RTVSPropertyOp18
 70
     1
102
RTVSPropertyOp19
 70
     1
102
RTVSPropertyOp20
 70
     1
102
RTVSPropertyOp21
 70
     1
102
RTVSPropertyOp22
 70
     1
102
RTVSPropertyOp23
 70
     1
102
RTVSPropertyOp24
 70
     1
102
RTVSPropertyOp25
 70
     1
102
RTVSPropertyOp26
 70
     1
102
RTVSPropertyOp27
 70
     1
102
RTVSPropertyOp28
 70
     1
102
RTVSPropertyOp29
 70
     1
102
RTVSPropertyOp30
 70
     1
102
RTVSPropertyOp31
 70
     1
102
RTVSPropertyOp32
 70
     1
102
RTVSPropertyOp33
 70
     1
102
RTVSPropertyOp34
 70
     1
102
RTVSPropertyOp35
 70
     1
102
RTVSPropertyOp36
 70
     1
102
RTVSPropertyOp37
 70
     1
102
RTVSPropertyOp38
 70
     1
102
RTVSPropertyOp39
 70
     1
102
RTVSPropertyOp40
 70
     1
102
RTVSPropertyOp41
 70
     1
102
RTVSPropertyOp42
 70
     1
102
RTVSPropertyOp43
 70
     1
102
RTVSPropertyOp44
 70
     1
102
RTVSPropertyOp45
 70
     1
102
RTVSPropertyOp46
 70
     1
102
RTVSPropertyOp47
 70
     1
102
RTVSPropertyOp48
 70
     1
102
RTVSPropertyOp49
 70
     1
102
RTVSPropertyOp50
 70
     1
102
RTVSPropertyOp51
 70
     0
102
RTVSPropertyOp52
 70
     0
102
RTVSPropertyOp53
 70
     1
102
RTVSPropertyOp54
 70
     1
102
RTVSPropertyOp55
 70
     1
102
RTVSPropertyOp56
 70
     1
102
RTVSPropertyOp57
 70
     1
102
RTVSPropertyOp58
 70
     1
102
RTVSPropertyOp59
 70
     1
102
RTVSPropertyOp60
 70
     1
102
RTVSPropertyOp61
 70
     1
102
RTVSPropertyOp62
 70
     1
  0
XRECORD
  5
A9E
102
{ACAD_REACTORS
330
A9D
102
}
330
A9D
100
AcDbXrecord
280
     1
102
RTVSPost2010Prop28
280
     0
102
RTVSPost2010PropOp28
 70
     1
102
RTVSPost2010Prop29
280
     1
102
RTVSPost2010PropOp29
 70
     1
102
RTVSPost2010Prop30
280
     1
102
RTVSPost2010PropOp30
 70
     1
102
RTVSPost2010Prop31
280
     0
102
RTVSPost2010PropOp31
 70
     1
102
RTVSPost2010Prop32
280
     0
102
RTVSPost2010PropOp32
 70
     1
102
RTVSPost2010Prop33
280
     0
102
RTVSPost2010PropOp33
 70
     1
102
RTVSPost2010Prop34
280
     0
102
RTVSPost2010PropOp34
 70
     1
102
RTVSPost2010Prop35
280
     0
102
RTVSPost2010PropOp35
 70
     1
102
RTVSPost2010Prop36
280
     0
102
RTVSPost2010PropOp36
 70
     1
102
RTVSPost2010Prop37
 90
       50
102
RTVSPost2010PropOp37
 70
     1
102
RTVSPost2010Prop38
140
0.0
102
RTVSPost2010PropOp38
 70
     1
102
RTVSPost2010Prop39
140
1.0
102
RTVSPost2010PropOp39
 70
     1
102
RTVSPost2010Prop40
 90
        0
102
RTVSPost2010PropOp40
 70
     1
102
RTVSPost2010Prop41ColorIndex
 90
       18
102
RTVSPost2010Prop41ColorRGB
 90
        0
102
RTVSPost2010PropOp41
 70
     1
102
RTVSPost2010Prop42
 90
       50
102
RTVSPost2010PropOp42
 70
     1
102
RTVSPost2010Prop43
 90
        3
102
RTVSPost2010PropOp43
 70
     1
102
RTVSPost2010Prop44ColorIndex
 90
        5
102
RTVSPost2010Prop44ColorRGB
 90
      255
102
RTVSPost2010PropOp44
 70
     1
102
RTVSPost2010Prop45
280
     0
102
RTVSPost2010PropOp45
 70
     1
102
RTVSPost2010Prop46
 90
       50
102
RTVSPost2010PropOp46
 70
     1
102
RTVSPost2010Prop47
 90
       50
102
RTVSPost2010PropOp47
 70
     1
102
RTVSPost2010Prop48
 90
       50
102
RTVSPost2010PropOp48
 70
     1
102
RTVSPost2010Prop49
280
     0
102
RTVSPost2010PropOp49
 70
     1
102
RTVSPost2010Prop50
 90
       50
102
RTVSPost2010PropOp50
 70
     1
102
RTVSPost2010Prop51ColorIndex
 90
      256
102
RTVSPost2010Prop51ColorRGB
 90
-16777216
102
RTVSPost2010PropOp51
 70
     0
102
RTVSPost2010Prop52
140
1.0
102
RTVSPost2010PropOp52
 70
     0
102
RTVSPost2010Prop53
 90
        2
102
RTVSPost2010PropOp53
 70
     1
102
RTVSPost2010Prop54
  1
strokes_ogs.tif
102
RTVSPost2010PropOp54
 70
     1
102
RTVSPost2010Prop55
280
     0
102
RTVSPost2010PropOp55
 70
     1
102
RTVSPost2010Prop56
140
1.0
102
RTVSPost2010PropOp56
 70
     1
102
RTVSPost2010Prop57
140
1.0
102
RTVSPost2010PropOp57
 70
     1
102
RTVSPropertyOp0
 70
     1
102
RTVSPropertyOp1
 70
     1
102
RTVSPropertyOp2
 70
     1
102
RTVSPropertyOp3
 70
     1
102
RTVSPropertyOp4
 70
     1
102
RTVSPropertyOp5
 70
     1
102
RTVSPropertyOp6
 70
     1
102
RTVSPropertyOp7
 70
     1
102
RTVSPropertyOp8
 70
     1
102
RTVSPropertyOp9
 70
     1
102
RTVSPropertyOp10
 70
     1
102
RTVSPropertyOp11
 70
     1
102
RTVSPropertyOp12
 70
     1
102
RTVSPropertyOp13
 70
     1
102
RTVSPropertyOp14
 70
     1
102
RTVSPropertyOp15
 70
     1
102
RTVSPropertyOp16
 70
     1
102
RTVSPropertyOp17
 70
     1
102
RTVSPropertyOp18
 70
     1
102
RTVSPropertyOp19
 70
     1
102
RTVSPropertyOp20
 70
     1
102
RTVSPropertyOp21
 70
     1
102
RTVSPropertyOp22
 70
     1
102
RTVSPropertyOp23
 70
     1
102
RTVSPropertyOp24
 70
     1
102
RTVSPropertyOp25
 70
     1
102
RTVSPropertyOp26
 70
     1
102
RTVSPropertyOp27
 70
     1
102
RTVSPropertyOp28
 70
     1
102
RTVSPropertyOp29
 70
     1
102
RTVSPropertyOp30
 70
     1
102
RTVSPropertyOp31
 70
     1
102
RTVSPropertyOp32
 70
     1
102
RTVSPropertyOp33
 70
     1
102
RTVSPropertyOp34
 70
     1
102
RTVSPropertyOp35
 70
     1
102
RTVSPropertyOp36
 70
     1
102
RTVSPropertyOp37
 70
     1
102
RTVSPropertyOp38
 70
     1
102
RTVSPropertyOp39
 70
     1
102
RTVSPropertyOp40
 70
     1
102
RTVSPropertyOp41
 70
     1
102
RTVSPropertyOp42
 70
     1
102
RTVSPropertyOp43
 70
     1
102
RTVSPropertyOp44
 70
     1
102
RTVSPropertyOp45
 70
     1
102
RTVSPropertyOp46
 70
     1
102
RTVSPropertyOp47
 70
     1
102
RTVSPropertyOp48
 70
     1
102
RTVSPropertyOp49
 70
     1
102
RTVSPropertyOp50
 70
     1
102
RTVSPropertyOp51
 70
     0
102
RTVSPropertyOp52
 70
     0
102
RTVSPropertyOp53
 70
     1
102
RTVSPropertyOp54
 70
     1
102
RTVSPropertyOp55
 70
     1
102
RTVSPropertyOp56
 70
     1
102
RTVSPropertyOp57
 70
     1
102
RTVSPropertyOp58
 70
     1
102
RTVSPropertyOp59
 70
     1
102
RTVSPropertyOp60
 70
     1
102
RTVSPropertyOp61
 70
     1
102
RTVSPropertyOp62
 70
     1
  0
XRECORD
  5
AAC
102
{ACAD_REACTORS
330
AAB
102
}
330
AAB
100
AcDbXrecord
280
     1
102
RTVSPost2010Prop28
280
     0
102
RTVSPost2010PropOp28
 70
     1
102
RTVSPost2010Prop29
280
     1
102
RTVSPost2010PropOp29
 70
     1
102
RTVSPost2010Prop30
280
     1
102
RTVSPost2010PropOp30
 70
     1
102
RTVSPost2010Prop31
280
     0
102
RTVSPost2010PropOp31
 70
     1
102
RTVSPost2010Prop32
280
     0
102
RTVSPost2010PropOp32
 70
     1
102
RTVSPost2010Prop33
280
     0
102
RTVSPost2010PropOp33
 70
     1
102
RTVSPost2010Prop34
280
     0
102
RTVSPost2010PropOp34
 70
     1
102
RTVSPost2010Prop35
280
     0
102
RTVSPost2010PropOp35
 70
     1
102
RTVSPost2010Prop36
280
     0
102
RTVSPost2010PropOp36
 70
     1
102
RTVSPost2010Prop37
 90
       50
102
RTVSPost2010PropOp37
 70
     1
102
RTVSPost2010Prop38
140
0.0
102
RTVSPost2010PropOp38
 70
     1
102
RTVSPost2010Prop39
140
1.0
102
RTVSPost2010PropOp39
 70
     1
102
RTVSPost2010Prop40
 90
        0
102
RTVSPost2010PropOp40
 70
     1
102
RTVSPost2010Prop41ColorIndex
 90
       18
102
RTVSPost2010Prop41ColorRGB
 90
        0
102
RTVSPost2010PropOp41
 70
     1
102
RTVSPost2010Prop42
 90
       50
102
RTVSPost2010PropOp42
 70
     1
102
RTVSPost2010Prop43
 90
        3
102
RTVSPost2010PropOp43
 70
     1
102
RTVSPost2010Prop44ColorIndex
 90
        5
102
RTVSPost2010Prop44ColorRGB
 90
      255
102
RTVSPost2010PropOp44
 70
     1
102
RTVSPost2010Prop45
280
     0
102
RTVSPost2010PropOp45
 70
     1
102
RTVSPost2010Prop46
 90
       50
102
RTVSPost2010PropOp46
 70
     1
102
RTVSPost2010Prop47
 90
       50
102
RTVSPost2010PropOp47
 70
     1
102
RTVSPost2010Prop48
 90
       50
102
RTVSPost2010PropOp48
 70
     1
102
RTVSPost2010Prop49
280
     0
102
RTVSPost2010PropOp49
 70
     1
102
RTVSPost2010Prop50
 90
       50
102
RTVSPost2010PropOp50
 70
     1
102
RTVSPost2010Prop51ColorIndex
 90
      256
102
RTVSPost2010Prop51ColorRGB
 90
-16777216
102
RTVSPost2010PropOp51
 70
     0
102
RTVSPost2010Prop52
140
1.0
102
RTVSPost2010PropOp52
 70
     0
102
RTVSPost2010Prop53
 90
        2
102
RTVSPost2010PropOp53
 70
     1
102
RTVSPost2010Prop54
  1
strokes_ogs.tif
102
RTVSPost2010PropOp54
 70
     1
102
RTVSPost2010Prop55
280
     0
102
RTVSPost2010PropOp55
 70
     1
102
RTVSPost2010Prop56
140
1.0
102
RTVSPost2010PropOp56
 70
     1
102
RTVSPost2010Prop57
140
1.0
102
RTVSPost2010PropOp57
 70
     1
102
RTVSPropertyOp0
 70
     1
102
RTVSPropertyOp1
 70
     1
102
RTVSPropertyOp2
 70
     1
102
RTVSPropertyOp3
 70
     1
102
RTVSPropertyOp4
 70
     1
102
RTVSPropertyOp5
 70
     1
102
RTVSPropertyOp6
 70
     1
102
RTVSPropertyOp7
 70
     1
102
RTVSPropertyOp8
 70
     1
102
RTVSPropertyOp9
 70
     1
102
RTVSPropertyOp10
 70
     1
102
RTVSPropertyOp11
 70
     1
102
RTVSPropertyOp12
 70
     1
102
RTVSPropertyOp13
 70
     1
102
RTVSPropertyOp14
 70
     1
102
RTVSPropertyOp15
 70
     1
102
RTVSPropertyOp16
 70
     1
102
RTVSPropertyOp17
 70
     1
102
RTVSPropertyOp18
 70
     1
102
RTVSPropertyOp19
 70
     1
102
RTVSPropertyOp20
 70
     1
102
RTVSPropertyOp21
 70
     1
102
RTVSPropertyOp22
 70
     1
102
RTVSPropertyOp23
 70
     1
102
RTVSPropertyOp24
 70
     1
102
RTVSPropertyOp25
 70
     1
102
RTVSPropertyOp26
 70
     1
102
RTVSPropertyOp27
 70
     1
102
RTVSPropertyOp28
 70
     1
102
RTVSPropertyOp29
 70
     1
102
RTVSPropertyOp30
 70
     1
102
RTVSPropertyOp31
 70
     1
102
RTVSPropertyOp32
 70
     1
102
RTVSPropertyOp33
 70
     1
102
RTVSPropertyOp34
 70
     1
102
RTVSPropertyOp35
 70
     1
102
RTVSPropertyOp36
 70
     1
102
RTVSPropertyOp37
 70
     1
102
RTVSPropertyOp38
 70
     1
102
RTVSPropertyOp39
 70
     1
102
RTVSPropertyOp40
 70
     1
102
RTVSPropertyOp41
 70
     1
102
RTVSPropertyOp42
 70
     1
102
RTVSPropertyOp43
 70
     1
102
RTVSPropertyOp44
 70
     1
102
RTVSPropertyOp45
 70
     1
102
RTVSPropertyOp46
 70
     1
102
RTVSPropertyOp47
 70
     1
102
RTVSPropertyOp48
 70
     1
102
RTVSPropertyOp49
 70
     1
102
RTVSPropertyOp50
 70
     1
102
RTVSPropertyOp51
 70
     0
102
RTVSPropertyOp52
 70
     0
102
RTVSPropertyOp53
 70
     1
102
RTVSPropertyOp54
 70
     1
102
RTVSPropertyOp55
 70
     1
102
RTVSPropertyOp56
 70
     1
102
RTVSPropertyOp57
 70
     1
102
RTVSPropertyOp58
 70
     1
102
RTVSPropertyOp59
 70
     1
102
RTVSPropertyOp60
 70
     1
102
RTVSPropertyOp61
 70
     1
102
RTVSPropertyOp62
 70
     1
  0
XRECORD
  5
AB4
102
{ACAD_REACTORS
330
AB3
102
}
330
AB3
100
AcDbXrecord
280
     1
102
RTVSPost2010Prop28
280
     0
102
RTVSPost2010PropOp28
 70
     1
102
RTVSPost2010Prop29
280
     1
102
RTVSPost2010PropOp29
 70
     1
102
RTVSPost2010Prop30
280
     1
102
RTVSPost2010PropOp30
 70
     1
102
RTVSPost2010Prop31
280
     0
102
RTVSPost2010PropOp31
 70
     1
102
RTVSPost2010Prop32
280
     0
102
RTVSPost2010PropOp32
 70
     1
102
RTVSPost2010Prop33
280
     0
102
RTVSPost2010PropOp33
 70
     1
102
RTVSPost2010Prop34
280
     0
102
RTVSPost2010PropOp34
 70
     1
102
RTVSPost2010Prop35
280
     0
102
RTVSPost2010PropOp35
 70
     1
102
RTVSPost2010Prop36
280
     0
102
RTVSPost2010PropOp36
 70
     1
102
RTVSPost2010Prop37
 90
       50
102
RTVSPost2010PropOp37
 70
     1
102
RTVSPost2010Prop38
140
0.0
102
RTVSPost2010PropOp38
 70
     1
102
RTVSPost2010Prop39
140
1.0
102
RTVSPost2010PropOp39
 70
     1
102
RTVSPost2010Prop40
 90
        0
102
RTVSPost2010PropOp40
 70
     1
102
RTVSPost2010Prop41ColorIndex
 90
       18
102
RTVSPost2010Prop41ColorRGB
 90
        0
102
RTVSPost2010PropOp41
 70
     1
102
RTVSPost2010Prop42
 90
       50
102
RTVSPost2010PropOp42
 70
     1
102
RTVSPost2010Prop43
 90
        3
102
RTVSPost2010PropOp43
 70
     1
102
RTVSPost2010Prop44ColorIndex
 90
        5
102
RTVSPost2010Prop44ColorRGB
 90
      255
102
RTVSPost2010PropOp44
 70
     1
102
RTVSPost2010Prop45
280
     0
102
RTVSPost2010PropOp45
 70
     1
102
RTVSPost2010Prop46
 90
       50
102
RTVSPost2010PropOp46
 70
     1
102
RTVSPost2010Prop47
 90
       50
102
RTVSPost2010PropOp47
 70
     1
102
RTVSPost2010Prop48
 90
       50
102
RTVSPost2010PropOp48
 70
     1
102
RTVSPost2010Prop49
280
     0
102
RTVSPost2010PropOp49
 70
     1
102
RTVSPost2010Prop50
 90
       50
102
RTVSPost2010PropOp50
 70
     1
102
RTVSPost2010Prop51ColorIndex
 90
      256
102
RTVSPost2010Prop51ColorRGB
 90
-16777216
102
RTVSPost2010PropOp51
 70
     0
102
RTVSPost2010Prop52
140
1.0
102
RTVSPost2010PropOp52
 70
     0
102
RTVSPost2010Prop53
 90
        2
102
RTVSPost2010PropOp53
 70
     1
102
RTVSPost2010Prop54
  1
strokes_ogs.tif
102
RTVSPost2010PropOp54
 70
     1
102
RTVSPost2010Prop55
280
     0
102
RTVSPost2010PropOp55
 70
     1
102
RTVSPost2010Prop56
140
1.0
102
RTVSPost2010PropOp56
 70
     1
102
RTVSPost2010Prop57
140
1.0
102
RTVSPost2010PropOp57
 70
     1
102
RTVSPropertyOp0
 70
     1
102
RTVSPropertyOp1
 70
     1
102
RTVSPropertyOp2
 70
     1
102
RTVSPropertyOp3
 70
     1
102
RTVSPropertyOp4
 70
     1
102
RTVSPropertyOp5
 70
     1
102
RTVSPropertyOp6
 70
     1
102
RTVSPropertyOp7
 70
     1
102
RTVSPropertyOp8
 70
     1
102
RTVSPropertyOp9
 70
     1
102
RTVSPropertyOp10
 70
     1
102
RTVSPropertyOp11
 70
     1
102
RTVSPropertyOp12
 70
     1
102
RTVSPropertyOp13
 70
     1
102
RTVSPropertyOp14
 70
     1
102
RTVSPropertyOp15
 70
     1
102
RTVSPropertyOp16
 70
     1
102
RTVSPropertyOp17
 70
     1
102
RTVSPropertyOp18
 70
     1
102
RTVSPropertyOp19
 70
     1
102
RTVSPropertyOp20
 70
     1
102
RTVSPropertyOp21
 70
     1
102
RTVSPropertyOp22
 70
     1
102
RTVSPropertyOp23
 70
     1
102
RTVSPropertyOp24
 70
     1
102
RTVSPropertyOp25
 70
     1
102
RTVSPropertyOp26
 70
     1
102
RTVSPropertyOp27
 70
     1
102
RTVSPropertyOp28
 70
     1
102
RTVSPropertyOp29
 70
     1
102
RTVSPropertyOp30
 70
     1
102
RTVSPropertyOp31
 70
     1
102
RTVSPropertyOp32
 70
     1
102
RTVSPropertyOp33
 70
     1
102
RTVSPropertyOp34
 70
     1
102
RTVSPropertyOp35
 70
     1
102
RTVSPropertyOp36
 70
     1
102
RTVSPropertyOp37
 70
     1
102
RTVSPropertyOp38
 70
     1
102
RTVSPropertyOp39
 70
     1
102
RTVSPropertyOp40
 70
     1
102
RTVSPropertyOp41
 70
     1
102
RTVSPropertyOp42
 70
     1
102
RTVSPropertyOp43
 70
     1
102
RTVSPropertyOp44
 70
     1
102
RTVSPropertyOp45
 70
     1
102
RTVSPropertyOp46
 70
     1
102
RTVSPropertyOp47
 70
     1
102
RTVSPropertyOp48
 70
     1
102
RTVSPropertyOp49
 70
     1
102
RTVSPropertyOp50
 70
     1
102
RTVSPropertyOp51
 70
     0
102
RTVSPropertyOp52
 70
     0
102
RTVSPropertyOp53
 70
     1
102
RTVSPropertyOp54
 70
     1
102
RTVSPropertyOp55
 70
     1
102
RTVSPropertyOp56
 70
     1
102
RTVSPropertyOp57
 70
     1
102
RTVSPropertyOp58
 70
     1
102
RTVSPropertyOp59
 70
     1
102
RTVSPropertyOp60
 70
     1
102
RTVSPropertyOp61
 70
     1
102
RTVSPropertyOp62
 70
     1
  0
XRECORD
  5
AA6
102
{ACAD_REACTORS
330
AA5
102
}
330
AA5
100
AcDbXrecord
280
     1
102
RTVSPost2010Prop28
280
     0
102
RTVSPost2010PropOp28
 70
     1
102
RTVSPost2010Prop29
280
     1
102
RTVSPost2010PropOp29
 70
     1
102
RTVSPost2010Prop30
280
     1
102
RTVSPost2010PropOp30
 70
     1
102
RTVSPost2010Prop31
280
     0
102
RTVSPost2010PropOp31
 70
     1
102
RTVSPost2010Prop32
280
     0
102
RTVSPost2010PropOp32
 70
     1
102
RTVSPost2010Prop33
280
     0
102
RTVSPost2010PropOp33
 70
     1
102
RTVSPost2010Prop34
280
     0
102
RTVSPost2010PropOp34
 70
     1
102
RTVSPost2010Prop35
280
     0
102
RTVSPost2010PropOp35
 70
     1
102
RTVSPost2010Prop36
280
     0
102
RTVSPost2010PropOp36
 70
     1
102
RTVSPost2010Prop37
 90
       50
102
RTVSPost2010PropOp37
 70
     1
102
RTVSPost2010Prop38
140
0.0
102
RTVSPost2010PropOp38
 70
     1
102
RTVSPost2010Prop39
140
1.0
102
RTVSPost2010PropOp39
 70
     1
102
RTVSPost2010Prop40
 90
        0
102
RTVSPost2010PropOp40
 70
     1
102
RTVSPost2010Prop41ColorIndex
 90
       18
102
RTVSPost2010Prop41ColorRGB
 90
        0
102
RTVSPost2010PropOp41
 70
     1
102
RTVSPost2010Prop42
 90
       50
102
RTVSPost2010PropOp42
 70
     1
102
RTVSPost2010Prop43
 90
        3
102
RTVSPost2010PropOp43
 70
     1
102
RTVSPost2010Prop44ColorIndex
 90
        5
102
RTVSPost2010Prop44ColorRGB
 90
      255
102
RTVSPost2010PropOp44
 70
     1
102
RTVSPost2010Prop45
280
     0
102
RTVSPost2010PropOp45
 70
     1
102
RTVSPost2010Prop46
 90
       50
102
RTVSPost2010PropOp46
 70
     1
102
RTVSPost2010Prop47
 90
       50
102
RTVSPost2010PropOp47
 70
     1
102
RTVSPost2010Prop48
 90
       50
102
RTVSPost2010PropOp48
 70
     1
102
RTVSPost2010Prop49
280
     0
102
RTVSPost2010PropOp49
 70
     1
102
RTVSPost2010Prop50
 90
       50
102
RTVSPost2010PropOp50
 70
     1
102
RTVSPost2010Prop51ColorIndex
 90
      256
102
RTVSPost2010Prop51ColorRGB
 90
-16777216
102
RTVSPost2010PropOp51
 70
     0
102
RTVSPost2010Prop52
140
1.0
102
RTVSPost2010PropOp52
 70
     0
102
RTVSPost2010Prop53
 90
        2
102
RTVSPost2010PropOp53
 70
     1
102
RTVSPost2010Prop54
  1
strokes_ogs.tif
102
RTVSPost2010PropOp54
 70
     1
102
RTVSPost2010Prop55
280
     0
102
RTVSPost2010PropOp55
 70
     1
102
RTVSPost2010Prop56
140
1.0
102
RTVSPost2010PropOp56
 70
     1
102
RTVSPost2010Prop57
140
1.0
102
RTVSPost2010PropOp57
 70
     1
102
RTVSPropertyOp0
 70
     1
102
RTVSPropertyOp1
 70
     1
102
RTVSPropertyOp2
 70
     1
102
RTVSPropertyOp3
 70
     1
102
RTVSPropertyOp4
 70
     1
102
RTVSPropertyOp5
 70
     1
102
RTVSPropertyOp6
 70
     1
102
RTVSPropertyOp7
 70
     1
102
RTVSPropertyOp8
 70
     1
102
RTVSPropertyOp9
 70
     1
102
RTVSPropertyOp10
 70
     1
102
RTVSPropertyOp11
 70
     1
102
RTVSPropertyOp12
 70
     1
102
RTVSPropertyOp13
 70
     1
102
RTVSPropertyOp14
 70
     1
102
RTVSPropertyOp15
 70
     1
102
RTVSPropertyOp16
 70
     1
102
RTVSPropertyOp17
 70
     1
102
RTVSPropertyOp18
 70
     1
102
RTVSPropertyOp19
 70
     1
102
RTVSPropertyOp20
 70
     1
102
RTVSPropertyOp21
 70
     1
102
RTVSPropertyOp22
 70
     1
102
RTVSPropertyOp23
 70
     1
102
RTVSPropertyOp24
 70
     1
102
RTVSPropertyOp25
 70
     1
102
RTVSPropertyOp26
 70
     1
102
RTVSPropertyOp27
 70
     1
102
RTVSPropertyOp28
 70
     1
102
RTVSPropertyOp29
 70
     1
102
RTVSPropertyOp30
 70
     1
102
RTVSPropertyOp31
 70
     1
102
RTVSPropertyOp32
 70
     1
102
RTVSPropertyOp33
 70
     1
102
RTVSPropertyOp34
 70
     1
102
RTVSPropertyOp35
 70
     1
102
RTVSPropertyOp36
 70
     1
102
RTVSPropertyOp37
 70
     1
102
RTVSPropertyOp38
 70
     1
102
RTVSPropertyOp39
 70
     1
102
RTVSPropertyOp40
 70
     1
102
RTVSPropertyOp41
 70
     1
102
RTVSPropertyOp42
 70
     1
102
RTVSPropertyOp43
 70
     1
102
RTVSPropertyOp44
 70
     1
102
RTVSPropertyOp45
 70
     1
102
RTVSPropertyOp46
 70
     1
102
RTVSPropertyOp47
 70
     1
102
RTVSPropertyOp48
 70
     1
102
RTVSPropertyOp49
 70
     1
102
RTVSPropertyOp50
 70
     1
102
RTVSPropertyOp51
 70
     0
102
RTVSPropertyOp52
 70
     0
102
RTVSPropertyOp53
 70
     1
102
RTVSPropertyOp54
 70
     1
102
RTVSPropertyOp55
 70
     1
102
RTVSPropertyOp56
 70
     1
102
RTVSPropertyOp57
 70
     1
102
RTVSPropertyOp58
 70
     1
102
RTVSPropertyOp59
 70
     1
102
RTVSPropertyOp60
 70
     1
102
RTVSPropertyOp61
 70
     1
102
RTVSPropertyOp62
 70
     1
  0
XRECORD
  5
AAA
102
{ACAD_REACTORS
330
AA9
102
}
330
AA9
100
AcDbXrecord
280
     1
102
RTVSPost2010Prop28
280
     0
102
RTVSPost2010PropOp28
 70
     1
102
RTVSPost2010Prop29
280
     1
102
RTVSPost2010PropOp29
 70
     1
102
RTVSPost2010Prop30
280
     1
102
RTVSPost2010PropOp30
 70
     1
102
RTVSPost2010Prop31
280
     0
102
RTVSPost2010PropOp31
 70
     1
102
RTVSPost2010Prop32
280
     0
102
RTVSPost2010PropOp32
 70
     1
102
RTVSPost2010Prop33
280
     0
102
RTVSPost2010PropOp33
 70
     1
102
RTVSPost2010Prop34
280
     0
102
RTVSPost2010PropOp34
 70
     1
102
RTVSPost2010Prop35
280
     0
102
RTVSPost2010PropOp35
 70
     1
102
RTVSPost2010Prop36
280
     0
102
RTVSPost2010PropOp36
 70
     1
102
RTVSPost2010Prop37
 90
       50
102
RTVSPost2010PropOp37
 70
     1
102
RTVSPost2010Prop38
140
0.0
102
RTVSPost2010PropOp38
 70
     1
102
RTVSPost2010Prop39
140
1.0
102
RTVSPost2010PropOp39
 70
     1
102
RTVSPost2010Prop40
 90
        0
102
RTVSPost2010PropOp40
 70
     1
102
RTVSPost2010Prop41ColorIndex
 90
       18
102
RTVSPost2010Prop41ColorRGB
 90
        0
102
RTVSPost2010PropOp41
 70
     1
102
RTVSPost2010Prop42
 90
       50
102
RTVSPost2010PropOp42
 70
     1
102
RTVSPost2010Prop43
 90
        3
102
RTVSPost2010PropOp43
 70
     1
102
RTVSPost2010Prop44ColorIndex
 90
        5
102
RTVSPost2010Prop44ColorRGB
 90
      255
102
RTVSPost2010PropOp44
 70
     1
102
RTVSPost2010Prop45
280
     0
102
RTVSPost2010PropOp45
 70
     1
102
RTVSPost2010Prop46
 90
       50
102
RTVSPost2010PropOp46
 70
     1
102
RTVSPost2010Prop47
 90
       50
102
RTVSPost2010PropOp47
 70
     1
102
RTVSPost2010Prop48
 90
       50
102
RTVSPost2010PropOp48
 70
     1
102
RTVSPost2010Prop49
280
     0
102
RTVSPost2010PropOp49
 70
     1
102
RTVSPost2010Prop50
 90
       50
102
RTVSPost2010PropOp50
 70
     1
102
RTVSPost2010Prop51ColorIndex
 90
      256
102
RTVSPost2010Prop51ColorRGB
 90
-16777216
102
RTVSPost2010PropOp51
 70
     0
102
RTVSPost2010Prop52
140
1.0
102
RTVSPost2010PropOp52
 70
     0
102
RTVSPost2010Prop53
 90
        2
102
RTVSPost2010PropOp53
 70
     1
102
RTVSPost2010Prop54
  1
strokes_ogs.tif
102
RTVSPost2010PropOp54
 70
     1
102
RTVSPost2010Prop55
280
     0
102
RTVSPost2010PropOp55
 70
     1
102
RTVSPost2010Prop56
140
1.0
102
RTVSPost2010PropOp56
 70
     1
102
RTVSPost2010Prop57
140
1.0
102
RTVSPost2010PropOp57
 70
     1
102
RTVSPropertyOp0
 70
     1
102
RTVSPropertyOp1
 70
     1
102
RTVSPropertyOp2
 70
     1
102
RTVSPropertyOp3
 70
     1
102
RTVSPropertyOp4
 70
     1
102
RTVSPropertyOp5
 70
     1
102
RTVSPropertyOp6
 70
     1
102
RTVSPropertyOp7
 70
     1
102
RTVSPropertyOp8
 70
     1
102
RTVSPropertyOp9
 70
     1
102
RTVSPropertyOp10
 70
     1
102
RTVSPropertyOp11
 70
     1
102
RTVSPropertyOp12
 70
     1
102
RTVSPropertyOp13
 70
     1
102
RTVSPropertyOp14
 70
     1
102
RTVSPropertyOp15
 70
     1
102
RTVSPropertyOp16
 70
     1
102
RTVSPropertyOp17
 70
     1
102
RTVSPropertyOp18
 70
     1
102
RTVSPropertyOp19
 70
     1
102
RTVSPropertyOp20
 70
     1
102
RTVSPropertyOp21
 70
     1
102
RTVSPropertyOp22
 70
     1
102
RTVSPropertyOp23
 70
     1
102
RTVSPropertyOp24
 70
     1
102
RTVSPropertyOp25
 70
     1
102
RTVSPropertyOp26
 70
     1
102
RTVSPropertyOp27
 70
     1
102
RTVSPropertyOp28
 70
     1
102
RTVSPropertyOp29
 70
     1
102
RTVSPropertyOp30
 70
     1
102
RTVSPropertyOp31
 70
     1
102
RTVSPropertyOp32
 70
     1
102
RTVSPropertyOp33
 70
     1
102
RTVSPropertyOp34
 70
     1
102
RTVSPropertyOp35
 70
     1
102
RTVSPropertyOp36
 70
     1
102
RTVSPropertyOp37
 70
     1
102
RTVSPropertyOp38
 70
     1
102
RTVSPropertyOp39
 70
     1
102
RTVSPropertyOp40
 70
     1
102
RTVSPropertyOp41
 70
     1
102
RTVSPropertyOp42
 70
     1
102
RTVSPropertyOp43
 70
     1
102
RTVSPropertyOp44
 70
     1
102
RTVSPropertyOp45
 70
     1
102
RTVSPropertyOp46
 70
     1
102
RTVSPropertyOp47
 70
     1
102
RTVSPropertyOp48
 70
     1
102
RTVSPropertyOp49
 70
     1
102
RTVSPropertyOp50
 70
     1
102
RTVSPropertyOp51
 70
     0
102
RTVSPropertyOp52
 70
     0
102
RTVSPropertyOp53
 70
     1
102
RTVSPropertyOp54
 70
     1
102
RTVSPropertyOp55
 70
     1
102
RTVSPropertyOp56
 70
     1
102
RTVSPropertyOp57
 70
     1
102
RTVSPropertyOp58
 70
     1
102
RTVSPropertyOp59
 70
     1
102
RTVSPropertyOp60
 70
     1
102
RTVSPropertyOp61
 70
     1
102
RTVSPropertyOp62
 70
     1
  0
XRECORD
  5
ABA
102
{ACAD_REACTORS
330
AB9
102
}
330
AB9
100
AcDbXrecord
280
     1
102
RTVSPost2010Prop28
280
     0
102
RTVSPost2010PropOp28
 70
     1
102
RTVSPost2010Prop29
280
     1
102
RTVSPost2010PropOp29
 70
     1
102
RTVSPost2010Prop30
280
     1
102
RTVSPost2010PropOp30
 70
     1
102
RTVSPost2010Prop31
280
     0
102
RTVSPost2010PropOp31
 70
     1
102
RTVSPost2010Prop32
280
     0
102
RTVSPost2010PropOp32
 70
     1
102
RTVSPost2010Prop33
280
     0
102
RTVSPost2010PropOp33
 70
     1
102
RTVSPost2010Prop34
280
     0
102
RTVSPost2010PropOp34
 70
     1
102
RTVSPost2010Prop35
280
     0
102
RTVSPost2010PropOp35
 70
     1
102
RTVSPost2010Prop36
280
     0
102
RTVSPost2010PropOp36
 70
     1
102
RTVSPost2010Prop37
 90
       50
102
RTVSPost2010PropOp37
 70
     1
102
RTVSPost2010Prop38
140
0.0
102
RTVSPost2010PropOp38
 70
     1
102
RTVSPost2010Prop39
140
1.0
102
RTVSPost2010PropOp39
 70
     1
102
RTVSPost2010Prop40
 90
        0
102
RTVSPost2010PropOp40
 70
     1
102
RTVSPost2010Prop41ColorIndex
 90
       18
102
RTVSPost2010Prop41ColorRGB
 90
        0
102
RTVSPost2010PropOp41
 70
     1
102
RTVSPost2010Prop42
 90
       50
102
RTVSPost2010PropOp42
 70
     1
102
RTVSPost2010Prop43
 90
        3
102
RTVSPost2010PropOp43
 70
     1
102
RTVSPost2010Prop44ColorIndex
 90
        5
102
RTVSPost2010Prop44ColorRGB
 90
      255
102
RTVSPost2010PropOp44
 70
     1
102
RTVSPost2010Prop45
280
     0
102
RTVSPost2010PropOp45
 70
     1
102
RTVSPost2010Prop46
 90
       50
102
RTVSPost2010PropOp46
 70
     1
102
RTVSPost2010Prop47
 90
       50
102
RTVSPost2010PropOp47
 70
     1
102
RTVSPost2010Prop48
 90
       50
102
RTVSPost2010PropOp48
 70
     1
102
RTVSPost2010Prop49
280
     0
102
RTVSPost2010PropOp49
 70
     1
102
RTVSPost2010Prop50
 90
       50
102
RTVSPost2010PropOp50
 70
     1
102
RTVSPost2010Prop51ColorIndex
 90
      256
102
RTVSPost2010Prop51ColorRGB
 90
-16777216
102
RTVSPost2010PropOp51
 70
     0
102
RTVSPost2010Prop52
140
1.0
102
RTVSPost2010PropOp52
 70
     0
102
RTVSPost2010Prop53
 90
        2
102
RTVSPost2010PropOp53
 70
     1
102
RTVSPost2010Prop54
  1
strokes_ogs.tif
102
RTVSPost2010PropOp54
 70
     1
102
RTVSPost2010Prop55
280
     0
102
RTVSPost2010PropOp55
 70
     1
102
RTVSPost2010Prop56
140
1.0
102
RTVSPost2010PropOp56
 70
     1
102
RTVSPost2010Prop57
140
1.0
102
RTVSPost2010PropOp57
 70
     1
102
RTVSPropertyOp0
 70
     0
102
RTVSPropertyOp1
 70
     0
102
RTVSPropertyOp2
 70
     0
102
RTVSPropertyOp3
 70
     0
102
RTVSPropertyOp4
 70
     0
102
RTVSPropertyOp5
 70
     0
102
RTVSPropertyOp6
 70
     0
102
RTVSPropertyOp7
 70
     0
102
RTVSPropertyOp8
 70
     0
102
RTVSPropertyOp9
 70
     0
102
RTVSPropertyOp10
 70
     0
102
RTVSPropertyOp11
 70
     0
102
RTVSPropertyOp12
 70
     0
102
RTVSPropertyOp13
 70
     0
102
RTVSPropertyOp14
 70
     2
102
RTVSPropertyOp15
 70
     0
102
RTVSPropertyOp16
 70
     0
102
RTVSPropertyOp17
 70
     0
102
RTVSPropertyOp18
 70
     0
102
RTVSPropertyOp19
 70
     0
102
RTVSPropertyOp20
 70
     0
102
RTVSPropertyOp21
 70
     0
102
RTVSPropertyOp22
 70
     0
102
RTVSPropertyOp23
 70
     0
102
RTVSPropertyOp24
 70
     0
102
RTVSPropertyOp25
 70
     0
102
RTVSPropertyOp26
 70
     0
102
RTVSPropertyOp27
 70
     0
102
RTVSPropertyOp28
 70
     1
102
RTVSPropertyOp29
 70
     1
102
RTVSPropertyOp30
 70
     1
102
RTVSPropertyOp31
 70
     1
102
RTVSPropertyOp32
 70
     1
102
RTVSPropertyOp33
 70
     1
102
RTVSPropertyOp34
 70
     1
102
RTVSPropertyOp35
 70
     1
102
RTVSPropertyOp36
 70
     1
102
RTVSPropertyOp37
 70
     1
102
RTVSPropertyOp38
 70
     1
102
RTVSPropertyOp39
 70
     1
102
RTVSPropertyOp40
 70
     1
102
RTVSPropertyOp41
 70
     1
102
RTVSPropertyOp42
 70
     1
102
RTVSPropertyOp43
 70
     1
102
RTVSPropertyOp44
 70
     1
102
RTVSPropertyOp45
 70
     1
102
RTVSPropertyOp46
 70
     1
102
RTVSPropertyOp47
 70
     1
102
RTVSPropertyOp48
 70
     1
102
RTVSPropertyOp49
 70
     1
102
RTVSPropertyOp50
 70
     1
102
RTVSPropertyOp51
 70
     0
102
RTVSPropertyOp52
 70
     0
102
RTVSPropertyOp53
 70
     1
102
RTVSPropertyOp54
 70
     1
102
RTVSPropertyOp55
 70
     1
102
RTVSPropertyOp56
 70
     1
102
RTVSPropertyOp57
 70
     1
102
RTVSPropertyOp58
 70
     1
102
RTVSPropertyOp59
 70
     1
102
RTVSPropertyOp60
 70
     1
102
RTVSPropertyOp61
 70
     1
102
RTVSPropertyOp62
 70
     1
  0
XRECORD
  5
AB2
102
{ACAD_REACTORS
330
AB1
102
}
330
AB1
100
AcDbXrecord
280
     1
102
RTVSPost2010Prop28
280
     0
102
RTVSPost2010PropOp28
 70
     1
102
RTVSPost2010Prop29
280
     1
102
RTVSPost2010PropOp29
 70
     1
102
RTVSPost2010Prop30
280
     1
102
RTVSPost2010PropOp30
 70
     1
102
RTVSPost2010Prop31
280
     0
102
RTVSPost2010PropOp31
 70
     1
102
RTVSPost2010Prop32
280
     0
102
RTVSPost2010PropOp32
 70
     1
102
RTVSPost2010Prop33
280
     0
102
RTVSPost2010PropOp33
 70
     1
102
RTVSPost2010Prop34
280
     0
102
RTVSPost2010PropOp34
 70
     1
102
RTVSPost2010Prop35
280
     0
102
RTVSPost2010PropOp35
 70
     1
102
RTVSPost2010Prop36
280
     0
102
RTVSPost2010PropOp36
 70
     1
102
RTVSPost2010Prop37
 90
       50
102
RTVSPost2010PropOp37
 70
     1
102
RTVSPost2010Prop38
140
0.0
102
RTVSPost2010PropOp38
 70
     1
102
RTVSPost2010Prop39
140
1.0
102
RTVSPost2010PropOp39
 70
     1
102
RTVSPost2010Prop40
 90
        0
102
RTVSPost2010PropOp40
 70
     1
102
RTVSPost2010Prop41ColorIndex
 90
       18
102
RTVSPost2010Prop41ColorRGB
 90
        0
102
RTVSPost2010PropOp41
 70
     1
102
RTVSPost2010Prop42
 90
       50
102
RTVSPost2010PropOp42
 70
     1
102
RTVSPost2010Prop43
 90
        3
102
RTVSPost2010PropOp43
 70
     1
102
RTVSPost2010Prop44ColorIndex
 90
        5
102
RTVSPost2010Prop44ColorRGB
 90
      255
102
RTVSPost2010PropOp44
 70
     1
102
RTVSPost2010Prop45
280
     0
102
RTVSPost2010PropOp45
 70
     1
102
RTVSPost2010Prop46
 90
       50
102
RTVSPost2010PropOp46
 70
     1
102
RTVSPost2010Prop47
 90
       50
102
RTVSPost2010PropOp47
 70
     1
102
RTVSPost2010Prop48
 90
       50
102
RTVSPost2010PropOp48
 70
     1
102
RTVSPost2010Prop49
280
     0
102
RTVSPost2010PropOp49
 70
     1
102
RTVSPost2010Prop50
 90
       50
102
RTVSPost2010PropOp50
 70
     1
102
RTVSPost2010Prop51ColorIndex
 90
      256
102
RTVSPost2010Prop51ColorRGB
 90
-16777216
102
RTVSPost2010PropOp51
 70
     0
102
RTVSPost2010Prop52
140
1.0
102
RTVSPost2010PropOp52
 70
     0
102
RTVSPost2010Prop53
 90
        2
102
RTVSPost2010PropOp53
 70
     1
102
RTVSPost2010Prop54
  1
strokes_ogs.tif
102
RTVSPost2010PropOp54
 70
     1
102
RTVSPost2010Prop55
280
     0
102
RTVSPost2010PropOp55
 70
     1
102
RTVSPost2010Prop56
140
1.0
102
RTVSPost2010PropOp56
 70
     1
102
RTVSPost2010Prop57
140
1.0
102
RTVSPost2010PropOp57
 70
     1
102
RTVSPropertyOp0
 70
     1
102
RTVSPropertyOp1
 70
     1
102
RTVSPropertyOp2
 70
     1
102
RTVSPropertyOp3
 70
     1
102
RTVSPropertyOp4
 70
     1
102
RTVSPropertyOp5
 70
     1
102
RTVSPropertyOp6
 70
     1
102
RTVSPropertyOp7
 70
     1
102
RTVSPropertyOp8
 70
     1
102
RTVSPropertyOp9
 70
     1
102
RTVSPropertyOp10
 70
     1
102
RTVSPropertyOp11
 70
     1
102
RTVSPropertyOp12
 70
     1
102
RTVSPropertyOp13
 70
     1
102
RTVSPropertyOp14
 70
     1
102
RTVSPropertyOp15
 70
     1
102
RTVSPropertyOp16
 70
     1
102
RTVSPropertyOp17
 70
     1
102
RTVSPropertyOp18
 70
     1
102
RTVSPropertyOp19
 70
     1
102
RTVSPropertyOp20
 70
     1
102
RTVSPropertyOp21
 70
     1
102
RTVSPropertyOp22
 70
     1
102
RTVSPropertyOp23
 70
     1
102
RTVSPropertyOp24
 70
     1
102
RTVSPropertyOp25
 70
     1
102
RTVSPropertyOp26
 70
     1
102
RTVSPropertyOp27
 70
     1
102
RTVSPropertyOp28
 70
     1
102
RTVSPropertyOp29
 70
     1
102
RTVSPropertyOp30
 70
     1
102
RTVSPropertyOp31
 70
     1
102
RTVSPropertyOp32
 70
     1
102
RTVSPropertyOp33
 70
     1
102
RTVSPropertyOp34
 70
     1
102
RTVSPropertyOp35
 70
     1
102
RTVSPropertyOp36
 70
     1
102
RTVSPropertyOp37
 70
     1
102
RTVSPropertyOp38
 70
     1
102
RTVSPropertyOp39
 70
     1
102
RTVSPropertyOp40
 70
     1
102
RTVSPropertyOp41
 70
     1
102
RTVSPropertyOp42
 70
     1
102
RTVSPropertyOp43
 70
     1
102
RTVSPropertyOp44
 70
     1
102
RTVSPropertyOp45
 70
     1
102
RTVSPropertyOp46
 70
     1
102
RTVSPropertyOp47
 70
     1
102
RTVSPropertyOp48
 70
     1
102
RTVSPropertyOp49
 70
     1
102
RTVSPropertyOp50
 70
     1
102
RTVSPropertyOp51
 70
     0
102
RTVSPropertyOp52
 70
     0
102
RTVSPropertyOp53
 70
     1
102
RTVSPropertyOp54
 70
     1
102
RTVSPropertyOp55
 70
     1
102
RTVSPropertyOp56
 70
     1
102
RTVSPropertyOp57
 70
     1
102
RTVSPropertyOp58
 70
     1
102
RTVSPropertyOp59
 70
     1
102
RTVSPropertyOp60
 70
     1
102
RTVSPropertyOp61
 70
     1
102
RTVSPropertyOp62
 70
     1
  0
XRECORD
  5
A96
102
{ACAD_REACTORS
330
A95
102
}
330
A95
100
AcDbXrecord
280
     1
102
RTVSPost2010Prop28
280
     0
102
RTVSPost2010PropOp28
 70
     1
102
RTVSPost2010Prop29
280
     1
102
RTVSPost2010PropOp29
 70
     1
102
RTVSPost2010Prop30
280
     1
102
RTVSPost2010PropOp30
 70
     1
102
RTVSPost2010Prop31
280
     0
102
RTVSPost2010PropOp31
 70
     1
102
RTVSPost2010Prop32
280
     0
102
RTVSPost2010PropOp32
 70
     1
102
RTVSPost2010Prop33
280
     0
102
RTVSPost2010PropOp33
 70
     1
102
RTVSPost2010Prop34
280
     0
102
RTVSPost2010PropOp34
 70
     1
102
RTVSPost2010Prop35
280
     0
102
RTVSPost2010PropOp35
 70
     1
102
RTVSPost2010Prop36
280
     0
102
RTVSPost2010PropOp36
 70
     1
102
RTVSPost2010Prop37
 90
       50
102
RTVSPost2010PropOp37
 70
     1
102
RTVSPost2010Prop38
140
0.0
102
RTVSPost2010PropOp38
 70
     1
102
RTVSPost2010Prop39
140
1.0
102
RTVSPost2010PropOp39
 70
     1
102
RTVSPost2010Prop40
 90
        0
102
RTVSPost2010PropOp40
 70
     1
102
RTVSPost2010Prop41ColorIndex
 90
       18
102
RTVSPost2010Prop41ColorRGB
 90
        0
102
RTVSPost2010PropOp41
 70
     1
102
RTVSPost2010Prop42
 90
       50
102
RTVSPost2010PropOp42
 70
     1
102
RTVSPost2010Prop43
 90
        3
102
RTVSPost2010PropOp43
 70
     1
102
RTVSPost2010Prop44ColorIndex
 90
        5
102
RTVSPost2010Prop44ColorRGB
 90
      255
102
RTVSPost2010PropOp44
 70
     1
102
RTVSPost2010Prop45
280
     0
102
RTVSPost2010PropOp45
 70
     1
102
RTVSPost2010Prop46
 90
       50
102
RTVSPost2010PropOp46
 70
     1
102
RTVSPost2010Prop47
 90
       50
102
RTVSPost2010PropOp47
 70
     1
102
RTVSPost2010Prop48
 90
       50
102
RTVSPost2010PropOp48
 70
     1
102
RTVSPost2010Prop49
280
     0
102
RTVSPost2010PropOp49
 70
     1
102
RTVSPost2010Prop50
 90
       50
102
RTVSPost2010PropOp50
 70
     1
102
RTVSPost2010Prop51ColorIndex
 90
      256
102
RTVSPost2010Prop51ColorRGB
 90
-16777216
102
RTVSPost2010PropOp51
 70
     0
102
RTVSPost2010Prop52
140
1.0
102
RTVSPost2010PropOp52
 70
     0
102
RTVSPost2010Prop53
 90
        2
102
RTVSPost2010PropOp53
 70
     1
102
RTVSPost2010Prop54
  1
strokes_ogs.tif
102
RTVSPost2010PropOp54
 70
     1
102
RTVSPost2010Prop55
280
     0
102
RTVSPost2010PropOp55
 70
     1
102
RTVSPost2010Prop56
140
1.0
102
RTVSPost2010PropOp56
 70
     1
102
RTVSPost2010Prop57
140
1.0
102
RTVSPost2010PropOp57
 70
     1
102
RTVSPropertyOp0
 70
     1
102
RTVSPropertyOp1
 70
     1
102
RTVSPropertyOp2
 70
     1
102
RTVSPropertyOp3
 70
     1
102
RTVSPropertyOp4
 70
     1
102
RTVSPropertyOp5
 70
     1
102
RTVSPropertyOp6
 70
     1
102
RTVSPropertyOp7
 70
     1
102
RTVSPropertyOp8
 70
     1
102
RTVSPropertyOp9
 70
     1
102
RTVSPropertyOp10
 70
     1
102
RTVSPropertyOp11
 70
     1
102
RTVSPropertyOp12
 70
     1
102
RTVSPropertyOp13
 70
     1
102
RTVSPropertyOp14
 70
     1
102
RTVSPropertyOp15
 70
     1
102
RTVSPropertyOp16
 70
     1
102
RTVSPropertyOp17
 70
     1
102
RTVSPropertyOp18
 70
     1
102
RTVSPropertyOp19
 70
     1
102
RTVSPropertyOp20
 70
     1
102
RTVSPropertyOp21
 70
     1
102
RTVSPropertyOp22
 70
     1
102
RTVSPropertyOp23
 70
     1
102
RTVSPropertyOp24
 70
     1
102
RTVSPropertyOp25
 70
     1
102
RTVSPropertyOp26
 70
     1
102
RTVSPropertyOp27
 70
     1
102
RTVSPropertyOp28
 70
     1
102
RTVSPropertyOp29
 70
     1
102
RTVSPropertyOp30
 70
     1
102
RTVSPropertyOp31
 70
     1
102
RTVSPropertyOp32
 70
     1
102
RTVSPropertyOp33
 70
     1
102
RTVSPropertyOp34
 70
     1
102
RTVSPropertyOp35
 70
     1
102
RTVSPropertyOp36
 70
     1
102
RTVSPropertyOp37
 70
     1
102
RTVSPropertyOp38
 70
     1
102
RTVSPropertyOp39
 70
     1
102
RTVSPropertyOp40
 70
     1
102
RTVSPropertyOp41
 70
     1
102
RTVSPropertyOp42
 70
     1
102
RTVSPropertyOp43
 70
     1
102
RTVSPropertyOp44
 70
     1
102
RTVSPropertyOp45
 70
     1
102
RTVSPropertyOp46
 70
     1
102
RTVSPropertyOp47
 70
     1
102
RTVSPropertyOp48
 70
     1
102
RTVSPropertyOp49
 70
     1
102
RTVSPropertyOp50
 70
     1
102
RTVSPropertyOp51
 70
     0
102
RTVSPropertyOp52
 70
     0
102
RTVSPropertyOp53
 70
     1
102
RTVSPropertyOp54
 70
     1
102
RTVSPropertyOp55
 70
     1
102
RTVSPropertyOp56
 70
     1
102
RTVSPropertyOp57
 70
     1
102
RTVSPropertyOp58
 70
     1
102
RTVSPropertyOp59
 70
     1
102
RTVSPropertyOp60
 70
     1
102
RTVSPropertyOp61
 70
     1
102
RTVSPropertyOp62
 70
     1
  0
XRECORD
  5
A98
102
{ACAD_REACTORS
330
A97
102
}
330
A97
100
AcDbXrecord
280
     1
102
RTVSPost2010Prop28
280
     0
102
RTVSPost2010PropOp28
 70
     1
102
RTVSPost2010Prop29
280
     1
102
RTVSPost2010PropOp29
 70
     1
102
RTVSPost2010Prop30
280
     1
102
RTVSPost2010PropOp30
 70
     1
102
RTVSPost2010Prop31
280
     0
102
RTVSPost2010PropOp31
 70
     1
102
RTVSPost2010Prop32
280
     0
102
RTVSPost2010PropOp32
 70
     1
102
RTVSPost2010Prop33
280
     0
102
RTVSPost2010PropOp33
 70
     1
102
RTVSPost2010Prop34
280
     0
102
RTVSPost2010PropOp34
 70
     1
102
RTVSPost2010Prop35
280
     0
102
RTVSPost2010PropOp35
 70
     1
102
RTVSPost2010Prop36
280
     0
102
RTVSPost2010PropOp36
 70
     1
102
RTVSPost2010Prop37
 90
       50
102
RTVSPost2010PropOp37
 70
     1
102
RTVSPost2010Prop38
140
0.0
102
RTVSPost2010PropOp38
 70
     1
102
RTVSPost2010Prop39
140
1.0
102
RTVSPost2010PropOp39
 70
     1
102
RTVSPost2010Prop40
 90
        0
102
RTVSPost2010PropOp40
 70
     1
102
RTVSPost2010Prop41ColorIndex
 90
       18
102
RTVSPost2010Prop41ColorRGB
 90
        0
102
RTVSPost2010PropOp41
 70
     1
102
RTVSPost2010Prop42
 90
       50
102
RTVSPost2010PropOp42
 70
     1
102
RTVSPost2010Prop43
 90
        3
102
RTVSPost2010PropOp43
 70
     1
102
RTVSPost2010Prop44ColorIndex
 90
        5
102
RTVSPost2010Prop44ColorRGB
 90
      255
102
RTVSPost2010PropOp44
 70
     1
102
RTVSPost2010Prop45
280
     0
102
RTVSPost2010PropOp45
 70
     1
102
RTVSPost2010Prop46
 90
       50
102
RTVSPost2010PropOp46
 70
     1
102
RTVSPost2010Prop47
 90
       50
102
RTVSPost2010PropOp47
 70
     1
102
RTVSPost2010Prop48
 90
       50
102
RTVSPost2010PropOp48
 70
     1
102
RTVSPost2010Prop49
280
     0
102
RTVSPost2010PropOp49
 70
     1
102
RTVSPost2010Prop50
 90
       50
102
RTVSPost2010PropOp50
 70
     1
102
RTVSPost2010Prop51ColorIndex
 90
      256
102
RTVSPost2010Prop51ColorRGB
 90
-16777216
102
RTVSPost2010PropOp51
 70
     0
102
RTVSPost2010Prop52
140
1.0
102
RTVSPost2010PropOp52
 70
     0
102
RTVSPost2010Prop53
 90
        2
102
RTVSPost2010PropOp53
 70
     1
102
RTVSPost2010Prop54
  1
strokes_ogs.tif
102
RTVSPost2010PropOp54
 70
     1
102
RTVSPost2010Prop55
280
     0
102
RTVSPost2010PropOp55
 70
     1
102
RTVSPost2010Prop56
140
1.0
102
RTVSPost2010PropOp56
 70
     1
102
RTVSPost2010Prop57
140
1.0
102
RTVSPost2010PropOp57
 70
     1
102
RTVSPropertyOp0
 70
     1
102
RTVSPropertyOp1
 70
     1
102
RTVSPropertyOp2
 70
     1
102
RTVSPropertyOp3
 70
     1
102
RTVSPropertyOp4
 70
     1
102
RTVSPropertyOp5
 70
     1
102
RTVSPropertyOp6
 70
     1
102
RTVSPropertyOp7
 70
     1
102
RTVSPropertyOp8
 70
     1
102
RTVSPropertyOp9
 70
     1
102
RTVSPropertyOp10
 70
     1
102
RTVSPropertyOp11
 70
     1
102
RTVSPropertyOp12
 70
     1
102
RTVSPropertyOp13
 70
     1
102
RTVSPropertyOp14
 70
     1
102
RTVSPropertyOp15
 70
     1
102
RTVSPropertyOp16
 70
     1
102
RTVSPropertyOp17
 70
     1
102
RTVSPropertyOp18
 70
     1
102
RTVSPropertyOp19
 70
     1
102
RTVSPropertyOp20
 70
     1
102
RTVSPropertyOp21
 70
     1
102
RTVSPropertyOp22
 70
     1
102
RTVSPropertyOp23
 70
     1
102
RTVSPropertyOp24
 70
     1
102
RTVSPropertyOp25
 70
     1
102
RTVSPropertyOp26
 70
     1
102
RTVSPropertyOp27
 70
     1
102
RTVSPropertyOp28
 70
     1
102
RTVSPropertyOp29
 70
     1
102
RTVSPropertyOp30
 70
     1
102
RTVSPropertyOp31
 70
     1
102
RTVSPropertyOp32
 70
     1
102
RTVSPropertyOp33
 70
     1
102
RTVSPropertyOp34
 70
     1
102
RTVSPropertyOp35
 70
     1
102
RTVSPropertyOp36
 70
     1
102
RTVSPropertyOp37
 70
     1
102
RTVSPropertyOp38
 70
     1
102
RTVSPropertyOp39
 70
     1
102
RTVSPropertyOp40
 70
     1
102
RTVSPropertyOp41
 70
     1
102
RTVSPropertyOp42
 70
     1
102
RTVSPropertyOp43
 70
     1
102
RTVSPropertyOp44
 70
     1
102
RTVSPropertyOp45
 70
     1
102
RTVSPropertyOp46
 70
     1
102
RTVSPropertyOp47
 70
     1
102
RTVSPropertyOp48
 70
     1
102
RTVSPropertyOp49
 70
     1
102
RTVSPropertyOp50
 70
     1
102
RTVSPropertyOp51
 70
     0
102
RTVSPropertyOp52
 70
     0
102
RTVSPropertyOp53
 70
     1
102
RTVSPropertyOp54
 70
     1
102
RTVSPropertyOp55
 70
     1
102
RTVSPropertyOp56
 70
     1
102
RTVSPropertyOp57
 70
     1
102
RTVSPropertyOp58
 70
     1
102
RTVSPropertyOp59
 70
     1
102
RTVSPropertyOp60
 70
     1
102
RTVSPropertyOp61
 70
     1
102
RTVSPropertyOp62
 70
     1
  0
XRECORD
  5
A9A
102
{ACAD_REACTORS
330
A99
102
}
330
A99
100
AcDbXrecord
280
     1
102
RTVSPost2010Prop28
280
     0
102
RTVSPost2010PropOp28
 70
     1
102
RTVSPost2010Prop29
280
     1
102
RTVSPost2010PropOp29
 70
     1
102
RTVSPost2010Prop30
280
     1
102
RTVSPost2010PropOp30
 70
     1
102
RTVSPost2010Prop31
280
     0
102
RTVSPost2010PropOp31
 70
     1
102
RTVSPost2010Prop32
280
     0
102
RTVSPost2010PropOp32
 70
     1
102
RTVSPost2010Prop33
280
     0
102
RTVSPost2010PropOp33
 70
     1
102
RTVSPost2010Prop34
280
     0
102
RTVSPost2010PropOp34
 70
     1
102
RTVSPost2010Prop35
280
     0
102
RTVSPost2010PropOp35
 70
     1
102
RTVSPost2010Prop36
280
     0
102
RTVSPost2010PropOp36
 70
     1
102
RTVSPost2010Prop37
 90
       50
102
RTVSPost2010PropOp37
 70
     1
102
RTVSPost2010Prop38
140
0.0
102
RTVSPost2010PropOp38
 70
     1
102
RTVSPost2010Prop39
140
1.0
102
RTVSPost2010PropOp39
 70
     1
102
RTVSPost2010Prop40
 90
        0
102
RTVSPost2010PropOp40
 70
     1
102
RTVSPost2010Prop41ColorIndex
 90
       18
102
RTVSPost2010Prop41ColorRGB
 90
        0
102
RTVSPost2010PropOp41
 70
     1
102
RTVSPost2010Prop42
 90
       50
102
RTVSPost2010PropOp42
 70
     1
102
RTVSPost2010Prop43
 90
        3
102
RTVSPost2010PropOp43
 70
     1
102
RTVSPost2010Prop44ColorIndex
 90
        5
102
RTVSPost2010Prop44ColorRGB
 90
      255
102
RTVSPost2010PropOp44
 70
     1
102
RTVSPost2010Prop45
280
     0
102
RTVSPost2010PropOp45
 70
     1
102
RTVSPost2010Prop46
 90
       50
102
RTVSPost2010PropOp46
 70
     1
102
RTVSPost2010Prop47
 90
       50
102
RTVSPost2010PropOp47
 70
     1
102
RTVSPost2010Prop48
 90
       50
102
RTVSPost2010PropOp48
 70
     1
102
RTVSPost2010Prop49
280
     0
102
RTVSPost2010PropOp49
 70
     1
102
RTVSPost2010Prop50
 90
       50
102
RTVSPost2010PropOp50
 70
     1
102
RTVSPost2010Prop51ColorIndex
 90
      256
102
RTVSPost2010Prop51ColorRGB
 90
-16777216
102
RTVSPost2010PropOp51
 70
     0
102
RTVSPost2010Prop52
140
1.0
102
RTVSPost2010PropOp52
 70
     0
102
RTVSPost2010Prop53
 90
        2
102
RTVSPost2010PropOp53
 70
     1
102
RTVSPost2010Prop54
  1
strokes_ogs.tif
102
RTVSPost2010PropOp54
 70
     1
102
RTVSPost2010Prop55
280
     0
102
RTVSPost2010PropOp55
 70
     1
102
RTVSPost2010Prop56
140
1.0
102
RTVSPost2010PropOp56
 70
     1
102
RTVSPost2010Prop57
140
1.0
102
RTVSPost2010PropOp57
 70
     1
102
RTVSPropertyOp0
 70
     1
102
RTVSPropertyOp1
 70
     1
102
RTVSPropertyOp2
 70
     1
102
RTVSPropertyOp3
 70
     1
102
RTVSPropertyOp4
 70
     1
102
RTVSPropertyOp5
 70
     1
102
RTVSPropertyOp6
 70
     1
102
RTVSPropertyOp7
 70
     1
102
RTVSPropertyOp8
 70
     1
102
RTVSPropertyOp9
 70
     1
102
RTVSPropertyOp10
 70
     1
102
RTVSPropertyOp11
 70
     1
102
RTVSPropertyOp12
 70
     1
102
RTVSPropertyOp13
 70
     1
102
RTVSPropertyOp14
 70
     1
102
RTVSPropertyOp15
 70
     1
102
RTVSPropertyOp16
 70
     1
102
RTVSPropertyOp17
 70
     1
102
RTVSPropertyOp18
 70
     1
102
RTVSPropertyOp19
 70
     1
102
RTVSPropertyOp20
 70
     1
102
RTVSPropertyOp21
 70
     1
102
RTVSPropertyOp22
 70
     1
102
RTVSPropertyOp23
 70
     1
102
RTVSPropertyOp24
 70
     1
102
RTVSPropertyOp25
 70
     1
102
RTVSPropertyOp26
 70
     1
102
RTVSPropertyOp27
 70
     1
102
RTVSPropertyOp28
 70
     1
102
RTVSPropertyOp29
 70
     1
102
RTVSPropertyOp30
 70
     1
102
RTVSPropertyOp31
 70
     1
102
RTVSPropertyOp32
 70
     1
102
RTVSPropertyOp33
 70
     1
102
RTVSPropertyOp34
 70
     1
102
RTVSPropertyOp35
 70
     1
102
RTVSPropertyOp36
 70
     1
102
RTVSPropertyOp37
 70
     1
102
RTVSPropertyOp38
 70
     1
102
RTVSPropertyOp39
 70
     1
102
RTVSPropertyOp40
 70
     1
102
RTVSPropertyOp41
 70
     1
102
RTVSPropertyOp42
 70
     1
102
RTVSPropertyOp43
 70
     1
102
RTVSPropertyOp44
 70
     1
102
RTVSPropertyOp45
 70
     1
102
RTVSPropertyOp46
 70
     1
102
RTVSPropertyOp47
 70
     1
102
RTVSPropertyOp48
 70
     1
102
RTVSPropertyOp49
 70
     1
102
RTVSPropertyOp50
 70
     1
102
RTVSPropertyOp51
 70
     0
102
RTVSPropertyOp52
 70
     0
102
RTVSPropertyOp53
 70
     1
102
RTVSPropertyOp54
 70
     1
102
RTVSPropertyOp55
 70
     1
102
RTVSPropertyOp56
 70
     1
102
RTVSPropertyOp57
 70
     1
102
RTVSPropertyOp58
 70
     1
102
RTVSPropertyOp59
 70
     1
102
RTVSPropertyOp60
 70
     1
102
RTVSPropertyOp61
 70
     1
102
RTVSPropertyOp62
 70
     1
  0
XRECORD
  5
A9C
102
{ACAD_REACTORS
330
A9B
102
}
330
A9B
100
AcDbXrecord
280
     1
102
RTVSPost2010Prop28
280
     0
102
RTVSPost2010PropOp28
 70
     1
102
RTVSPost2010Prop29
280
     1
102
RTVSPost2010PropOp29
 70
     1
102
RTVSPost2010Prop30
280
     1
102
RTVSPost2010PropOp30
 70
     1
102
RTVSPost2010Prop31
280
     0
102
RTVSPost2010PropOp31
 70
     1
102
RTVSPost2010Prop32
280
     0
102
RTVSPost2010PropOp32
 70
     1
102
RTVSPost2010Prop33
280
     0
102
RTVSPost2010PropOp33
 70
     1
102
RTVSPost2010Prop34
280
     0
102
RTVSPost2010PropOp34
 70
     1
102
RTVSPost2010Prop35
280
     0
102
RTVSPost2010PropOp35
 70
     1
102
RTVSPost2010Prop36
280
     0
102
RTVSPost2010PropOp36
 70
     1
102
RTVSPost2010Prop37
 90
       50
102
RTVSPost2010PropOp37
 70
     1
102
RTVSPost2010Prop38
140
0.0
102
RTVSPost2010PropOp38
 70
     1
102
RTVSPost2010Prop39
140
1.0
102
RTVSPost2010PropOp39
 70
     1
102
RTVSPost2010Prop40
 90
        0
102
RTVSPost2010PropOp40
 70
     1
102
RTVSPost2010Prop41ColorIndex
 90
       18
102
RTVSPost2010Prop41ColorRGB
 90
        0
102
RTVSPost2010PropOp41
 70
     1
102
RTVSPost2010Prop42
 90
       50
102
RTVSPost2010PropOp42
 70
     1
102
RTVSPost2010Prop43
 90
        3
102
RTVSPost2010PropOp43
 70
     1
102
RTVSPost2010Prop44ColorIndex
 90
        5
102
RTVSPost2010Prop44ColorRGB
 90
      255
102
RTVSPost2010PropOp44
 70
     1
102
RTVSPost2010Prop45
280
     0
102
RTVSPost2010PropOp45
 70
     1
102
RTVSPost2010Prop46
 90
       50
102
RTVSPost2010PropOp46
 70
     1
102
RTVSPost2010Prop47
 90
       50
102
RTVSPost2010PropOp47
 70
     1
102
RTVSPost2010Prop48
 90
       50
102
RTVSPost2010PropOp48
 70
     1
102
RTVSPost2010Prop49
280
     0
102
RTVSPost2010PropOp49
 70
     1
102
RTVSPost2010Prop50
 90
       50
102
RTVSPost2010PropOp50
 70
     1
102
RTVSPost2010Prop51ColorIndex
 90
      256
102
RTVSPost2010Prop51ColorRGB
 90
-16777216
102
RTVSPost2010PropOp51
 70
     0
102
RTVSPost2010Prop52
140
1.0
102
RTVSPost2010PropOp52
 70
     0
102
RTVSPost2010Prop53
 90
        2
102
RTVSPost2010PropOp53
 70
     1
102
RTVSPost2010Prop54
  1
strokes_ogs.tif
102
RTVSPost2010PropOp54
 70
     1
102
RTVSPost2010Prop55
280
     0
102
RTVSPost2010PropOp55
 70
     1
102
RTVSPost2010Prop56
140
1.0
102
RTVSPost2010PropOp56
 70
     1
102
RTVSPost2010Prop57
140
1.0
102
RTVSPost2010PropOp57
 70
     1
102
RTVSPropertyOp0
 70
     1
102
RTVSPropertyOp1
 70
     1
102
RTVSPropertyOp2
 70
     1
102
RTVSPropertyOp3
 70
     1
102
RTVSPropertyOp4
 70
     1
102
RTVSPropertyOp5
 70
     1
102
RTVSPropertyOp6
 70
     1
102
RTVSPropertyOp7
 70
     1
102
RTVSPropertyOp8
 70
     1
102
RTVSPropertyOp9
 70
     1
102
RTVSPropertyOp10
 70
     1
102
RTVSPropertyOp11
 70
     1
102
RTVSPropertyOp12
 70
     1
102
RTVSPropertyOp13
 70
     1
102
RTVSPropertyOp14
 70
     1
102
RTVSPropertyOp15
 70
     1
102
RTVSPropertyOp16
 70
     1
102
RTVSPropertyOp17
 70
     1
102
RTVSPropertyOp18
 70
     1
102
RTVSPropertyOp19
 70
     1
102
RTVSPropertyOp20
 70
     1
102
RTVSPropertyOp21
 70
     1
102
RTVSPropertyOp22
 70
     1
102
RTVSPropertyOp23
 70
     1
102
RTVSPropertyOp24
 70
     1
102
RTVSPropertyOp25
 70
     1
102
RTVSPropertyOp26
 70
     1
102
RTVSPropertyOp27
 70
     1
102
RTVSPropertyOp28
 70
     1
102
RTVSPropertyOp29
 70
     1
102
RTVSPropertyOp30
 70
     1
102
RTVSPropertyOp31
 70
     1
102
RTVSPropertyOp32
 70
     1
102
RTVSPropertyOp33
 70
     1
102
RTVSPropertyOp34
 70
     1
102
RTVSPropertyOp35
 70
     1
102
RTVSPropertyOp36
 70
     1
102
RTVSPropertyOp37
 70
     1
102
RTVSPropertyOp38
 70
     1
102
RTVSPropertyOp39
 70
     1
102
RTVSPropertyOp40
 70
     1
102
RTVSPropertyOp41
 70
     1
102
RTVSPropertyOp42
 70
     1
102
RTVSPropertyOp43
 70
     1
102
RTVSPropertyOp44
 70
     1
102
RTVSPropertyOp45
 70
     1
102
RTVSPropertyOp46
 70
     1
102
RTVSPropertyOp47
 70
     1
102
RTVSPropertyOp48
 70
     1
102
RTVSPropertyOp49
 70
     1
102
RTVSPropertyOp50
 70
     1
102
RTVSPropertyOp51
 70
     0
102
RTVSPropertyOp52
 70
     0
102
RTVSPropertyOp53
 70
     1
102
RTVSPropertyOp54
 70
     1
102
RTVSPropertyOp55
 70
     1
102
RTVSPropertyOp56
 70
     1
102
RTVSPropertyOp57
 70
     1
102
RTVSPropertyOp58
 70
     1
102
RTVSPropertyOp59
 70
     1
102
RTVSPropertyOp60
 70
     1
102
RTVSPropertyOp61
 70
     1
102
RTVSPropertyOp62
 70
     1
  0
XRECORD
  5
ABE
102
{ACAD_REACTORS
330
ABD
102
}
330
ABD
100
AcDbXrecord
280
     1
102
RTVSPost2010Prop28
280
     0
102
RTVSPost2010PropOp28
 70
     1
102
RTVSPost2010Prop29
280
     1
102
RTVSPost2010PropOp29
 70
     1
102
RTVSPost2010Prop30
280
     1
102
RTVSPost2010PropOp30
 70
     1
102
RTVSPost2010Prop31
280
     0
102
RTVSPost2010PropOp31
 70
     1
102
RTVSPost2010Prop32
280
     0
102
RTVSPost2010PropOp32
 70
     1
102
RTVSPost2010Prop33
280
     0
102
RTVSPost2010PropOp33
 70
     1
102
RTVSPost2010Prop34
280
     0
102
RTVSPost2010PropOp34
 70
     1
102
RTVSPost2010Prop35
280
     0
102
RTVSPost2010PropOp35
 70
     1
102
RTVSPost2010Prop36
280
     0
102
RTVSPost2010PropOp36
 70
     1
102
RTVSPost2010Prop37
 90
       50
102
RTVSPost2010PropOp37
 70
     1
102
RTVSPost2010Prop38
140
0.0
102
RTVSPost2010PropOp38
 70
     1
102
RTVSPost2010Prop39
140
1.0
102
RTVSPost2010PropOp39
 70
     1
102
RTVSPost2010Prop40
 90
        0
102
RTVSPost2010PropOp40
 70
     1
102
RTVSPost2010Prop41ColorIndex
 90
       18
102
RTVSPost2010Prop41ColorRGB
 90
        0
102
RTVSPost2010PropOp41
 70
     1
102
RTVSPost2010Prop42
 90
       50
102
RTVSPost2010PropOp42
 70
     1
102
RTVSPost2010Prop43
 90
        3
102
RTVSPost2010PropOp43
 70
     1
102
RTVSPost2010Prop44ColorIndex
 90
        5
102
RTVSPost2010Prop44ColorRGB
 90
      255
102
RTVSPost2010PropOp44
 70
     1
102
RTVSPost2010Prop45
280
     0
102
RTVSPost2010PropOp45
 70
     1
102
RTVSPost2010Prop46
 90
       50
102
RTVSPost2010PropOp46
 70
     1
102
RTVSPost2010Prop47
 90
       50
102
RTVSPost2010PropOp47
 70
     1
102
RTVSPost2010Prop48
 90
       50
102
RTVSPost2010PropOp48
 70
     1
102
RTVSPost2010Prop49
280
     0
102
RTVSPost2010PropOp49
 70
     1
102
RTVSPost2010Prop50
 90
       50
102
RTVSPost2010PropOp50
 70
     1
102
RTVSPost2010Prop51ColorIndex
 90
      256
102
RTVSPost2010Prop51ColorRGB
 90
-16777216
102
RTVSPost2010PropOp51
 70
     0
102
RTVSPost2010Prop52
140
1.0
102
RTVSPost2010PropOp52
 70
     0
102
RTVSPost2010Prop53
 90
        2
102
RTVSPost2010PropOp53
 70
     1
102
RTVSPost2010Prop54
  1
strokes_ogs.tif
102
RTVSPost2010PropOp54
 70
     1
102
RTVSPost2010Prop55
280
     0
102
RTVSPost2010PropOp55
 70
     1
102
RTVSPost2010Prop56
140
1.0
102
RTVSPost2010PropOp56
 70
     1
102
RTVSPost2010Prop57
140
1.0
102
RTVSPost2010PropOp57
 70
     1
102
RTVSPropertyOp0
 70
     1
102
RTVSPropertyOp1
 70
     1
102
RTVSPropertyOp2
 70
     1
102
RTVSPropertyOp3
 70
     1
102
RTVSPropertyOp4
 70
     1
102
RTVSPropertyOp5
 70
     1
102
RTVSPropertyOp6
 70
     1
102
RTVSPropertyOp7
 70
     1
102
RTVSPropertyOp8
 70
     1
102
RTVSPropertyOp9
 70
     1
102
RTVSPropertyOp10
 70
     1
102
RTVSPropertyOp11
 70
     1
102
RTVSPropertyOp12
 70
     1
102
RTVSPropertyOp13
 70
     1
102
RTVSPropertyOp14
 70
     1
102
RTVSPropertyOp15
 70
     1
102
RTVSPropertyOp16
 70
     1
102
RTVSPropertyOp17
 70
     1
102
RTVSPropertyOp18
 70
     1
102
RTVSPropertyOp19
 70
     1
102
RTVSPropertyOp20
 70
     1
102
RTVSPropertyOp21
 70
     1
102
RTVSPropertyOp22
 70
     1
102
RTVSPropertyOp23
 70
     1
102
RTVSPropertyOp24
 70
     1
102
RTVSPropertyOp25
 70
     1
102
RTVSPropertyOp26
 70
     1
102
RTVSPropertyOp27
 70
     1
102
RTVSPropertyOp28
 70
     1
102
RTVSPropertyOp29
 70
     1
102
RTVSPropertyOp30
 70
     1
102
RTVSPropertyOp31
 70
     1
102
RTVSPropertyOp32
 70
     1
102
RTVSPropertyOp33
 70
     1
102
RTVSPropertyOp34
 70
     1
102
RTVSPropertyOp35
 70
     1
102
RTVSPropertyOp36
 70
     1
102
RTVSPropertyOp37
 70
     1
102
RTVSPropertyOp38
 70
     1
102
RTVSPropertyOp39
 70
     1
102
RTVSPropertyOp40
 70
     1
102
RTVSPropertyOp41
 70
     1
102
RTVSPropertyOp42
 70
     1
102
RTVSPropertyOp43
 70
     1
102
RTVSPropertyOp44
 70
     1
102
RTVSPropertyOp45
 70
     1
102
RTVSPropertyOp46
 70
     1
102
RTVSPropertyOp47
 70
     1
102
RTVSPropertyOp48
 70
     1
102
RTVSPropertyOp49
 70
     1
102
RTVSPropertyOp50
 70
     1
102
RTVSPropertyOp51
 70
     0
102
RTVSPropertyOp52
 70
     0
102
RTVSPropertyOp53
 70
     1
102
RTVSPropertyOp54
 70
     1
102
RTVSPropertyOp55
 70
     1
102
RTVSPropertyOp56
 70
     1
102
RTVSPropertyOp57
 70
     1
102
RTVSPropertyOp58
 70
     1
102
RTVSPropertyOp59
 70
     1
102
RTVSPropertyOp60
 70
     1
102
RTVSPropertyOp61
 70
     1
102
RTVSPropertyOp62
 70
     1
  0
XRECORD
  5
AB6
102
{ACAD_REACTORS
330
AB5
102
}
330
AB5
100
AcDbXrecord
280
     1
102
RTVSPost2010Prop28
280
     0
102
RTVSPost2010PropOp28
 70
     1
102
RTVSPost2010Prop29
280
     1
102
RTVSPost2010PropOp29
 70
     1
102
RTVSPost2010Prop30
280
     1
102
RTVSPost2010PropOp30
 70
     1
102
RTVSPost2010Prop31
280
     0
102
RTVSPost2010PropOp31
 70
     1
102
RTVSPost2010Prop32
280
     0
102
RTVSPost2010PropOp32
 70
     1
102
RTVSPost2010Prop33
280
     0
102
RTVSPost2010PropOp33
 70
     1
102
RTVSPost2010Prop34
280
     0
102
RTVSPost2010PropOp34
 70
     1
102
RTVSPost2010Prop35
280
     0
102
RTVSPost2010PropOp35
 70
     1
102
RTVSPost2010Prop36
280
     0
102
RTVSPost2010PropOp36
 70
     1
102
RTVSPost2010Prop37
 90
       50
102
RTVSPost2010PropOp37
 70
     1
102
RTVSPost2010Prop38
140
0.0
102
RTVSPost2010PropOp38
 70
     1
102
RTVSPost2010Prop39
140
1.0
102
RTVSPost2010PropOp39
 70
     1
102
RTVSPost2010Prop40
 90
        0
102
RTVSPost2010PropOp40
 70
     1
102
RTVSPost2010Prop41ColorIndex
 90
       18
102
RTVSPost2010Prop41ColorRGB
 90
        0
102
RTVSPost2010PropOp41
 70
     1
102
RTVSPost2010Prop42
 90
       50
102
RTVSPost2010PropOp42
 70
     1
102
RTVSPost2010Prop43
 90
        3
102
RTVSPost2010PropOp43
 70
     1
102
RTVSPost2010Prop44ColorIndex
 90
        5
102
RTVSPost2010Prop44ColorRGB
 90
      255
102
RTVSPost2010PropOp44
 70
     1
102
RTVSPost2010Prop45
280
     0
102
RTVSPost2010PropOp45
 70
     1
102
RTVSPost2010Prop46
 90
       50
102
RTVSPost2010PropOp46
 70
     1
102
RTVSPost2010Prop47
 90
       50
102
RTVSPost2010PropOp47
 70
     1
102
RTVSPost2010Prop48
 90
       50
102
RTVSPost2010PropOp48
 70
     1
102
RTVSPost2010Prop49
280
     0
102
RTVSPost2010PropOp49
 70
     1
102
RTVSPost2010Prop50
 90
       50
102
RTVSPost2010PropOp50
 70
     1
102
RTVSPost2010Prop51ColorIndex
 90
      256
102
RTVSPost2010Prop51ColorRGB
 90
-16777216
102
RTVSPost2010PropOp51
 70
     0
102
RTVSPost2010Prop52
140
1.0
102
RTVSPost2010PropOp52
 70
     0
102
RTVSPost2010Prop53
 90
        2
102
RTVSPost2010PropOp53
 70
     1
102
RTVSPost2010Prop54
  1
strokes_ogs.tif
102
RTVSPost2010PropOp54
 70
     1
102
RTVSPost2010Prop55
280
     0
102
RTVSPost2010PropOp55
 70
     1
102
RTVSPost2010Prop56
140
1.0
102
RTVSPost2010PropOp56
 70
     1
102
RTVSPost2010Prop57
140
1.0
102
RTVSPost2010PropOp57
 70
     1
102
RTVSPropertyOp0
 70
     0
102
RTVSPropertyOp1
 70
     0
102
RTVSPropertyOp2
 70
     0
102
RTVSPropertyOp3
 70
     0
102
RTVSPropertyOp4
 70
     0
102
RTVSPropertyOp5
 70
     0
102
RTVSPropertyOp6
 70
     0
102
RTVSPropertyOp7
 70
     0
102
RTVSPropertyOp8
 70
     0
102
RTVSPropertyOp9
 70
     0
102
RTVSPropertyOp10
 70
     0
102
RTVSPropertyOp11
 70
     0
102
RTVSPropertyOp12
 70
     0
102
RTVSPropertyOp13
 70
     0
102
RTVSPropertyOp14
 70
     2
102
RTVSPropertyOp15
 70
     0
102
RTVSPropertyOp16
 70
     0
102
RTVSPropertyOp17
 70
     0
102
RTVSPropertyOp18
 70
     0
102
RTVSPropertyOp19
 70
     0
102
RTVSPropertyOp20
 70
     0
102
RTVSPropertyOp21
 70
     0
102
RTVSPropertyOp22
 70
     0
102
RTVSPropertyOp23
 70
     0
102
RTVSPropertyOp24
 70
     0
102
RTVSPropertyOp25
 70
     0
102
RTVSPropertyOp26
 70
     0
102
RTVSPropertyOp27
 70
     0
102
RTVSPropertyOp28
 70
     1
102
RTVSPropertyOp29
 70
     1
102
RTVSPropertyOp30
 70
     1
102
RTVSPropertyOp31
 70
     1
102
RTVSPropertyOp32
 70
     1
102
RTVSPropertyOp33
 70
     1
102
RTVSPropertyOp34
 70
     1
102
RTVSPropertyOp35
 70
     1
102
RTVSPropertyOp36
 70
     1
102
RTVSPropertyOp37
 70
     1
102
RTVSPropertyOp38
 70
     1
102
RTVSPropertyOp39
 70
     1
102
RTVSPropertyOp40
 70
     1
102
RTVSPropertyOp41
 70
     1
102
RTVSPropertyOp42
 70
     1
102
RTVSPropertyOp43
 70
     1
102
RTVSPropertyOp44
 70
     1
102
RTVSPropertyOp45
 70
     1
102
RTVSPropertyOp46
 70
     1
102
RTVSPropertyOp47
 70
     1
102
RTVSPropertyOp48
 70
     1
102
RTVSPropertyOp49
 70
     1
102
RTVSPropertyOp50
 70
     1
102
RTVSPropertyOp51
 70
     0
102
RTVSPropertyOp52
 70
     0
102
RTVSPropertyOp53
 70
     1
102
RTVSPropertyOp54
 70
     1
102
RTVSPropertyOp55
 70
     1
102
RTVSPropertyOp56
 70
     1
102
RTVSPropertyOp57
 70
     1
102
RTVSPropertyOp58
 70
     1
102
RTVSPropertyOp59
 70
     1
102
RTVSPropertyOp60
 70
     1
102
RTVSPropertyOp61
 70
     1
102
RTVSPropertyOp62
 70
     1
  0
XRECORD
  5
AB0
102
{ACAD_REACTORS
330
AAF
102
}
330
AAF
100
AcDbXrecord
280
     1
102
RTVSPost2010Prop28
280
     0
102
RTVSPost2010PropOp28
 70
     1
102
RTVSPost2010Prop29
280
     1
102
RTVSPost2010PropOp29
 70
     1
102
RTVSPost2010Prop30
280
     1
102
RTVSPost2010PropOp30
 70
     1
102
RTVSPost2010Prop31
280
     0
102
RTVSPost2010PropOp31
 70
     1
102
RTVSPost2010Prop32
280
     0
102
RTVSPost2010PropOp32
 70
     1
102
RTVSPost2010Prop33
280
     0
102
RTVSPost2010PropOp33
 70
     1
102
RTVSPost2010Prop34
280
     0
102
RTVSPost2010PropOp34
 70
     1
102
RTVSPost2010Prop35
280
     0
102
RTVSPost2010PropOp35
 70
     1
102
RTVSPost2010Prop36
280
     0
102
RTVSPost2010PropOp36
 70
     1
102
RTVSPost2010Prop37
 90
       50
102
RTVSPost2010PropOp37
 70
     1
102
RTVSPost2010Prop38
140
0.0
102
RTVSPost2010PropOp38
 70
     1
102
RTVSPost2010Prop39
140
1.0
102
RTVSPost2010PropOp39
 70
     1
102
RTVSPost2010Prop40
 90
        0
102
RTVSPost2010PropOp40
 70
     1
102
RTVSPost2010Prop41ColorIndex
 90
       18
102
RTVSPost2010Prop41ColorRGB
 90
        0
102
RTVSPost2010PropOp41
 70
     1
102
RTVSPost2010Prop42
 90
       50
102
RTVSPost2010PropOp42
 70
     1
102
RTVSPost2010Prop43
 90
        3
102
RTVSPost2010PropOp43
 70
     1
102
RTVSPost2010Prop44ColorIndex
 90
        5
102
RTVSPost2010Prop44ColorRGB
 90
      255
102
RTVSPost2010PropOp44
 70
     1
102
RTVSPost2010Prop45
280
     0
102
RTVSPost2010PropOp45
 70
     1
102
RTVSPost2010Prop46
 90
       50
102
RTVSPost2010PropOp46
 70
     1
102
RTVSPost2010Prop47
 90
       50
102
RTVSPost2010PropOp47
 70
     1
102
RTVSPost2010Prop48
 90
       50
102
RTVSPost2010PropOp48
 70
     1
102
RTVSPost2010Prop49
280
     0
102
RTVSPost2010PropOp49
 70
     1
102
RTVSPost2010Prop50
 90
       50
102
RTVSPost2010PropOp50
 70
     1
102
RTVSPost2010Prop51ColorIndex
 90
      256
102
RTVSPost2010Prop51ColorRGB
 90
-16777216
102
RTVSPost2010PropOp51
 70
     0
102
RTVSPost2010Prop52
140
1.0
102
RTVSPost2010PropOp52
 70
     0
102
RTVSPost2010Prop53
 90
        2
102
RTVSPost2010PropOp53
 70
     1
102
RTVSPost2010Prop54
  1
strokes_ogs.tif
102
RTVSPost2010PropOp54
 70
     1
102
RTVSPost2010Prop55
280
     0
102
RTVSPost2010PropOp55
 70
     1
102
RTVSPost2010Prop56
140
1.0
102
RTVSPost2010PropOp56
 70
     1
102
RTVSPost2010Prop57
140
1.0
102
RTVSPost2010PropOp57
 70
     1
102
RTVSPropertyOp0
 70
     1
102
RTVSPropertyOp1
 70
     1
102
RTVSPropertyOp2
 70
     1
102
RTVSPropertyOp3
 70
     1
102
RTVSPropertyOp4
 70
     1
102
RTVSPropertyOp5
 70
     1
102
RTVSPropertyOp6
 70
     1
102
RTVSPropertyOp7
 70
     1
102
RTVSPropertyOp8
 70
     1
102
RTVSPropertyOp9
 70
     1
102
RTVSPropertyOp10
 70
     1
102
RTVSPropertyOp11
 70
     1
102
RTVSPropertyOp12
 70
     1
102
RTVSPropertyOp13
 70
     1
102
RTVSPropertyOp14
 70
     1
102
RTVSPropertyOp15
 70
     1
102
RTVSPropertyOp16
 70
     1
102
RTVSPropertyOp17
 70
     1
102
RTVSPropertyOp18
 70
     1
102
RTVSPropertyOp19
 70
     1
102
RTVSPropertyOp20
 70
     1
102
RTVSPropertyOp21
 70
     1
102
RTVSPropertyOp22
 70
     1
102
RTVSPropertyOp23
 70
     1
102
RTVSPropertyOp24
 70
     1
102
RTVSPropertyOp25
 70
     1
102
RTVSPropertyOp26
 70
     1
102
RTVSPropertyOp27
 70
     1
102
RTVSPropertyOp28
 70
     1
102
RTVSPropertyOp29
 70
     1
102
RTVSPropertyOp30
 70
     1
102
RTVSPropertyOp31
 70
     1
102
RTVSPropertyOp32
 70
     1
102
RTVSPropertyOp33
 70
     1
102
RTVSPropertyOp34
 70
     1
102
RTVSPropertyOp35
 70
     1
102
RTVSPropertyOp36
 70
     1
102
RTVSPropertyOp37
 70
     1
102
RTVSPropertyOp38
 70
     1
102
RTVSPropertyOp39
 70
     1
102
RTVSPropertyOp40
 70
     1
102
RTVSPropertyOp41
 70
     1
102
RTVSPropertyOp42
 70
     1
102
RTVSPropertyOp43
 70
     1
102
RTVSPropertyOp44
 70
     1
102
RTVSPropertyOp45
 70
     1
102
RTVSPropertyOp46
 70
     1
102
RTVSPropertyOp47
 70
     1
102
RTVSPropertyOp48
 70
     1
102
RTVSPropertyOp49
 70
     1
102
RTVSPropertyOp50
 70
     1
102
RTVSPropertyOp51
 70
     0
102
RTVSPropertyOp52
 70
     0
102
RTVSPropertyOp53
 70
     1
102
RTVSPropertyOp54
 70
     1
102
RTVSPropertyOp55
 70
     1
102
RTVSPropertyOp56
 70
     1
102
RTVSPropertyOp57
 70
     1
102
RTVSPropertyOp58
 70
     1
102
RTVSPropertyOp59
 70
     1
102
RTVSPropertyOp60
 70
     1
102
RTVSPropertyOp61
 70
     1
102
RTVSPropertyOp62
 70
     1
  0
XRECORD
  5
AB8
102
{ACAD_REACTORS
330
AB7
102
}
330
AB7
100
AcDbXrecord
280
     1
102
RTVSPost2010Prop28
280
     0
102
RTVSPost2010PropOp28
 70
     1
102
RTVSPost2010Prop29
280
     1
102
RTVSPost2010PropOp29
 70
     1
102
RTVSPost2010Prop30
280
     1
102
RTVSPost2010PropOp30
 70
     1
102
RTVSPost2010Prop31
280
     0
102
RTVSPost2010PropOp31
 70
     1
102
RTVSPost2010Prop32
280
     0
102
RTVSPost2010PropOp32
 70
     1
102
RTVSPost2010Prop33
280
     0
102
RTVSPost2010PropOp33
 70
     1
102
RTVSPost2010Prop34
280
     0
102
RTVSPost2010PropOp34
 70
     1
102
RTVSPost2010Prop35
280
     0
102
RTVSPost2010PropOp35
 70
     1
102
RTVSPost2010Prop36
280
     0
102
RTVSPost2010PropOp36
 70
     1
102
RTVSPost2010Prop37
 90
       50
102
RTVSPost2010PropOp37
 70
     1
102
RTVSPost2010Prop38
140
0.0
102
RTVSPost2010PropOp38
 70
     1
102
RTVSPost2010Prop39
140
1.0
102
RTVSPost2010PropOp39
 70
     1
102
RTVSPost2010Prop40
 90
        0
102
RTVSPost2010PropOp40
 70
     1
102
RTVSPost2010Prop41ColorIndex
 90
       18
102
RTVSPost2010Prop41ColorRGB
 90
        0
102
RTVSPost2010PropOp41
 70
     1
102
RTVSPost2010Prop42
 90
       50
102
RTVSPost2010PropOp42
 70
     1
102
RTVSPost2010Prop43
 90
        3
102
RTVSPost2010PropOp43
 70
     1
102
RTVSPost2010Prop44ColorIndex
 90
        5
102
RTVSPost2010Prop44ColorRGB
 90
      255
102
RTVSPost2010PropOp44
 70
     1
102
RTVSPost2010Prop45
280
     0
102
RTVSPost2010PropOp45
 70
     1
102
RTVSPost2010Prop46
 90
       50
102
RTVSPost2010PropOp46
 70
     1
102
RTVSPost2010Prop47
 90
       50
102
RTVSPost2010PropOp47
 70
     1
102
RTVSPost2010Prop48
 90
       50
102
RTVSPost2010PropOp48
 70
     1
102
RTVSPost2010Prop49
280
     0
102
RTVSPost2010PropOp49
 70
     1
102
RTVSPost2010Prop50
 90
       50
102
RTVSPost2010PropOp50
 70
     1
102
RTVSPost2010Prop51ColorIndex
 90
      256
102
RTVSPost2010Prop51ColorRGB
 90
-16777216
102
RTVSPost2010PropOp51
 70
     0
102
RTVSPost2010Prop52
140
1.0
102
RTVSPost2010PropOp52
 70
     0
102
RTVSPost2010Prop53
 90
        2
102
RTVSPost2010PropOp53
 70
     1
102
RTVSPost2010Prop54
  1
strokes_ogs.tif
102
RTVSPost2010PropOp54
 70
     1
102
RTVSPost2010Prop55
280
     0
102
RTVSPost2010PropOp55
 70
     1
102
RTVSPost2010Prop56
140
1.0
102
RTVSPost2010PropOp56
 70
     1
102
RTVSPost2010Prop57
140
1.0
102
RTVSPost2010PropOp57
 70
     1
102
RTVSPropertyOp0
 70
     0
102
RTVSPropertyOp1
 70
     0
102
RTVSPropertyOp2
 70
     0
102
RTVSPropertyOp3
 70
     0
102
RTVSPropertyOp4
 70
     0
102
RTVSPropertyOp5
 70
     0
102
RTVSPropertyOp6
 70
     0
102
RTVSPropertyOp7
 70
     0
102
RTVSPropertyOp8
 70
     0
102
RTVSPropertyOp9
 70
     0
102
RTVSPropertyOp10
 70
     0
102
RTVSPropertyOp11
 70
     0
102
RTVSPropertyOp12
 70
     0
102
RTVSPropertyOp13
 70
     0
102
RTVSPropertyOp14
 70
     2
102
RTVSPropertyOp15
 70
     0
102
RTVSPropertyOp16
 70
     0
102
RTVSPropertyOp17
 70
     0
102
RTVSPropertyOp18
 70
     0
102
RTVSPropertyOp19
 70
     0
102
RTVSPropertyOp20
 70
     0
102
RTVSPropertyOp21
 70
     0
102
RTVSPropertyOp22
 70
     0
102
RTVSPropertyOp23
 70
     0
102
RTVSPropertyOp24
 70
     0
102
RTVSPropertyOp25
 70
     0
102
RTVSPropertyOp26
 70
     0
102
RTVSPropertyOp27
 70
     0
102
RTVSPropertyOp28
 70
     1
102
RTVSPropertyOp29
 70
     1
102
RTVSPropertyOp30
 70
     1
102
RTVSPropertyOp31
 70
     1
102
RTVSPropertyOp32
 70
     1
102
RTVSPropertyOp33
 70
     1
102
RTVSPropertyOp34
 70
     1
102
RTVSPropertyOp35
 70
     1
102
RTVSPropertyOp36
 70
     1
102
RTVSPropertyOp37
 70
     1
102
RTVSPropertyOp38
 70
     1
102
RTVSPropertyOp39
 70
     1
102
RTVSPropertyOp40
 70
     1
102
RTVSPropertyOp41
 70
     1
102
RTVSPropertyOp42
 70
     1
102
RTVSPropertyOp43
 70
     1
102
RTVSPropertyOp44
 70
     1
102
RTVSPropertyOp45
 70
     1
102
RTVSPropertyOp46
 70
     1
102
RTVSPropertyOp47
 70
     1
102
RTVSPropertyOp48
 70
     1
102
RTVSPropertyOp49
 70
     1
102
RTVSPropertyOp50
 70
     1
102
RTVSPropertyOp51
 70
     0
102
RTVSPropertyOp52
 70
     0
102
RTVSPropertyOp53
 70
     1
102
RTVSPropertyOp54
 70
     1
102
RTVSPropertyOp55
 70
     1
102
RTVSPropertyOp56
 70
     1
102
RTVSPropertyOp57
 70
     1
102
RTVSPropertyOp58
 70
     1
102
RTVSPropertyOp59
 70
     1
102
RTVSPropertyOp60
 70
     1
102
RTVSPropertyOp61
 70
     1
102
RTVSPropertyOp62
 70
     1
  0
XRECORD
  5
AA8
102
{ACAD_REACTORS
330
AA7
102
}
330
AA7
100
AcDbXrecord
280
     1
102
RTVSPost2010Prop28
280
     0
102
RTVSPost2010PropOp28
 70
     1
102
RTVSPost2010Prop29
280
     1
102
RTVSPost2010PropOp29
 70
     1
102
RTVSPost2010Prop30
280
     1
102
RTVSPost2010PropOp30
 70
     1
102
RTVSPost2010Prop31
280
     0
102
RTVSPost2010PropOp31
 70
     1
102
RTVSPost2010Prop32
280
     0
102
RTVSPost2010PropOp32
 70
     1
102
RTVSPost2010Prop33
280
     0
102
RTVSPost2010PropOp33
 70
     1
102
RTVSPost2010Prop34
280
     0
102
RTVSPost2010PropOp34
 70
     1
102
RTVSPost2010Prop35
280
     0
102
RTVSPost2010PropOp35
 70
     1
102
RTVSPost2010Prop36
280
     0
102
RTVSPost2010PropOp36
 70
     1
102
RTVSPost2010Prop37
 90
       50
102
RTVSPost2010PropOp37
 70
     1
102
RTVSPost2010Prop38
140
0.0
102
RTVSPost2010PropOp38
 70
     1
102
RTVSPost2010Prop39
140
1.0
102
RTVSPost2010PropOp39
 70
     1
102
RTVSPost2010Prop40
 90
        0
102
RTVSPost2010PropOp40
 70
     1
102
RTVSPost2010Prop41ColorIndex
 90
       18
102
RTVSPost2010Prop41ColorRGB
 90
        0
102
RTVSPost2010PropOp41
 70
     1
102
RTVSPost2010Prop42
 90
       50
102
RTVSPost2010PropOp42
 70
     1
102
RTVSPost2010Prop43
 90
        3
102
RTVSPost2010PropOp43
 70
     1
102
RTVSPost2010Prop44ColorIndex
 90
        5
102
RTVSPost2010Prop44ColorRGB
 90
      255
102
RTVSPost2010PropOp44
 70
     1
102
RTVSPost2010Prop45
280
     0
102
RTVSPost2010PropOp45
 70
     1
102
RTVSPost2010Prop46
 90
       50
102
RTVSPost2010PropOp46
 70
     1
102
RTVSPost2010Prop47
 90
       50
102
RTVSPost2010PropOp47
 70
     1
102
RTVSPost2010Prop48
 90
       50
102
RTVSPost2010PropOp48
 70
     1
102
RTVSPost2010Prop49
280
     0
102
RTVSPost2010PropOp49
 70
     1
102
RTVSPost2010Prop50
 90
       50
102
RTVSPost2010PropOp50
 70
     1
102
RTVSPost2010Prop51ColorIndex
 90
      256
102
RTVSPost2010Prop51ColorRGB
 90
-16777216
102
RTVSPost2010PropOp51
 70
     0
102
RTVSPost2010Prop52
140
1.0
102
RTVSPost2010PropOp52
 70
     0
102
RTVSPost2010Prop53
 90
        2
102
RTVSPost2010PropOp53
 70
     1
102
RTVSPost2010Prop54
  1
strokes_ogs.tif
102
RTVSPost2010PropOp54
 70
     1
102
RTVSPost2010Prop55
280
     0
102
RTVSPost2010PropOp55
 70
     1
102
RTVSPost2010Prop56
140
1.0
102
RTVSPost2010PropOp56
 70
     1
102
RTVSPost2010Prop57
140
1.0
102
RTVSPost2010PropOp57
 70
     1
102
RTVSPropertyOp0
 70
     1
102
RTVSPropertyOp1
 70
     1
102
RTVSPropertyOp2
 70
     1
102
RTVSPropertyOp3
 70
     1
102
RTVSPropertyOp4
 70
     1
102
RTVSPropertyOp5
 70
     1
102
RTVSPropertyOp6
 70
     1
102
RTVSPropertyOp7
 70
     1
102
RTVSPropertyOp8
 70
     1
102
RTVSPropertyOp9
 70
     1
102
RTVSPropertyOp10
 70
     1
102
RTVSPropertyOp11
 70
     1
102
RTVSPropertyOp12
 70
     1
102
RTVSPropertyOp13
 70
     1
102
RTVSPropertyOp14
 70
     1
102
RTVSPropertyOp15
 70
     1
102
RTVSPropertyOp16
 70
     1
102
RTVSPropertyOp17
 70
     1
102
RTVSPropertyOp18
 70
     1
102
RTVSPropertyOp19
 70
     1
102
RTVSPropertyOp20
 70
     1
102
RTVSPropertyOp21
 70
     1
102
RTVSPropertyOp22
 70
     1
102
RTVSPropertyOp23
 70
     1
102
RTVSPropertyOp24
 70
     1
102
RTVSPropertyOp25
 70
     1
102
RTVSPropertyOp26
 70
     1
102
RTVSPropertyOp27
 70
     1
102
RTVSPropertyOp28
 70
     1
102
RTVSPropertyOp29
 70
     1
102
RTVSPropertyOp30
 70
     1
102
RTVSPropertyOp31
 70
     1
102
RTVSPropertyOp32
 70
     1
102
RTVSPropertyOp33
 70
     1
102
RTVSPropertyOp34
 70
     1
102
RTVSPropertyOp35
 70
     1
102
RTVSPropertyOp36
 70
     1
102
RTVSPropertyOp37
 70
     1
102
RTVSPropertyOp38
 70
     1
102
RTVSPropertyOp39
 70
     1
102
RTVSPropertyOp40
 70
     1
102
RTVSPropertyOp41
 70
     1
102
RTVSPropertyOp42
 70
     1
102
RTVSPropertyOp43
 70
     1
102
RTVSPropertyOp44
 70
     1
102
RTVSPropertyOp45
 70
     1
102
RTVSPropertyOp46
 70
     1
102
RTVSPropertyOp47
 70
     1
102
RTVSPropertyOp48
 70
     1
102
RTVSPropertyOp49
 70
     1
102
RTVSPropertyOp50
 70
     1
102
RTVSPropertyOp51
 70
     0
102
RTVSPropertyOp52
 70
     0
102
RTVSPropertyOp53
 70
     1
102
RTVSPropertyOp54
 70
     1
102
RTVSPropertyOp55
 70
     1
102
RTVSPropertyOp56
 70
     1
102
RTVSPropertyOp57
 70
     1
102
RTVSPropertyOp58
 70
     1
102
RTVSPropertyOp59
 70
     1
102
RTVSPropertyOp60
 70
     1
102
RTVSPropertyOp61
 70
     1
102
RTVSPropertyOp62
 70
     1
  0
XRECORD
  5
AC8
102
{ACAD_REACTORS
330
AC7
102
}
330
AC7
100
AcDbXrecord
280
     1
102
RTVSPost2010Prop28
280
     0
102
RTVSPost2010PropOp28
 70
     1
102
RTVSPost2010Prop29
280
     1
102
RTVSPost2010PropOp29
 70
     1
102
RTVSPost2010Prop30
280
     1
102
RTVSPost2010PropOp30
 70
     1
102
RTVSPost2010Prop31
280
     0
102
RTVSPost2010PropOp31
 70
     1
102
RTVSPost2010Prop32
280
     0
102
RTVSPost2010PropOp32
 70
     1
102
RTVSPost2010Prop33
280
     0
102
RTVSPost2010PropOp33
 70
     1
102
RTVSPost2010Prop34
280
     0
102
RTVSPost2010PropOp34
 70
     1
102
RTVSPost2010Prop35
280
     0
102
RTVSPost2010PropOp35
 70
     1
102
RTVSPost2010Prop36
280
     0
102
RTVSPost2010PropOp36
 70
     1
102
RTVSPost2010Prop37
 90
       50
102
RTVSPost2010PropOp37
 70
     1
102
RTVSPost2010Prop38
140
0.0
102
RTVSPost2010PropOp38
 70
     1
102
RTVSPost2010Prop39
140
1.0
102
RTVSPost2010PropOp39
 70
     1
102
RTVSPost2010Prop40
 90
        0
102
RTVSPost2010PropOp40
 70
     1
102
RTVSPost2010Prop41ColorIndex
 90
       18
102
RTVSPost2010Prop41ColorRGB
 90
        0
102
RTVSPost2010PropOp41
 70
     1
102
RTVSPost2010Prop42
 90
       50
102
RTVSPost2010PropOp42
 70
     1
102
RTVSPost2010Prop43
 90
        3
102
RTVSPost2010PropOp43
 70
     1
102
RTVSPost2010Prop44ColorIndex
 90
        5
102
RTVSPost2010Prop44ColorRGB
 90
      255
102
RTVSPost2010PropOp44
 70
     1
102
RTVSPost2010Prop45
280
     0
102
RTVSPost2010PropOp45
 70
     1
102
RTVSPost2010Prop46
 90
       50
102
RTVSPost2010PropOp46
 70
     1
102
RTVSPost2010Prop47
 90
       50
102
RTVSPost2010PropOp47
 70
     1
102
RTVSPost2010Prop48
 90
       50
102
RTVSPost2010PropOp48
 70
     1
102
RTVSPost2010Prop49
280
     0
102
RTVSPost2010PropOp49
 70
     1
102
RTVSPost2010Prop50
 90
       50
102
RTVSPost2010PropOp50
 70
     1
102
RTVSPost2010Prop51ColorIndex
 90
      256
102
RTVSPost2010Prop51ColorRGB
 90
-16777216
102
RTVSPost2010PropOp51
 70
     0
102
RTVSPost2010Prop52
140
1.0
102
RTVSPost2010PropOp52
 70
     0
102
RTVSPost2010Prop53
 90
        2
102
RTVSPost2010PropOp53
 70
     1
102
RTVSPost2010Prop54
  1
strokes_ogs.tif
102
RTVSPost2010PropOp54
 70
     1
102
RTVSPost2010Prop55
280
     0
102
RTVSPost2010PropOp55
 70
     1
102
RTVSPost2010Prop56
140
1.0
102
RTVSPost2010PropOp56
 70
     1
102
RTVSPost2010Prop57
140
1.0
102
RTVSPost2010PropOp57
 70
     1
102
RTVSPropertyOp0
 70
     1
102
RTVSPropertyOp1
 70
     1
102
RTVSPropertyOp2
 70
     1
102
RTVSPropertyOp3
 70
     1
102
RTVSPropertyOp4
 70
     1
102
RTVSPropertyOp5
 70
     1
102
RTVSPropertyOp6
 70
     1
102
RTVSPropertyOp7
 70
     1
102
RTVSPropertyOp8
 70
     1
102
RTVSPropertyOp9
 70
     1
102
RTVSPropertyOp10
 70
     1
102
RTVSPropertyOp11
 70
     1
102
RTVSPropertyOp12
 70
     1
102
RTVSPropertyOp13
 70
     1
102
RTVSPropertyOp14
 70
     1
102
RTVSPropertyOp15
 70
     1
102
RTVSPropertyOp16
 70
     1
102
RTVSPropertyOp17
 70
     1
102
RTVSPropertyOp18
 70
     1
102
RTVSPropertyOp19
 70
     1
102
RTVSPropertyOp20
 70
     1
102
RTVSPropertyOp21
 70
     1
102
RTVSPropertyOp22
 70
     1
102
RTVSPropertyOp23
 70
     1
102
RTVSPropertyOp24
 70
     1
102
RTVSPropertyOp25
 70
     1
102
RTVSPropertyOp26
 70
     1
102
RTVSPropertyOp27
 70
     1
102
RTVSPropertyOp28
 70
     1
102
RTVSPropertyOp29
 70
     1
102
RTVSPropertyOp30
 70
     1
102
RTVSPropertyOp31
 70
     1
102
RTVSPropertyOp32
 70
     1
102
RTVSPropertyOp33
 70
     1
102
RTVSPropertyOp34
 70
     1
102
RTVSPropertyOp35
 70
     1
102
RTVSPropertyOp36
 70
     1
102
RTVSPropertyOp37
 70
     1
102
RTVSPropertyOp38
 70
     1
102
RTVSPropertyOp39
 70
     1
102
RTVSPropertyOp40
 70
     1
102
RTVSPropertyOp41
 70
     1
102
RTVSPropertyOp42
 70
     1
102
RTVSPropertyOp43
 70
     1
102
RTVSPropertyOp44
 70
     1
102
RTVSPropertyOp45
 70
     1
102
RTVSPropertyOp46
 70
     1
102
RTVSPropertyOp47
 70
     1
102
RTVSPropertyOp48
 70
     1
102
RTVSPropertyOp49
 70
     1
102
RTVSPropertyOp50
 70
     1
102
RTVSPropertyOp51
 70
     0
102
RTVSPropertyOp52
 70
     0
102
RTVSPropertyOp53
 70
     1
102
RTVSPropertyOp54
 70
     1
102
RTVSPropertyOp55
 70
     1
102
RTVSPropertyOp56
 70
     1
102
RTVSPropertyOp57
 70
     1
102
RTVSPropertyOp58
 70
     1
102
RTVSPropertyOp59
 70
     1
102
RTVSPropertyOp60
 70
     1
102
RTVSPropertyOp61
 70
     1
102
RTVSPropertyOp62
 70
     1
  0
XRECORD
  5
AC6
102
{ACAD_REACTORS
330
AC5
102
}
330
AC5
100
AcDbXrecord
280
     1
102
RTVSPost2010Prop28
280
     0
102
RTVSPost2010PropOp28
 70
     1
102
RTVSPost2010Prop29
280
     1
102
RTVSPost2010PropOp29
 70
     1
102
RTVSPost2010Prop30
280
     1
102
RTVSPost2010PropOp30
 70
     1
102
RTVSPost2010Prop31
280
     0
102
RTVSPost2010PropOp31
 70
     1
102
RTVSPost2010Prop32
280
     0
102
RTVSPost2010PropOp32
 70
     1
102
RTVSPost2010Prop33
280
     0
102
RTVSPost2010PropOp33
 70
     1
102
RTVSPost2010Prop34
280
     0
102
RTVSPost2010PropOp34
 70
     1
102
RTVSPost2010Prop35
280
     0
102
RTVSPost2010PropOp35
 70
     1
102
RTVSPost2010Prop36
280
     0
102
RTVSPost2010PropOp36
 70
     1
102
RTVSPost2010Prop37
 90
       50
102
RTVSPost2010PropOp37
 70
     1
102
RTVSPost2010Prop38
140
0.0
102
RTVSPost2010PropOp38
 70
     1
102
RTVSPost2010Prop39
140
1.0
102
RTVSPost2010PropOp39
 70
     1
102
RTVSPost2010Prop40
 90
        0
102
RTVSPost2010PropOp40
 70
     1
102
RTVSPost2010Prop41ColorIndex
 90
       18
102
RTVSPost2010Prop41ColorRGB
 90
        0
102
RTVSPost2010PropOp41
 70
     1
102
RTVSPost2010Prop42
 90
       50
102
RTVSPost2010PropOp42
 70
     1
102
RTVSPost2010Prop43
 90
        3
102
RTVSPost2010PropOp43
 70
     1
102
RTVSPost2010Prop44ColorIndex
 90
        5
102
RTVSPost2010Prop44ColorRGB
 90
      255
102
RTVSPost2010PropOp44
 70
     1
102
RTVSPost2010Prop45
280
     0
102
RTVSPost2010PropOp45
 70
     1
102
RTVSPost2010Prop46
 90
       50
102
RTVSPost2010PropOp46
 70
     1
102
RTVSPost2010Prop47
 90
       50
102
RTVSPost2010PropOp47
 70
     1
102
RTVSPost2010Prop48
 90
       50
102
RTVSPost2010PropOp48
 70
     1
102
RTVSPost2010Prop49
280
     0
102
RTVSPost2010PropOp49
 70
     1
102
RTVSPost2010Prop50
 90
       50
102
RTVSPost2010PropOp50
 70
     1
102
RTVSPost2010Prop51ColorIndex
 90
      256
102
RTVSPost2010Prop51ColorRGB
 90
-16777216
102
RTVSPost2010PropOp51
 70
     0
102
RTVSPost2010Prop52
140
1.0
102
RTVSPost2010PropOp52
 70
     0
102
RTVSPost2010Prop53
 90
        2
102
RTVSPost2010PropOp53
 70
     1
102
RTVSPost2010Prop54
  1
strokes_ogs.tif
102
RTVSPost2010PropOp54
 70
     1
102
RTVSPost2010Prop55
280
     0
102
RTVSPost2010PropOp55
 70
     1
102
RTVSPost2010Prop56
140
1.0
102
RTVSPost2010PropOp56
 70
     1
102
RTVSPost2010Prop57
140
1.0
102
RTVSPost2010PropOp57
 70
     1
102
RTVSPropertyOp0
 70
     1
102
RTVSPropertyOp1
 70
     1
102
RTVSPropertyOp2
 70
     1
102
RTVSPropertyOp3
 70
     1
102
RTVSPropertyOp4
 70
     1
102
RTVSPropertyOp5
 70
     1
102
RTVSPropertyOp6
 70
     1
102
RTVSPropertyOp7
 70
     1
102
RTVSPropertyOp8
 70
     1
102
RTVSPropertyOp9
 70
     1
102
RTVSPropertyOp10
 70
     1
102
RTVSPropertyOp11
 70
     1
102
RTVSPropertyOp12
 70
     1
102
RTVSPropertyOp13
 70
     1
102
RTVSPropertyOp14
 70
     1
102
RTVSPropertyOp15
 70
     1
102
RTVSPropertyOp16
 70
     1
102
RTVSPropertyOp17
 70
     1
102
RTVSPropertyOp18
 70
     1
102
RTVSPropertyOp19
 70
     1
102
RTVSPropertyOp20
 70
     1
102
RTVSPropertyOp21
 70
     1
102
RTVSPropertyOp22
 70
     1
102
RTVSPropertyOp23
 70
     1
102
RTVSPropertyOp24
 70
     1
102
RTVSPropertyOp25
 70
     1
102
RTVSPropertyOp26
 70
     1
102
RTVSPropertyOp27
 70
     1
102
RTVSPropertyOp28
 70
     1
102
RTVSPropertyOp29
 70
     1
102
RTVSPropertyOp30
 70
     1
102
RTVSPropertyOp31
 70
     1
102
RTVSPropertyOp32
 70
     1
102
RTVSPropertyOp33
 70
     1
102
RTVSPropertyOp34
 70
     1
102
RTVSPropertyOp35
 70
     1
102
RTVSPropertyOp36
 70
     1
102
RTVSPropertyOp37
 70
     1
102
RTVSPropertyOp38
 70
     1
102
RTVSPropertyOp39
 70
     1
102
RTVSPropertyOp40
 70
     1
102
RTVSPropertyOp41
 70
     1
102
RTVSPropertyOp42
 70
     1
102
RTVSPropertyOp43
 70
     1
102
RTVSPropertyOp44
 70
     1
102
RTVSPropertyOp45
 70
     1
102
RTVSPropertyOp46
 70
     1
102
RTVSPropertyOp47
 70
     1
102
RTVSPropertyOp48
 70
     1
102
RTVSPropertyOp49
 70
     1
102
RTVSPropertyOp50
 70
     1
102
RTVSPropertyOp51
 70
     0
102
RTVSPropertyOp52
 70
     0
102
RTVSPropertyOp53
 70
     1
102
RTVSPropertyOp54
 70
     1
102
RTVSPropertyOp55
 70
     1
102
RTVSPropertyOp56
 70
     1
102
RTVSPropertyOp57
 70
     1
102
RTVSPropertyOp58
 70
     1
102
RTVSPropertyOp59
 70
     1
102
RTVSPropertyOp60
 70
     1
102
RTVSPropertyOp61
 70
     1
102
RTVSPropertyOp62
 70
     1
  0
XRECORD
  5
AC0
102
{ACAD_REACTORS
330
ABF
102
}
330
ABF
100
AcDbXrecord
280
     1
102
RTVSPost2010Prop28
280
     0
102
RTVSPost2010PropOp28
 70
     1
102
RTVSPost2010Prop29
280
     1
102
RTVSPost2010PropOp29
 70
     1
102
RTVSPost2010Prop30
280
     1
102
RTVSPost2010PropOp30
 70
     1
102
RTVSPost2010Prop31
280
     0
102
RTVSPost2010PropOp31
 70
     1
102
RTVSPost2010Prop32
280
     0
102
RTVSPost2010PropOp32
 70
     1
102
RTVSPost2010Prop33
280
     0
102
RTVSPost2010PropOp33
 70
     1
102
RTVSPost2010Prop34
280
     0
102
RTVSPost2010PropOp34
 70
     1
102
RTVSPost2010Prop35
280
     0
102
RTVSPost2010PropOp35
 70
     1
102
RTVSPost2010Prop36
280
     0
102
RTVSPost2010PropOp36
 70
     1
102
RTVSPost2010Prop37
 90
       50
102
RTVSPost2010PropOp37
 70
     1
102
RTVSPost2010Prop38
140
0.0
102
RTVSPost2010PropOp38
 70
     1
102
RTVSPost2010Prop39
140
1.0
102
RTVSPost2010PropOp39
 70
     1
102
RTVSPost2010Prop40
 90
        0
102
RTVSPost2010PropOp40
 70
     1
102
RTVSPost2010Prop41ColorIndex
 90
       18
102
RTVSPost2010Prop41ColorRGB
 90
        0
102
RTVSPost2010PropOp41
 70
     1
102
RTVSPost2010Prop42
 90
       50
102
RTVSPost2010PropOp42
 70
     1
102
RTVSPost2010Prop43
 90
        3
102
RTVSPost2010PropOp43
 70
     1
102
RTVSPost2010Prop44ColorIndex
 90
        5
102
RTVSPost2010Prop44ColorRGB
 90
      255
102
RTVSPost2010PropOp44
 70
     1
102
RTVSPost2010Prop45
280
     0
102
RTVSPost2010PropOp45
 70
     1
102
RTVSPost2010Prop46
 90
       50
102
RTVSPost2010PropOp46
 70
     1
102
RTVSPost2010Prop47
 90
       50
102
RTVSPost2010PropOp47
 70
     1
102
RTVSPost2010Prop48
 90
       50
102
RTVSPost2010PropOp48
 70
     1
102
RTVSPost2010Prop49
280
     0
102
RTVSPost2010PropOp49
 70
     1
102
RTVSPost2010Prop50
 90
       50
102
RTVSPost2010PropOp50
 70
     1
102
RTVSPost2010Prop51ColorIndex
 90
      256
102
RTVSPost2010Prop51ColorRGB
 90
-16777216
102
RTVSPost2010PropOp51
 70
     0
102
RTVSPost2010Prop52
140
1.0
102
RTVSPost2010PropOp52
 70
     0
102
RTVSPost2010Prop53
 90
        2
102
RTVSPost2010PropOp53
 70
     1
102
RTVSPost2010Prop54
  1
strokes_ogs.tif
102
RTVSPost2010PropOp54
 70
     1
102
RTVSPost2010Prop55
280
     0
102
RTVSPost2010PropOp55
 70
     1
102
RTVSPost2010Prop56
140
1.0
102
RTVSPost2010PropOp56
 70
     1
102
RTVSPost2010Prop57
140
1.0
102
RTVSPost2010PropOp57
 70
     1
102
RTVSPropertyOp0
 70
     1
102
RTVSPropertyOp1
 70
     1
102
RTVSPropertyOp2
 70
     1
102
RTVSPropertyOp3
 70
     1
102
RTVSPropertyOp4
 70
     1
102
RTVSPropertyOp5
 70
     1
102
RTVSPropertyOp6
 70
     1
102
RTVSPropertyOp7
 70
     1
102
RTVSPropertyOp8
 70
     1
102
RTVSPropertyOp9
 70
     1
102
RTVSPropertyOp10
 70
     1
102
RTVSPropertyOp11
 70
     1
102
RTVSPropertyOp12
 70
     1
102
RTVSPropertyOp13
 70
     1
102
RTVSPropertyOp14
 70
     1
102
RTVSPropertyOp15
 70
     1
102
RTVSPropertyOp16
 70
     1
102
RTVSPropertyOp17
 70
     1
102
RTVSPropertyOp18
 70
     1
102
RTVSPropertyOp19
 70
     1
102
RTVSPropertyOp20
 70
     1
102
RTVSPropertyOp21
 70
     1
102
RTVSPropertyOp22
 70
     1
102
RTVSPropertyOp23
 70
     1
102
RTVSPropertyOp24
 70
     1
102
RTVSPropertyOp25
 70
     1
102
RTVSPropertyOp26
 70
     1
102
RTVSPropertyOp27
 70
     1
102
RTVSPropertyOp28
 70
     1
102
RTVSPropertyOp29
 70
     1
102
RTVSPropertyOp30
 70
     1
102
RTVSPropertyOp31
 70
     1
102
RTVSPropertyOp32
 70
     1
102
RTVSPropertyOp33
 70
     1
102
RTVSPropertyOp34
 70
     1
102
RTVSPropertyOp35
 70
     1
102
RTVSPropertyOp36
 70
     1
102
RTVSPropertyOp37
 70
     1
102
RTVSPropertyOp38
 70
     1
102
RTVSPropertyOp39
 70
     1
102
RTVSPropertyOp40
 70
     1
102
RTVSPropertyOp41
 70
     1
102
RTVSPropertyOp42
 70
     1
102
RTVSPropertyOp43
 70
     1
102
RTVSPropertyOp44
 70
     1
102
RTVSPropertyOp45
 70
     1
102
RTVSPropertyOp46
 70
     1
102
RTVSPropertyOp47
 70
     1
102
RTVSPropertyOp48
 70
     1
102
RTVSPropertyOp49
 70
     1
102
RTVSPropertyOp50
 70
     1
102
RTVSPropertyOp51
 70
     0
102
RTVSPropertyOp52
 70
     0
102
RTVSPropertyOp53
 70
     1
102
RTVSPropertyOp54
 70
     1
102
RTVSPropertyOp55
 70
     1
102
RTVSPropertyOp56
 70
     1
102
RTVSPropertyOp57
 70
     1
102
RTVSPropertyOp58
 70
     1
102
RTVSPropertyOp59
 70
     1
102
RTVSPropertyOp60
 70
     1
102
RTVSPropertyOp61
 70
     1
102
RTVSPropertyOp62
 70
     1
  0
XRECORD
  5
AC2
102
{ACAD_REACTORS
330
AC1
102
}
330
AC1
100
AcDbXrecord
280
     1
102
RTVSPost2010Prop28
280
     0
102
RTVSPost2010PropOp28
 70
     1
102
RTVSPost2010Prop29
280
     1
102
RTVSPost2010PropOp29
 70
     1
102
RTVSPost2010Prop30
280
     1
102
RTVSPost2010PropOp30
 70
     1
102
RTVSPost2010Prop31
280
     0
102
RTVSPost2010PropOp31
 70
     1
102
RTVSPost2010Prop32
280
     0
102
RTVSPost2010PropOp32
 70
     1
102
RTVSPost2010Prop33
280
     0
102
RTVSPost2010PropOp33
 70
     1
102
RTVSPost2010Prop34
280
     0
102
RTVSPost2010PropOp34
 70
     1
102
RTVSPost2010Prop35
280
     0
102
RTVSPost2010PropOp35
 70
     1
102
RTVSPost2010Prop36
280
     0
102
RTVSPost2010PropOp36
 70
     1
102
RTVSPost2010Prop37
 90
       50
102
RTVSPost2010PropOp37
 70
     1
102
RTVSPost2010Prop38
140
0.0
102
RTVSPost2010PropOp38
 70
     1
102
RTVSPost2010Prop39
140
1.0
102
RTVSPost2010PropOp39
 70
     1
102
RTVSPost2010Prop40
 90
        0
102
RTVSPost2010PropOp40
 70
     1
102
RTVSPost2010Prop41ColorIndex
 90
       18
102
RTVSPost2010Prop41ColorRGB
 90
        0
102
RTVSPost2010PropOp41
 70
     1
102
RTVSPost2010Prop42
 90
       50
102
RTVSPost2010PropOp42
 70
     1
102
RTVSPost2010Prop43
 90
        3
102
RTVSPost2010PropOp43
 70
     1
102
RTVSPost2010Prop44ColorIndex
 90
        5
102
RTVSPost2010Prop44ColorRGB
 90
      255
102
RTVSPost2010PropOp44
 70
     1
102
RTVSPost2010Prop45
280
     0
102
RTVSPost2010PropOp45
 70
     1
102
RTVSPost2010Prop46
 90
       50
102
RTVSPost2010PropOp46
 70
     1
102
RTVSPost2010Prop47
 90
       50
102
RTVSPost2010PropOp47
 70
     1
102
RTVSPost2010Prop48
 90
       50
102
RTVSPost2010PropOp48
 70
     1
102
RTVSPost2010Prop49
280
     0
102
RTVSPost2010PropOp49
 70
     1
102
RTVSPost2010Prop50
 90
       50
102
RTVSPost2010PropOp50
 70
     1
102
RTVSPost2010Prop51ColorIndex
 90
      256
102
RTVSPost2010Prop51ColorRGB
 90
-16777216
102
RTVSPost2010PropOp51
 70
     0
102
RTVSPost2010Prop52
140
1.0
102
RTVSPost2010PropOp52
 70
     0
102
RTVSPost2010Prop53
 90
        2
102
RTVSPost2010PropOp53
 70
     1
102
RTVSPost2010Prop54
  1
strokes_ogs.tif
102
RTVSPost2010PropOp54
 70
     1
102
RTVSPost2010Prop55
280
     0
102
RTVSPost2010PropOp55
 70
     1
102
RTVSPost2010Prop56
140
1.0
102
RTVSPost2010PropOp56
 70
     1
102
RTVSPost2010Prop57
140
1.0
102
RTVSPost2010PropOp57
 70
     1
102
RTVSPropertyOp0
 70
     1
102
RTVSPropertyOp1
 70
     1
102
RTVSPropertyOp2
 70
     1
102
RTVSPropertyOp3
 70
     1
102
RTVSPropertyOp4
 70
     1
102
RTVSPropertyOp5
 70
     1
102
RTVSPropertyOp6
 70
     1
102
RTVSPropertyOp7
 70
     1
102
RTVSPropertyOp8
 70
     1
102
RTVSPropertyOp9
 70
     1
102
RTVSPropertyOp10
 70
     1
102
RTVSPropertyOp11
 70
     1
102
RTVSPropertyOp12
 70
     1
102
RTVSPropertyOp13
 70
     1
102
RTVSPropertyOp14
 70
     1
102
RTVSPropertyOp15
 70
     1
102
RTVSPropertyOp16
 70
     1
102
RTVSPropertyOp17
 70
     1
102
RTVSPropertyOp18
 70
     1
102
RTVSPropertyOp19
 70
     1
102
RTVSPropertyOp20
 70
     1
102
RTVSPropertyOp21
 70
     1
102
RTVSPropertyOp22
 70
     1
102
RTVSPropertyOp23
 70
     1
102
RTVSPropertyOp24
 70
     1
102
RTVSPropertyOp25
 70
     1
102
RTVSPropertyOp26
 70
     1
102
RTVSPropertyOp27
 70
     1
102
RTVSPropertyOp28
 70
     1
102
RTVSPropertyOp29
 70
     1
102
RTVSPropertyOp30
 70
     1
102
RTVSPropertyOp31
 70
     1
102
RTVSPropertyOp32
 70
     1
102
RTVSPropertyOp33
 70
     1
102
RTVSPropertyOp34
 70
     1
102
RTVSPropertyOp35
 70
     1
102
RTVSPropertyOp36
 70
     1
102
RTVSPropertyOp37
 70
     1
102
RTVSPropertyOp38
 70
     1
102
RTVSPropertyOp39
 70
     1
102
RTVSPropertyOp40
 70
     1
102
RTVSPropertyOp41
 70
     1
102
RTVSPropertyOp42
 70
     1
102
RTVSPropertyOp43
 70
     1
102
RTVSPropertyOp44
 70
     1
102
RTVSPropertyOp45
 70
     1
102
RTVSPropertyOp46
 70
     1
102
RTVSPropertyOp47
 70
     1
102
RTVSPropertyOp48
 70
     1
102
RTVSPropertyOp49
 70
     1
102
RTVSPropertyOp50
 70
     1
102
RTVSPropertyOp51
 70
     0
102
RTVSPropertyOp52
 70
     0
102
RTVSPropertyOp53
 70
     1
102
RTVSPropertyOp54
 70
     1
102
RTVSPropertyOp55
 70
     1
102
RTVSPropertyOp56
 70
     1
102
RTVSPropertyOp57
 70
     1
102
RTVSPropertyOp58
 70
     1
102
RTVSPropertyOp59
 70
     1
102
RTVSPropertyOp60
 70
     1
102
RTVSPropertyOp61
 70
     1
102
RTVSPropertyOp62
 70
     1
  0
XRECORD
  5
AAE
102
{ACAD_REACTORS
330
AAD
102
}
330
AAD
100
AcDbXrecord
280
     1
102
RTVSPost2010Prop28
280
     0
102
RTVSPost2010PropOp28
 70
     1
102
RTVSPost2010Prop29
280
     1
102
RTVSPost2010PropOp29
 70
     1
102
RTVSPost2010Prop30
280
     1
102
RTVSPost2010PropOp30
 70
     1
102
RTVSPost2010Prop31
280
     0
102
RTVSPost2010PropOp31
 70
     1
102
RTVSPost2010Prop32
280
     0
102
RTVSPost2010PropOp32
 70
     1
102
RTVSPost2010Prop33
280
     0
102
RTVSPost2010PropOp33
 70
     1
102
RTVSPost2010Prop34
280
     0
102
RTVSPost2010PropOp34
 70
     1
102
RTVSPost2010Prop35
280
     0
102
RTVSPost2010PropOp35
 70
     1
102
RTVSPost2010Prop36
280
     0
102
RTVSPost2010PropOp36
 70
     1
102
RTVSPost2010Prop37
 90
       50
102
RTVSPost2010PropOp37
 70
     1
102
RTVSPost2010Prop38
140
0.0
102
RTVSPost2010PropOp38
 70
     1
102
RTVSPost2010Prop39
140
1.0
102
RTVSPost2010PropOp39
 70
     1
102
RTVSPost2010Prop40
 90
        0
102
RTVSPost2010PropOp40
 70
     1
102
RTVSPost2010Prop41ColorIndex
 90
       18
102
RTVSPost2010Prop41ColorRGB
 90
        0
102
RTVSPost2010PropOp41
 70
     1
102
RTVSPost2010Prop42
 90
       50
102
RTVSPost2010PropOp42
 70
     1
102
RTVSPost2010Prop43
 90
        3
102
RTVSPost2010PropOp43
 70
     1
102
RTVSPost2010Prop44ColorIndex
 90
        5
102
RTVSPost2010Prop44ColorRGB
 90
      255
102
RTVSPost2010PropOp44
 70
     1
102
RTVSPost2010Prop45
280
     0
102
RTVSPost2010PropOp45
 70
     1
102
RTVSPost2010Prop46
 90
       50
102
RTVSPost2010PropOp46
 70
     1
102
RTVSPost2010Prop47
 90
       50
102
RTVSPost2010PropOp47
 70
     1
102
RTVSPost2010Prop48
 90
       50
102
RTVSPost2010PropOp48
 70
     1
102
RTVSPost2010Prop49
280
     0
102
RTVSPost2010PropOp49
 70
     1
102
RTVSPost2010Prop50
 90
       50
102
RTVSPost2010PropOp50
 70
     1
102
RTVSPost2010Prop51ColorIndex
 90
      256
102
RTVSPost2010Prop51ColorRGB
 90
-16777216
102
RTVSPost2010PropOp51
 70
     0
102
RTVSPost2010Prop52
140
1.0
102
RTVSPost2010PropOp52
 70
     0
102
RTVSPost2010Prop53
 90
        2
102
RTVSPost2010PropOp53
 70
     1
102
RTVSPost2010Prop54
  1
strokes_ogs.tif
102
RTVSPost2010PropOp54
 70
     1
102
RTVSPost2010Prop55
280
     0
102
RTVSPost2010PropOp55
 70
     1
102
RTVSPost2010Prop56
140
1.0
102
RTVSPost2010PropOp56
 70
     1
102
RTVSPost2010Prop57
140
1.0
102
RTVSPost2010PropOp57
 70
     1
102
RTVSPropertyOp0
 70
     1
102
RTVSPropertyOp1
 70
     1
102
RTVSPropertyOp2
 70
     1
102
RTVSPropertyOp3
 70
     1
102
RTVSPropertyOp4
 70
     1
102
RTVSPropertyOp5
 70
     1
102
RTVSPropertyOp6
 70
     1
102
RTVSPropertyOp7
 70
     1
102
RTVSPropertyOp8
 70
     1
102
RTVSPropertyOp9
 70
     1
102
RTVSPropertyOp10
 70
     1
102
RTVSPropertyOp11
 70
     1
102
RTVSPropertyOp12
 70
     1
102
RTVSPropertyOp13
 70
     1
102
RTVSPropertyOp14
 70
     1
102
RTVSPropertyOp15
 70
     1
102
RTVSPropertyOp16
 70
     1
102
RTVSPropertyOp17
 70
     1
102
RTVSPropertyOp18
 70
     1
102
RTVSPropertyOp19
 70
     1
102
RTVSPropertyOp20
 70
     1
102
RTVSPropertyOp21
 70
     1
102
RTVSPropertyOp22
 70
     1
102
RTVSPropertyOp23
 70
     1
102
RTVSPropertyOp24
 70
     1
102
RTVSPropertyOp25
 70
     1
102
RTVSPropertyOp26
 70
     1
102
RTVSPropertyOp27
 70
     1
102
RTVSPropertyOp28
 70
     1
102
RTVSPropertyOp29
 70
     1
102
RTVSPropertyOp30
 70
     1
102
RTVSPropertyOp31
 70
     1
102
RTVSPropertyOp32
 70
     1
102
RTVSPropertyOp33
 70
     1
102
RTVSPropertyOp34
 70
     1
102
RTVSPropertyOp35
 70
     1
102
RTVSPropertyOp36
 70
     1
102
RTVSPropertyOp37
 70
     1
102
RTVSPropertyOp38
 70
     1
102
RTVSPropertyOp39
 70
     1
102
RTVSPropertyOp40
 70
     1
102
RTVSPropertyOp41
 70
     1
102
RTVSPropertyOp42
 70
     1
102
RTVSPropertyOp43
 70
     1
102
RTVSPropertyOp44
 70
     1
102
RTVSPropertyOp45
 70
     1
102
RTVSPropertyOp46
 70
     1
102
RTVSPropertyOp47
 70
     1
102
RTVSPropertyOp48
 70
     1
102
RTVSPropertyOp49
 70
     1
102
RTVSPropertyOp50
 70
     1
102
RTVSPropertyOp51
 70
     0
102
RTVSPropertyOp52
 70
     0
102
RTVSPropertyOp53
 70
     1
102
RTVSPropertyOp54
 70
     1
102
RTVSPropertyOp55
 70
     1
102
RTVSPropertyOp56
 70
     1
102
RTVSPropertyOp57
 70
     1
102
RTVSPropertyOp58
 70
     1
102
RTVSPropertyOp59
 70
     1
102
RTVSPropertyOp60
 70
     1
102
RTVSPropertyOp61
 70
     1
102
RTVSPropertyOp62
 70
     1
  0
XRECORD
  5
ABC
102
{ACAD_REACTORS
330
ABB
102
}
330
ABB
100
AcDbXrecord
280
     1
102
RTVSPost2010Prop28
280
     0
102
RTVSPost2010PropOp28
 70
     1
102
RTVSPost2010Prop29
280
     1
102
RTVSPost2010PropOp29
 70
     1
102
RTVSPost2010Prop30
280
     1
102
RTVSPost2010PropOp30
 70
     1
102
RTVSPost2010Prop31
280
     0
102
RTVSPost2010PropOp31
 70
     1
102
RTVSPost2010Prop32
280
     0
102
RTVSPost2010PropOp32
 70
     1
102
RTVSPost2010Prop33
280
     0
102
RTVSPost2010PropOp33
 70
     1
102
RTVSPost2010Prop34
280
     0
102
RTVSPost2010PropOp34
 70
     1
102
RTVSPost2010Prop35
280
     0
102
RTVSPost2010PropOp35
 70
     1
102
RTVSPost2010Prop36
280
     0
102
RTVSPost2010PropOp36
 70
     1
102
RTVSPost2010Prop37
 90
       50
102
RTVSPost2010PropOp37
 70
     1
102
RTVSPost2010Prop38
140
0.0
102
RTVSPost2010PropOp38
 70
     1
102
RTVSPost2010Prop39
140
1.0
102
RTVSPost2010PropOp39
 70
     1
102
RTVSPost2010Prop40
 90
        0
102
RTVSPost2010PropOp40
 70
     1
102
RTVSPost2010Prop41ColorIndex
 90
       18
102
RTVSPost2010Prop41ColorRGB
 90
        0
102
RTVSPost2010PropOp41
 70
     1
102
RTVSPost2010Prop42
 90
       50
102
RTVSPost2010PropOp42
 70
     1
102
RTVSPost2010Prop43
 90
        3
102
RTVSPost2010PropOp43
 70
     1
102
RTVSPost2010Prop44ColorIndex
 90
        5
102
RTVSPost2010Prop44ColorRGB
 90
      255
102
RTVSPost2010PropOp44
 70
     1
102
RTVSPost2010Prop45
280
     0
102
RTVSPost2010PropOp45
 70
     1
102
RTVSPost2010Prop46
 90
       50
102
RTVSPost2010PropOp46
 70
     1
102
RTVSPost2010Prop47
 90
       50
102
RTVSPost2010PropOp47
 70
     1
102
RTVSPost2010Prop48
 90
       50
102
RTVSPost2010PropOp48
 70
     1
102
RTVSPost2010Prop49
280
     0
102
RTVSPost2010PropOp49
 70
     1
102
RTVSPost2010Prop50
 90
       50
102
RTVSPost2010PropOp50
 70
     1
102
RTVSPost2010Prop51ColorIndex
 90
      256
102
RTVSPost2010Prop51ColorRGB
 90
-16777216
102
RTVSPost2010PropOp51
 70
     0
102
RTVSPost2010Prop52
140
1.0
102
RTVSPost2010PropOp52
 70
     0
102
RTVSPost2010Prop53
 90
        2
102
RTVSPost2010PropOp53
 70
     1
102
RTVSPost2010Prop54
  1
strokes_ogs.tif
102
RTVSPost2010PropOp54
 70
     1
102
RTVSPost2010Prop55
280
     0
102
RTVSPost2010PropOp55
 70
     1
102
RTVSPost2010Prop56
140
1.0
102
RTVSPost2010PropOp56
 70
     1
102
RTVSPost2010Prop57
140
1.0
102
RTVSPost2010PropOp57
 70
     1
102
RTVSPropertyOp0
 70
     1
102
RTVSPropertyOp1
 70
     1
102
RTVSPropertyOp2
 70
     1
102
RTVSPropertyOp3
 70
     1
102
RTVSPropertyOp4
 70
     1
102
RTVSPropertyOp5
 70
     1
102
RTVSPropertyOp6
 70
     1
102
RTVSPropertyOp7
 70
     1
102
RTVSPropertyOp8
 70
     1
102
RTVSPropertyOp9
 70
     1
102
RTVSPropertyOp10
 70
     1
102
RTVSPropertyOp11
 70
     1
102
RTVSPropertyOp12
 70
     1
102
RTVSPropertyOp13
 70
     1
102
RTVSPropertyOp14
 70
     1
102
RTVSPropertyOp15
 70
     1
102
RTVSPropertyOp16
 70
     1
102
RTVSPropertyOp17
 70
     1
102
RTVSPropertyOp18
 70
     1
102
RTVSPropertyOp19
 70
     1
102
RTVSPropertyOp20
 70
     1
102
RTVSPropertyOp21
 70
     1
102
RTVSPropertyOp22
 70
     1
102
RTVSPropertyOp23
 70
     1
102
RTVSPropertyOp24
 70
     1
102
RTVSPropertyOp25
 70
     1
102
RTVSPropertyOp26
 70
     1
102
RTVSPropertyOp27
 70
     1
102
RTVSPropertyOp28
 70
     1
102
RTVSPropertyOp29
 70
     1
102
RTVSPropertyOp30
 70
     1
102
RTVSPropertyOp31
 70
     1
102
RTVSPropertyOp32
 70
     1
102
RTVSPropertyOp33
 70
     1
102
RTVSPropertyOp34
 70
     1
102
RTVSPropertyOp35
 70
     1
102
RTVSPropertyOp36
 70
     1
102
RTVSPropertyOp37
 70
     1
102
RTVSPropertyOp38
 70
     1
102
RTVSPropertyOp39
 70
     1
102
RTVSPropertyOp40
 70
     1
102
RTVSPropertyOp41
 70
     1
102
RTVSPropertyOp42
 70
     1
102
RTVSPropertyOp43
 70
     1
102
RTVSPropertyOp44
 70
     1
102
RTVSPropertyOp45
 70
     1
102
RTVSPropertyOp46
 70
     1
102
RTVSPropertyOp47
 70
     1
102
RTVSPropertyOp48
 70
     1
102
RTVSPropertyOp49
 70
     1
102
RTVSPropertyOp50
 70
     1
102
RTVSPropertyOp51
 70
     0
102
RTVSPropertyOp52
 70
     0
102
RTVSPropertyOp53
 70
     1
102
RTVSPropertyOp54
 70
     1
102
RTVSPropertyOp55
 70
     1
102
RTVSPropertyOp56
 70
     1
102
RTVSPropertyOp57
 70
     1
102
RTVSPropertyOp58
 70
     1
102
RTVSPropertyOp59
 70
     1
102
RTVSPropertyOp60
 70
     1
102
RTVSPropertyOp61
 70
     1
102
RTVSPropertyOp62
 70
     1
  0
XRECORD
  5
AC4
102
{ACAD_REACTORS
330
AC3
102
}
330
AC3
100
AcDbXrecord
280
     1
102
RTVSPost2010Prop28
280
     0
102
RTVSPost2010PropOp28
 70
     1
102
RTVSPost2010Prop29
280
     1
102
RTVSPost2010PropOp29
 70
     1
102
RTVSPost2010Prop30
280
     1
102
RTVSPost2010PropOp30
 70
     1
102
RTVSPost2010Prop31
280
     0
102
RTVSPost2010PropOp31
 70
     1
102
RTVSPost2010Prop32
280
     0
102
RTVSPost2010PropOp32
 70
     1
102
RTVSPost2010Prop33
280
     0
102
RTVSPost2010PropOp33
 70
     1
102
RTVSPost2010Prop34
280
     0
102
RTVSPost2010PropOp34
 70
     1
102
RTVSPost2010Prop35
280
     0
102
RTVSPost2010PropOp35
 70
     1
102
RTVSPost2010Prop36
280
     0
102
RTVSPost2010PropOp36
 70
     1
102
RTVSPost2010Prop37
 90
       50
102
RTVSPost2010PropOp37
 70
     1
102
RTVSPost2010Prop38
140
0.0
102
RTVSPost2010PropOp38
 70
     1
102
RTVSPost2010Prop39
140
1.0
102
RTVSPost2010PropOp39
 70
     1
102
RTVSPost2010Prop40
 90
        0
102
RTVSPost2010PropOp40
 70
     1
102
RTVSPost2010Prop41ColorIndex
 90
       18
102
RTVSPost2010Prop41ColorRGB
 90
        0
102
RTVSPost2010PropOp41
 70
     1
102
RTVSPost2010Prop42
 90
       50
102
RTVSPost2010PropOp42
 70
     1
102
RTVSPost2010Prop43
 90
        3
102
RTVSPost2010PropOp43
 70
     1
102
RTVSPost2010Prop44ColorIndex
 90
        5
102
RTVSPost2010Prop44ColorRGB
 90
      255
102
RTVSPost2010PropOp44
 70
     1
102
RTVSPost2010Prop45
280
     0
102
RTVSPost2010PropOp45
 70
     1
102
RTVSPost2010Prop46
 90
       50
102
RTVSPost2010PropOp46
 70
     1
102
RTVSPost2010Prop47
 90
       50
102
RTVSPost2010PropOp47
 70
     1
102
RTVSPost2010Prop48
 90
       50
102
RTVSPost2010PropOp48
 70
     1
102
RTVSPost2010Prop49
280
     0
102
RTVSPost2010PropOp49
 70
     1
102
RTVSPost2010Prop50
 90
       50
102
RTVSPost2010PropOp50
 70
     1
102
RTVSPost2010Prop51ColorIndex
 90
      256
102
RTVSPost2010Prop51ColorRGB
 90
-16777216
102
RTVSPost2010PropOp51
 70
     0
102
RTVSPost2010Prop52
140
1.0
102
RTVSPost2010PropOp52
 70
     0
102
RTVSPost2010Prop53
 90
        2
102
RTVSPost2010PropOp53
 70
     1
102
RTVSPost2010Prop54
  1
strokes_ogs.tif
102
RTVSPost2010PropOp54
 70
     1
102
RTVSPost2010Prop55
280
     0
102
RTVSPost2010PropOp55
 70
     1
102
RTVSPost2010Prop56
140
1.0
102
RTVSPost2010PropOp56
 70
     1
102
RTVSPost2010Prop57
140
1.0
102
RTVSPost2010PropOp57
 70
     1
102
RTVSPropertyOp0
 70
     1
102
RTVSPropertyOp1
 70
     1
102
RTVSPropertyOp2
 70
     1
102
RTVSPropertyOp3
 70
     1
102
RTVSPropertyOp4
 70
     1
102
RTVSPropertyOp5
 70
     1
102
RTVSPropertyOp6
 70
     1
102
RTVSPropertyOp7
 70
     1
102
RTVSPropertyOp8
 70
     1
102
RTVSPropertyOp9
 70
     1
102
RTVSPropertyOp10
 70
     1
102
RTVSPropertyOp11
 70
     1
102
RTVSPropertyOp12
 70
     1
102
RTVSPropertyOp13
 70
     1
102
RTVSPropertyOp14
 70
     1
102
RTVSPropertyOp15
 70
     1
102
RTVSPropertyOp16
 70
     1
102
RTVSPropertyOp17
 70
     1
102
RTVSPropertyOp18
 70
     1
102
RTVSPropertyOp19
 70
     1
102
RTVSPropertyOp20
 70
     1
102
RTVSPropertyOp21
 70
     1
102
RTVSPropertyOp22
 70
     1
102
RTVSPropertyOp23
 70
     1
102
RTVSPropertyOp24
 70
     1
102
RTVSPropertyOp25
 70
     1
102
RTVSPropertyOp26
 70
     1
102
RTVSPropertyOp27
 70
     1
102
RTVSPropertyOp28
 70
     1
102
RTVSPropertyOp29
 70
     1
102
RTVSPropertyOp30
 70
     1
102
RTVSPropertyOp31
 70
     1
102
RTVSPropertyOp32
 70
     1
102
RTVSPropertyOp33
 70
     1
102
RTVSPropertyOp34
 70
     1
102
RTVSPropertyOp35
 70
     1
102
RTVSPropertyOp36
 70
     1
102
RTVSPropertyOp37
 70
     1
102
RTVSPropertyOp38
 70
     1
102
RTVSPropertyOp39
 70
     1
102
RTVSPropertyOp40
 70
     1
102
RTVSPropertyOp41
 70
     1
102
RTVSPropertyOp42
 70
     1
102
RTVSPropertyOp43
 70
     1
102
RTVSPropertyOp44
 70
     1
102
RTVSPropertyOp45
 70
     1
102
RTVSPropertyOp46
 70
     1
102
RTVSPropertyOp47
 70
     1
102
RTVSPropertyOp48
 70
     1
102
RTVSPropertyOp49
 70
     1
102
RTVSPropertyOp50
 70
     1
102
RTVSPropertyOp51
 70
     0
102
RTVSPropertyOp52
 70
     0
102
RTVSPropertyOp53
 70
     1
102
RTVSPropertyOp54
 70
     1
102
RTVSPropertyOp55
 70
     1
102
RTVSPropertyOp56
 70
     1
102
RTVSPropertyOp57
 70
     1
102
RTVSPropertyOp58
 70
     1
102
RTVSPropertyOp59
 70
     1
102
RTVSPropertyOp60
 70
     1
102
RTVSPropertyOp61
 70
     1
102
RTVSPropertyOp62
 70
     1
  0
ENDSEC
  0
EOF
