  0
SECTION
  2
HEADER
  9
$ACADVER
  1
AC1015
  9
$ACADMAINTVER
 70
    20
  9
$DWGCODEPAGE
  3
ANSI_1252
  9
$INSBASE
 10
0.0
 20
0.0
 30
0.0
  9
$EXTMIN
 10
19.91335838987864
 20
5.315734890424337
 30
-0.062001891945491
  9
$EXTMAX
 10
23.71883903196713
 20
7.826110859431921
 30
0.000001892234201
  9
$LIMMIN
 10
0.0
 20
0.0
  9
$LIMMAX
 10
12.0
 20
9.0
  9
$ORTHOMODE
 70
     1
  9
$REGENMODE
 70
     1
  9
$FILLMODE
 70
     1
  9
$QTEXTMODE
 70
     0
  9
$MIRRTEXT
 70
     0
  9
$LTSCALE
 40
1.0
  9
$ATTMODE
 70
     1
  9
$TEXTSIZE
 40
0.2
  9
$TRACEWID
 40
0.05
  9
$TEXTSTYLE
  7
Standard
  9
$CLAYER
  8
Part
  9
$CELTYPE
  6
ByLayer
  9
$CECOLOR
 62
   256
  9
$CELTSCALE
 40
1.0
  9
$DISPSILH
 70
     0
  9
$DIMSCALE
 40
1.0
  9
$DIMASZ
 40
0.18
  9
$DIMEXO
 40
0.0625
  9
$DIMDLI
 40
0.38
  9
$DIMRND
 40
0.0
  9
$DIMDLE
 40
0.0
  9
$DIMEXE
 40
0.18
  9
$DIMTP
 40
0.0
  9
$DIMTM
 40
0.0
  9
$DIMTXT
 40
0.18
  9
$DIMCEN
 40
0.09
  9
$DIMTSZ
 40
0.0
  9
$DIMTOL
 70
     0
  9
$DIMLIM
 70
     0
  9
$DIMTIH
 70
     1
  9
$DIMTOH
 70
     1
  9
$DIMSE1
 70
     0
  9
$DIMSE2
 70
     0
  9
$DIMTAD
 70
     0
  9
$DIMZIN
 70
     0
  9
$DIMBLK
  1

  9
$DIMASO
 70
     1
  9
$DIMSHO
 70
     1
  9
$DIMPOST
  1

  9
$DIMAPOST
  1

  9
$DIMALT
 70
     0
  9
$DIMALTD
 70
     2
  9
$DIMALTF
 40
25.4
  9
$DIMLFAC
 40
1.0
  9
$DIMTOFL
 70
     0
  9
$DIMTVP
 40
0.0
  9
$DIMTIX
 70
     0
  9
$DIMSOXD
 70
     0
  9
$DIMSAH
 70
     0
  9
$DIMBLK1
  1

  9
$DIMBLK2
  1

  9
$DIMSTYLE
  2
Standard
  9
$DIMCLRD
 70
     0
  9
$DIMCLRE
 70
     0
  9
$DIMCLRT
 70
     0
  9
$DIMTFAC
 40
1.0
  9
$DIMGAP
 40
0.09
  9
$DIMJUST
 70
     0
  9
$DIMSD1
 70
     0
  9
$DIMSD2
 70
     0
  9
$DIMTOLJ
 70
     1
  9
$DIMTZIN
 70
     0
  9
$DIMALTZ
 70
     0
  9
$DIMALTTZ
 70
     0
  9
$DIMUPT
 70
     0
  9
$DIMDEC
 70
     4
  9
$DIMTDEC
 70
     4
  9
$DIMALTU
 70
     2
  9
$DIMALTTD
 70
     2
  9
$DIMTXSTY
  7
Standard
  9
$DIMAUNIT
 70
     0
  9
$DIMADEC
 70
     0
  9
$DIMALTRND
 40
0.0
  9
$DIMAZIN
 70
     0
  9
$DIMDSEP
 70
    46
  9
$DIMATFIT
 70
     3
  9
$DIMFRAC
 70
     0
  9
$DIMLDRBLK
  1

  9
$DIMLUNIT
 70
     2
  9
$DIMLWD
 70
    -2
  9
$DIMLWE
 70
    -2
  9
$DIMTMOVE
 70
     0
  9
$LUNITS
 70
     2
  9
$LUPREC
 70
     4
  9
$SKETCHINC
 40
0.1
  9
$FILLETRAD
 40
0.0
  9
$AUNITS
 70
     0
  9
$AUPREC
 70
     0
  9
$MENU
  1
.
  9
$ELEVATION
 40
0.0
  9
$PELEVATION
 40
0.0
  9
$THICKNESS
 40
0.0
  9
$LIMCHECK
 70
     0
  9
$CHAMFERA
 40
0.0
  9
$CHAMFERB
 40
0.0
  9
$CHAMFERC
 40
0.0
  9
$CHAMFERD
 40
0.0
  9
$SKPOLY
 70
     0
  9
$TDCREATE
 40
2456842.468796296
  9
$TDUCREATE
 40
2456842.635463600
  9
$TDUPDATE
 40
2459956.322094908
  9
$TDUUPDATE
 40
2459956.530428241
  9
$TDINDWG
 40
0.0055596296
  9
$TDUSRTIMER
 40
0.0055594444
  9
$USRTIMER
 70
     1
  9
$ANGBASE
 50
0.0
  9
$ANGDIR
 70
     0
  9
$PDMODE
 70
     0
  9
$PDSIZE
 40
0.0
  9
$PLINEWID
 40
0.0
  9
$SPLFRAME
 70
     0
  9
$SPLINETYPE
 70
     6
  9
$SPLINESEGS
 70
     8
  9
$HANDSEED
  5
B81
  9
$SURFTAB1
 70
     6
  9
$SURFTAB2
 70
     6
  9
$SURFTYPE
 70
     6
  9
$SURFU
 70
     6
  9
$SURFV
 70
     6
  9
$UCSBASE
  2

  9
$UCSNAME
  2

  9
$UCSORG
 10
0.0
 20
0.0
 30
0.0
  9
$UCSXDIR
 10
1.0
 20
0.0
 30
0.0
  9
$UCSYDIR
 10
0.0
 20
1.0
 30
0.0
  9
$UCSORTHOREF
  2

  9
$UCSORTHOVIEW
 70
     0
  9
$UCSORGTOP
 10
0.0
 20
0.0
 30
0.0
  9
$UCSORGBOTTOM
 10
0.0
 20
0.0
 30
0.0
  9
$UCSORGLEFT
 10
0.0
 20
0.0
 30
0.0
  9
$UCSORGRIGHT
 10
0.0
 20
0.0
 30
0.0
  9
$UCSORGFRONT
 10
0.0
 20
0.0
 30
0.0
  9
$UCSORGBACK
 10
0.0
 20
0.0
 30
0.0
  9
$PUCSBASE
  2

  9
$PUCSNAME
  2

  9
$PUCSORG
 10
0.0
 20
0.0
 30
0.0
  9
$PUCSXDIR
 10
1.0
 20
0.0
 30
0.0
  9
$PUCSYDIR
 10
0.0
 20
1.0
 30
0.0
  9
$PUCSORTHOREF
  2

  9
$PUCSORTHOVIEW
 70
     0
  9
$PUCSORGTOP
 10
0.0
 20
0.0
 30
0.0
  9
$PUCSORGBOTTOM
 10
0.0
 20
0.0
 30
0.0
  9
$PUCSORGLEFT
 10
0.0
 20
0.0
 30
0.0
  9
$PUCSORGRIGHT
 10
0.0
 20
0.0
 30
0.0
  9
$PUCSORGFRONT
 10
0.0
 20
0.0
 30
0.0
  9
$PUCSORGBACK
 10
0.0
 20
0.0
 30
0.0
  9
$USERI1
 70
     0
  9
$USERI2
 70
     0
  9
$USERI3
 70
     0
  9
$USERI4
 70
     0
  9
$USERI5
 70
     0
  9
$USERR1
 40
0.0
  9
$USERR2
 40
0.0
  9
$USERR3
 40
0.0
  9
$USERR4
 40
0.0
  9
$USERR5
 40
0.0
  9
$WORLDVIEW
 70
     1
  9
$SHADEDGE
 70
     3
  9
$SHADEDIF
 70
    70
  9
$TILEMODE
 70
     1
  9
$MAXACTVP
 70
    64
  9
$PINSBASE
 10
0.0
 20
0.0
 30
0.0
  9
$PLIMCHECK
 70
     0
  9
$PEXTMIN
 10
0.0
 20
0.0
 30
0.0
  9
$PEXTMAX
 10
0.0
 20
0.0
 30
0.0
  9
$PLIMMIN
 10
0.0
 20
0.0
  9
$PLIMMAX
 10
12.0
 20
9.0
  9
$UNITMODE
 70
     0
  9
$VISRETAIN
 70
     1
  9
$PLINEGEN
 70
     0
  9
$PSLTSCALE
 70
     1
  9
$TREEDEPTH
 70
  3020
  9
$CMLSTYLE
  2
Standard
  9
$CMLJUST
 70
     0
  9
$CMLSCALE
 40
1.0
  9
$PROXYGRAPHICS
 70
     1
  9
$MEASUREMENT
 70
     0
  9
$CELWEIGHT
370
    -1
  9
$ENDCAPS
280
     0
  9
$JOINSTYLE
280
     0
  9
$LWDISPLAY
290
     0
  9
$INSUNITS
 70
     1
  9
$HYPERLINKBASE
  1

  9
$STYLESHEET
  1

  9
$XEDIT
290
     1
  9
$CEPSNTYPE
380
     0
  9
$PSTYLEMODE
290
     1
  9
$FINGERPRINTGUID
  2
{56CCBD51-6581-481E-9B79-B40F456772FC}
  9
$VERSIONGUID
  2
{54ED9D3B-7417-1E43-BC01-1687354C9811}
  9
$EXTNAMES
290
     1
  9
$PSVPSCALE
 40
0.0
  9
$OLESTARTUP
290
     0
  0
ENDSEC
  0
SECTION
  2
CLASSES
  0
CLASS
  1
ACDBDICTIONARYWDFLT
  2
AcDbDictionaryWithDefault
  3
ObjectDBX Classes
 90
        0
280
     0
281
     0
  0
CLASS
  1
ACDBPLACEHOLDER
  2
AcDbPlaceHolder
  3
ObjectDBX Classes
 90
        0
280
     0
281
     0
  0
CLASS
  1
LAYOUT
  2
AcDbLayout
  3
ObjectDBX Classes
 90
        0
280
     0
281
     0
  0
CLASS
  1
DICTIONARYVAR
  2
AcDbDictionaryVar
  3
ObjectDBX Classes
 90
        0
280
     0
281
     0
  0
CLASS
  1
TABLESTYLE
  2
AcDbTableStyle
  3
ObjectDBX Classes
 90
     4095
280
     0
281
     0
  0
CLASS
  1
MATERIAL
  2
AcDbMaterial
  3
ObjectDBX Classes
 90
     1153
280
     0
281
     0
  0
CLASS
  1
VISUALSTYLE
  2
AcDbVisualStyle
  3
ObjectDBX Classes
 90
     4095
280
     0
281
     0
  0
CLASS
  1
SCALE
  2
AcDbScale
  3
ObjectDBX Classes
 90
     1153
280
     0
281
     0
  0
CLASS
  1
MLEADERSTYLE
  2
AcDbMLeaderStyle
  3
ACDB_MLEADERSTYLE_CLASS
 90
     4095
280
     0
281
     0
  0
CLASS
  1
CELLSTYLEMAP
  2
AcDbCellStyleMap
  3
ObjectDBX Classes
 90
     1152
280
     0
281
     0
  0
CLASS
  1
EXACXREFPANELOBJECT
  2
ExAcXREFPanelObject
  3
EXAC_ESW
 90
    33793
280
     0
281
     0
  0
CLASS
  1
NPOCOLLECTION
  2
AcDbImpNonPersistentObjectsCollection
  3
ObjectDBX Classes
 90
    33921
280
     0
281
     0
  0
CLASS
  1
LAYER_INDEX
  2
AcDbLayerIndex
  3
ObjectDBX Classes
 90
    32768
280
     0
281
     0
  0
CLASS
  1
SPATIAL_INDEX
  2
AcDbSpatialIndex
  3
ObjectDBX Classes
 90
    32768
280
     0
281
     0
  0
CLASS
  1
IDBUFFER
  2
AcDbIdBuffer
  3
ObjectDBX Classes
 90
    32768
280
     0
281
     0
  0
CLASS
  1
ACDBSECTIONVIEWSTYLE
  2
AcDbSectionViewStyle
  3
ObjectDBX Classes
 90
     1025
280
     0
281
     0
  0
CLASS
  1
ACDBDETAILVIEWSTYLE
  2
AcDbDetailViewStyle
  3
ObjectDBX Classes
 90
     1025
280
     0
281
     0
  0
CLASS
  1
SORTENTSTABLE
  2
AcDbSortentsTable
  3
ObjectDBX Classes
 90
        0
280
     0
281
     0
  0
CLASS
  1
AMGSETTINGSOBJ
  2
AmgSettingsObj
  3
"AcadM|Product Description: AutoCAD Mechanical|Company: Autodesk, Inc."
 90
    33792
280
     0
281
     0
  0
CLASS
  1
ACME_DOCUMENT
  2
AcMeDbDoc
  3
AcMeServices
 90
    33792
280
     0
281
     0
  0
CLASS
  1
ACMESCOPE
  2
AcMeScope
  3
AcMeServices
 90
    33792
280
     0
281
     0
  0
CLASS
  1
ACMECOMMANDHISTORY
  2
AcMeCommandHistory
  3
AcMeServices
 90
    33792
280
     0
281
     0
  0
CLASS
  1
ACIMSYSVARMAN
  2
AcImSysVarManager
  3
AcMeServices
 90
    33792
280
     0
281
     0
  0
CLASS
  1
ACIMINTSYSVAR
  2
AcImIntSysVar
  3
AcMeServices
 90
    33792
280
     0
281
     0
  0
CLASS
  1
ACMESTATEMGR
  2
AcMeStateMgr
  3
AcMeServices
 90
    33792
280
     0
281
     0
  0
CLASS
  1
ACDBENTITYCACHE
  2
AcMeEntityCache
  3
AcMeServices
 90
    33792
280
     0
281
     0
  0
CLASS
  1
ACGREFMASTER
  2
AcGrefMaster
  3
AcAttribServices
 90
    33792
280
     0
281
     0
  0
CLASS
  1
ACME_DATABASE
  2
AcMeDbDatabase
  3
AcMeServices
 90
    33792
280
     0
281
     0
  0
CLASS
  1
ACRFINSADJUSTERMGR
  2
AcRfInsAdjusterMgr
  3
AcMeServices
 90
    33792
280
     0
281
     0
  0
CLASS
  1
ACGREFACADMASTER
  2
AcGrefacadMaster
  3
AcGrefServices
 90
    33792
280
     0
281
     0
  0
CLASS
  1
AMDTMENUSTATEMGR
  2
AmdtMenuStateMgr
  3
McadcomServices
 90
    33792
280
     0
281
     0
  0
CLASS
  1
AMDTMCOMMENUSTATE
  2
AmdtMcomMenuState
  3
McadcomServices
 90
    33792
280
     0
281
     0
  0
CLASS
  1
AMIMASTER
  2
AmiMaster
  3
AmiServices
 90
    33792
280
     0
281
     0
  0
CLASS
  1
MAPIAMMOUDLE
  2
MApiAmModule
  3
MApiAmServices
 90
    33792
280
     0
281
     0
  0
CLASS
  1
ACIMSTRSYSVAR
  2
AcImStrSysVar
  3
AcMeServices
 90
    33792
280
     0
281
     0
  0
CLASS
  1
AMDTAMMENUSTATE
  2
AmdtAmMenuState
  3
DesignerAssemblies
 90
    33792
280
     0
281
     0
  0
CLASS
  1
ACAMPROJECT
  2
AcAmProject
  3
DesignerAssemblies
 90
    33792
280
     0
281
     0
  0
CLASS
  1
ACAMGRCOMPDEF
  2
AcAmGrCompDef
  3
DesignerAssemblies
 90
    33792
280
     0
281
     0
  0
CLASS
  1
ACAMCOMPDEF
  2
AcAmCompDef
  3
DesignerAssemblies
 90
    33792
280
     0
281
     0
  0
CLASS
  1
ACAMCOMPDEFMGR
  2
AcAmCompDefMgr
  3
DesignerAssemblies
 90
    33792
280
     0
281
     0
  0
CLASS
  1
AMCONTEXTMGR
  2
AcAmContextMgr
  3
DesignerAssemblies
 90
    33792
280
     0
281
     0
  0
CLASS
  1
ACAMCONTEXTMODELER
  2
AcAmContextModeler
  3
DesignerAssemblies
 90
    33792
280
     0
281
     0
  0
CLASS
  1
ACMDATADICTIONARY
  2
AcmDataDictionary
  3
"AcmSymBB|Product Description: AutoCAD Mechanical|Company: Autodesk, Inc."
 90
    33792
280
     0
281
     0
  0
CLASS
  1
ACAMGRCOMPDEFSET
  2
AcAmGrCompDefSet
  3
DesignerAssemblies
 90
    33792
280
     0
281
     0
  0
CLASS
  1
AMDTBROWSERDBTAB
  2
AmdtBrowserDbTab
  3
McadcomServices
 90
    33792
280
     0
281
     0
  0
CLASS
  1
CBROWSERAPPOBJECT
  2
CBrowserAppObject
  3
McadcomServices
 90
    33792
280
     0
281
     0
  0
CLASS
  1
DM_PLACEHOLDER
  2
AcDmSelsetPlaceholder
  3
McadcomServices
 90
    33792
280
     0
281
     0
  0
CLASS
  1
ACMSTANDARDANSI
  2
AcmStandardANSI
  3
"Amdt_StdImp|Product Description: AutoCAD Mechanical|Company: Autodesk, Inc."
 90
    33792
280
     0
281
     0
  0
CLASS
  1
ACMSURFSTANDARDANSI
  2
AcmSurfTextStdANSI
  3
"Amdt_StdImp|Product Description: AutoCAD Mechanical|Company: Autodesk, Inc."
 90
    33792
280
     0
281
     0
  0
CLASS
  1
ACMFCFSTANDARDANSI
  2
AcmFCFStdANSI
  3
"Amdt_StdImp|Product Description: AutoCAD Mechanical|Company: Autodesk, Inc."
 90
    33792
280
     0
281
     0
  0
CLASS
  1
ACMWELDSTANDARDANSI
  2
AcmWeldingStdANSI
  3
"Amdt_StdImp|Product Description: AutoCAD Mechanical|Company: Autodesk, Inc."
 90
    33792
280
     0
281
     0
  0
CLASS
  1
ACMIDSTANDARDANSI
  2
AcmIdStdANSI
  3
"Amdt_StdImp|Product Description: AutoCAD Mechanical|Company: Autodesk, Inc."
 90
    33792
280
     0
281
     0
  0
CLASS
  1
ACMDATUMSTANDARDANSI
  2
AcmDatumStdANSI
  3
"Amdt_StdImp|Product Description: AutoCAD Mechanical|Company: Autodesk, Inc."
 90
    33792
280
     0
281
     0
  0
CLASS
  1
ACMBOMSTANDARDANSI
  2
AcmBOMStdANSI
  3
"Amdt_StdImp|Product Description: AutoCAD Mechanical|Company: Autodesk, Inc."
 90
    33792
280
     0
281
     0
  0
CLASS
  1
ACMDETAILSTANDARDANSI
  2
AmdtDetailSymStdANSI
  3
"Amdt_StdImp|Product Description: AutoCAD Mechanical|Company: Autodesk, Inc."
 90
    33792
280
     0
281
     0
  0
CLASS
  1
ACMSECTIONSTANDARDANSI
  2
AmdtSectionSymStdANSI
  3
"Amdt_StdImp|Product Description: AutoCAD Mechanical|Company: Autodesk, Inc."
 90
    33792
280
     0
281
     0
  0
CLASS
  1
ACMCENTERLINESTANDARDANSI
  2
AmdtCenterLineStdANSI
  3
"Amdt_StdImp|Product Description: AutoCAD Mechanical|Company: Autodesk, Inc."
 90
    33792
280
     0
281
     0
  0
CLASS
  1
ACMTHREADLINESTANDARDANSI
  2
AmdtThreadLineStdANSI
  3
"Amdt_StdImp|Product Description: AutoCAD Mechanical|Company: Autodesk, Inc."
 90
    33792
280
     0
281
     0
  0
CLASS
  1
ACMNOTESTANDARDANSI
  2
AmdtNoteStdANSI
  3
"Amdt_StdImp|Product Description: AutoCAD Mechanical|Company: Autodesk, Inc."
 90
    33792
280
     0
281
     0
  0
CLASS
  1
ACMTAPERSTANDARDANSI
  2
AcmTaperStdANSI
  3
"Amdt_StdImp|Product Description: AutoCAD Mechanical|Company: Autodesk, Inc."
 90
    33792
280
     0
281
     0
  0
CLASS
  1
ACMANOOTATIONVIEWSTANDARDANSI
  2
AmdtAnViewStdANSI
  3
"Amdt_StdImp|Product Description: AutoCAD Mechanical|Company: Autodesk, Inc."
 90
    33792
280
     0
281
     0
  0
CLASS
  1
ACAMGLAYSTD
  2
AcAmgLayStd
  3
"AmgLay|Product Description: AutoCAD Mechanical|Company: Autodesk, Inc."
 90
    33792
280
     0
281
     0
  0
CLASS
  1
ACAMGDIMSTD
  2
AcAmgDimStd
  3
"AmgDim|Product Description: AutoCAD Mechanical|Company: Autodesk, Inc."
 90
    33792
280
     0
281
     0
  0
CLASS
  1
AMGOBJPROPCFG
  2
AmgObjPropCfg
  3
"AmgLay|Product Description: AutoCAD Mechanical|Company: Autodesk, Inc."
 90
    33792
280
     0
281
     0
  0
CLASS
  1
ACAMGHOLECHARTSTDANSI
  2
AcAmgHoleChartStdANSI
  3
AmgDim|Product Description: AutoCAD Mechanical|Company: Autodesk, Inc.
 90
    33792
280
     0
281
     0
  0
CLASS
  1
ACAMGTITLESTD
  2
AcAmgTitleStd
  3
"AmgTitle|Product Description: AutoCAD Mechanical|Company: Autodesk, Inc."
 90
    33792
280
     0
281
     0
  0
CLASS
  1
AMDTNOTETEMPLATEDB
  2
AmdtNoteTemplateDB
  3
AcmSymBB|Product Description: AutoCAD Mechanical|Company: Autodesk, Inc.
 90
    33792
280
     0
281
     0
  0
CLASS
  1
ACAMGFILTERDAT
  2
AcAmgFilterDat
  3
"AcadM|Product Description: AutoCAD Mechanical|Company: Autodesk, Inc."
 90
    33792
280
     0
281
     0
  0
ENDSEC
  0
SECTION
  2
TABLES
  0
TABLE
  2
VPORT
  5
8
330
0
100
AcDbSymbolTable
 70
     1
  0
VPORT
  5
94
330
8
100
AcDbSymbolTableRecord
100
AcDbViewportTableRecord
  2
*Active
 70
     0
 10
0.0
 20
0.0
 11
1.0
 21
1.0
 12
21.81609871092289
 22
6.570922874928129
 13
0.0
 23
0.0
 14
0.5
 24
0.5
 15
0.5
 25
0.5
 16
0.0
 26
0.0
 36
1.0
 17
0.0
 27
0.0
 37
0.0
 40
2.528436227777422
 41
2.303721488595438
 42
50.0
 43
0.0
 44
0.0
 50
0.0
 51
0.0
 71
     0
 72
  1000
 73
     1
 74
     3
 75
     0
 76
     1
 77
     0
 78
     0
281
     0
 65
     0
110
0.0
120
0.0
130
0.0
111
1.0
121
0.0
131
0.0
112
0.0
122
1.0
132
0.0
 79
     0
146
0.0
1001
ACAD_NAV_VCDISPLAY
1070
     3
  0
ENDTAB
  0
TABLE
  2
LTYPE
  5
5
330
0
100
AcDbSymbolTable
 70
    16
  0
LTYPE
  5
14
330
5
100
AcDbSymbolTableRecord
100
AcDbLinetypeTableRecord
  2
ByBlock
 70
     0
  3

 72
    65
 73
     0
 40
0.0
  0
LTYPE
  5
15
330
5
100
AcDbSymbolTableRecord
100
AcDbLinetypeTableRecord
  2
ByLayer
 70
     0
  3

 72
    65
 73
     0
 40
0.0
  0
LTYPE
  5
16
330
5
100
AcDbSymbolTableRecord
100
AcDbLinetypeTableRecord
  2
Continuous
 70
     0
  3
Solid line
 72
    65
 73
     0
 40
0.0
  0
LTYPE
  5
1A9
330
5
100
AcDbSymbolTableRecord
100
AcDbLinetypeTableRecord
  2
PHANTOM2
 70
     0
  3
Phantom (.5x) ___ _ _ ___ _ _ ___ _ _ ___ _ _
 72
    65
 73
     6
 40
1.25
 49
0.625
 74
     0
 49
-0.125
 74
     0
 49
0.125
 74
     0
 49
-0.125
 74
     0
 49
0.125
 74
     0
 49
-0.125
 74
     0
  0
ENDTAB
  0
TABLE
  2
LAYER
  5
2
102
{ACAD_XDICTIONARY
360
18E
102
}
330
0
100
AcDbSymbolTable
 70
     7
  0
LAYER
  5
10
102
{ACAD_XDICTIONARY
360
E6
102
}
330
2
100
AcDbSymbolTableRecord
100
AcDbLayerTableRecord
  2
0
 70
     0
 62
     7
  6
Continuous
370
    -3
390
F
  0
LAYER
  5
1BF
102
{ACAD_XDICTIONARY
360
1C0
102
}
330
2
100
AcDbSymbolTableRecord
100
AcDbLayerTableRecord
  2
Text
 70
     0
 62
     3
  6
Continuous
370
    -3
390
F
1001
RAK
1000
{ACET-LAYISO
1070
     0
1070
     3
1000
Continuous
1071
       -3
1071
        1
1005
F
1000
ACET-LAYISO}
  0
LAYER
  5
1C1
102
{ACAD_XDICTIONARY
360
1C2
102
}
330
2
100
AcDbSymbolTableRecord
100
AcDbLayerTableRecord
  2
PCB_TOP
 70
     0
 62
     5
  6
Continuous
370
    -3
390
F
1001
RAK
1000
{ACET-LAYISO
1070
     0
1070
     5
1000
Continuous
1070
     1
1071
       -3
1071
        1
1005
F
1000
ACET-LAYISO}
  0
LAYER
  5
1C3
102
{ACAD_XDICTIONARY
360
1C4
102
}
330
2
100
AcDbSymbolTableRecord
100
AcDbLayerTableRecord
  2
PCB_BOT
 70
     0
 62
     1
  6
Continuous
370
    -3
390
F
1001
RAK
1000
{ACET-LAYISO
1070
     0
1070
     1
1000
Continuous
1071
       -3
1071
        1
1005
F
1000
ACET-LAYISO}
  0
LAYER
  5
1C5
102
{ACAD_XDICTIONARY
360
1C6
102
}
330
2
100
AcDbSymbolTableRecord
100
AcDbLayerTableRecord
  2
PCB_OUTLINE
 70
     0
 62
   142
  6
Continuous
370
    -3
390
F
1001
RAK
1000
{ACET-LAYISO
1070
     0
1070
   142
1000
Continuous
1071
       -3
1071
        1
1005
F
1000
ACET-LAYISO}
  0
LAYER
  5
6C0
330
2
100
AcDbSymbolTableRecord
100
AcDbLayerTableRecord
  2
Part
 70
     0
 62
     1
  6
Continuous
370
    -3
390
F
1001
AcAecLayerStandard
1000

1000

  0
ENDTAB
  0
TABLE
  2
STYLE
  5
3
330
0
100
AcDbSymbolTable
 70
     7
  0
STYLE
  5
11
330
3
100
AcDbSymbolTableRecord
100
AcDbTextStyleTableRecord
  2
Standard
 70
     0
 40
0.0
 41
1.0
 50
0.0
 71
     0
 42
0.2
  3
ARIAL.TTF
  4

1001
ACAD
1000
Arial
1071
       34
  0
STYLE
  5
1C7
330
3
100
AcDbSymbolTableRecord
100
AcDbTextStyleTableRecord
  2
ROMANS
 70
     0
 40
0.0
 41
1.0
 50
0.0
 71
     0
 42
0.1
  3
C:\ACADWIN\FONTS\AU100S00.SHX
  4

  0
STYLE
  5
1C8
330
3
100
AcDbSymbolTableRecord
100
AcDbTextStyleTableRecord
  2
ARIAL
 70
     0
 40
0.0
 41
1.0
 50
0.0
 71
     0
 42
0.2452744685283672
  3
arial.ttf
  4

1001
ACAD
1000
Arial
1071
       34
  0
ENDTAB
  0
TABLE
  2
VIEW
  5
6
330
0
100
AcDbSymbolTable
 70
     0
  0
ENDTAB
  0
TABLE
  2
UCS
  5
7
330
0
100
AcDbSymbolTable
 70
     0
  0
ENDTAB
  0
TABLE
  2
APPID
  5
9
330
0
100
AcDbSymbolTable
 70
    22
  0
APPID
  5
12
330
9
100
AcDbSymbolTableRecord
100
AcDbRegAppTableRecord
  2
ACAD
 70
     0
  0
APPID
  5
DD
330
9
100
AcDbSymbolTableRecord
100
AcDbRegAppTableRecord
  2
AcadAnnoPO
 70
     0
  0
APPID
  5
DE
330
9
100
AcDbSymbolTableRecord
100
AcDbRegAppTableRecord
  2
AcadAnnotative
 70
     0
  0
APPID
  5
DF
330
9
100
AcDbSymbolTableRecord
100
AcDbRegAppTableRecord
  2
ACAD_DSTYLE_DIMJAG
 70
     0
  0
APPID
  5
E0
330
9
100
AcDbSymbolTableRecord
100
AcDbRegAppTableRecord
  2
ACAD_DSTYLE_DIMTALN
 70
     0
  0
APPID
  5
107
330
9
100
AcDbSymbolTableRecord
100
AcDbRegAppTableRecord
  2
ACAD_MLEADERVER
 70
     0
  0
APPID
  5
1A6
330
9
100
AcDbSymbolTableRecord
100
AcDbRegAppTableRecord
  2
ACAD_NAV_VCDISPLAY
 70
     0
  0
APPID
  5
1CB
330
9
100
AcDbSymbolTableRecord
100
AcDbRegAppTableRecord
  2
RAK
 70
     0
  0
APPID
  5
1CC
330
9
100
AcDbSymbolTableRecord
100
AcDbRegAppTableRecord
  2
ACAD_PSEXT
 70
     0
  0
APPID
  5
1CD
330
9
100
AcDbSymbolTableRecord
100
AcDbRegAppTableRecord
  2
ACLAYERTOOLS
 70
     0
  0
APPID
  5
6C6
330
9
100
AcDbSymbolTableRecord
100
AcDbRegAppTableRecord
  2
AcAecLayerStandard
 70
     0
  0
APPID
  5
6C7
330
9
100
AcDbSymbolTableRecord
100
AcDbRegAppTableRecord
  2
ACAD_DSTYLE_DIMBREAK
 70
     0
  0
APPID
  5
6C8
330
9
100
AcDbSymbolTableRecord
100
AcDbRegAppTableRecord
  2
GRADIENTCOLOR1ACI
 70
     0
  0
APPID
  5
6C9
330
9
100
AcDbSymbolTableRecord
100
AcDbRegAppTableRecord
  2
GRADIENTCOLOR2ACI
 70
     0
  0
APPID
  5
817
330
9
100
AcDbSymbolTableRecord
100
AcDbRegAppTableRecord
  2
MCAD_NO_VIS
 70
     0
  0
APPID
  5
818
330
9
100
AcDbSymbolTableRecord
100
AcDbRegAppTableRecord
  2
ACAD_TEMP_GRAPHIC
 70
     0
  0
APPID
  5
824
330
9
100
AcDbSymbolTableRecord
100
AcDbRegAppTableRecord
  2
ACATTRIBSERVICES
 70
     0
  0
APPID
  5
83C
330
9
100
AcDbSymbolTableRecord
100
AcDbRegAppTableRecord
  2
DESIGNERASSEMBLIES
 70
     0
  0
APPID
  5
8D1
330
9
100
AcDbSymbolTableRecord
100
AcDbRegAppTableRecord
  2
ACAD_DSTYLE_DIMARC_LENGTH_SYMBOL
 70
     0
  0
APPID
  5
8D2
330
9
100
AcDbSymbolTableRecord
100
AcDbRegAppTableRecord
  2
ACAD_DSTYLE_DIM_LINETYPE
 70
     0
  0
APPID
  5
8D3
330
9
100
AcDbSymbolTableRecord
100
AcDbRegAppTableRecord
  2
ACAD_DSTYLE_DIM_EXT1_LINETYPE
 70
     0
  0
APPID
  5
8D4
330
9
100
AcDbSymbolTableRecord
100
AcDbRegAppTableRecord
  2
ACAD_DSTYLE_DIM_EXT2_LINETYPE
 70
     0
  0
ENDTAB
  0
TABLE
  2
DIMSTYLE
  5
A
330
0
100
AcDbSymbolTable
 70
    11
100
AcDbDimStyleTable
 71
     1
340
27
  0
DIMSTYLE
105
27
330
A
100
AcDbSymbolTableRecord
100
AcDbDimStyleTableRecord
  2
Standard
 70
     0
340
11
  0
ENDTAB
  0
TABLE
  2
BLOCK_RECORD
  5
1
330
0
100
AcDbSymbolTable
 70
     5
  0
BLOCK_RECORD
  5
1F
102
{ACAD_XDICTIONARY
360
15D
102
}
330
1
100
AcDbSymbolTableRecord
100
AcDbBlockTableRecord
  2
*Model_Space
340
22
  0
BLOCK_RECORD
  5
58
330
1
100
AcDbSymbolTableRecord
100
AcDbBlockTableRecord
  2
*Paper_Space
340
59
  0
BLOCK_RECORD
  5
5D
330
1
100
AcDbSymbolTableRecord
100
AcDbBlockTableRecord
  2
*Paper_Space0
340
5E
  0
BLOCK_RECORD
  5
A7E
102
{ACAD_XDICTIONARY
360
AF5
102
}
330
1
100
AcDbSymbolTableRecord
100
AcDbBlockTableRecord
  2
A$Cb67f6ff0
340
0
102
{BLKREFS
331
AF9
102
}
1001
ACAD
1000
DesignCenter Data
1002
{
1070
     1
1070
     1
1002
}
  0
ENDTAB
  0
ENDSEC
  0
SECTION
  2
BLOCKS
  0
BLOCK
  5
20
330
1F
100
AcDbEntity
  8
0
100
AcDbBlockBegin
  2
*Model_Space
 70
     0
 10
0.0
 20
0.0
 30
0.0
  3
*Model_Space
  1

  0
ENDBLK
  5
21
330
1F
100
AcDbEntity
  8
0
100
AcDbBlockEnd
  0
BLOCK
  5
5A
330
58
100
AcDbEntity
 67
     1
  8
0
100
AcDbBlockBegin
  2
*Paper_Space
 70
     0
 10
0.0
 20
0.0
 30
0.0
  3
*Paper_Space
  1

  0
ENDBLK
  5
5B
330
58
100
AcDbEntity
 67
     1
  8
0
100
AcDbBlockEnd
  0
BLOCK
  5
5F
330
5D
100
AcDbEntity
 67
     1
  8
0
100
AcDbBlockBegin
  2
*Paper_Space0
 70
     0
 10
0.0
 20
0.0
 30
0.0
  3
*Paper_Space0
  1

  0
ENDBLK
  5
60
330
5D
100
AcDbEntity
 67
     1
  8
0
100
AcDbBlockEnd
  0
BLOCK
  5
AF7
330
A7E
100
AcDbEntity
  8
0
100
AcDbBlockBegin
  2
A$Cb67f6ff0
 70
     0
 10
0.0
 20
0.0
 30
0.0
  3
A$Cb67f6ff0
  1

  0
LINE
  5
A7F
330
A7E
100
AcDbEntity
  8
Part
100
AcDbLine
 10
0.0050000000098187
 20
0.1200000000000081
 30
0.0
 11
0.0049999992340908
 21
0.1515263926279697
 31
0.0
  0
LINE
  5
A80
330
A7E
100
AcDbEntity
  8
Part
100
AcDbLine
 10
0.1199999999999939
 20
0.9950000000001892
 30
0.0
 11
0.15152639522179
 21
0.9950000004009238
 31
0.0
  0
CIRCLE
  5
A81
330
A7E
100
AcDbEntity
  8
Part
100
AcDbCircle
 10
0.0549999999999962
 20
0.0550000000000104
 30
0.0
 40
0.015
  0
CIRCLE
  5
A82
330
A7E
100
AcDbEntity
  8
Part
100
AcDbCircle
 10
1.444985103401531
 20
0.9450000205706245
 30
0.0
 40
0.015
  0
LWPOLYLINE
  5
A83
330
A7E
100
AcDbEntity
  8
Part
100
AcDbPolyline
 90
        5
 70
     0
 43
0.0
 10
0.004999999999999
 20
0.0374166040099802
 10
0.004999999999999
 20
0.080000000000009
 10
0.0800000000000019
 20
0.080000000000009
 10
0.0800000000000019
 20
0.0050000000000097
 10
0.0374166040099802
 20
0.0050000000000097
  0
LWPOLYLINE
  5
A84
330
A7E
100
AcDbEntity
  8
Part
100
AcDbPolyline
 90
        5
 70
     0
 43
0.0
 10
1.495000000434263
 20
0.9625833977919331
 10
1.495000000928474
 20
0.9200000173506275
 10
1.420000000928471
 20
0.9200000164801984
 10
1.420000000058042
 20
0.9950000164801977
 10
1.462583389767662
 20
0.9950000169744086
  0
LINE
  5
A85
330
A7E
100
AcDbEntity
  8
Part
100
AcDbLine
 10
1.379985101921608
 20
0.9950000160159255
 30
0.0
 11
1.379985105325399
 21
0.8800000186467258
 31
0.0
  0
LINE
  5
A86
330
A7E
100
AcDbEntity
  8
Part
100
AcDbLine
 10
1.379985105325399
 20
0.8800000186467258
 30
0.0
 11
1.495060203020489
 21
0.880000022052755
 31
0.0
  0
LINE
  5
A87
330
A7E
100
AcDbEntity
  8
Part
100
AcDbLine
 10
1.495060203020489
 20
0.880000022052755
 30
0.0
 11
1.495057481661103
 21
0.8485420532701848
 31
0.0
  0
LINE
  5
A88
330
A7E
100
AcDbEntity
  8
Part
100
AcDbLine
 10
1.380000000000013
 20
0.0050000000000168
 30
0.0
 11
1.348473606457456
 21
0.0050000000000132
 31
0.0
  0
LINE
  5
A89
330
A7E
100
AcDbEntity
  8
Part
100
AcDbLine
 10
0.1515263935423583
 20
0.0049999999998507
 30
0.0
 11
0.1199999999999939
 21
0.0049999999998462
 31
0.0
  0
LINE
  5
A8A
330
A7E
100
AcDbEntity
  8
Part
100
AcDbLine
 10
0.1199999999999939
 20
0.0049999999998462
 30
0.0
 11
0.1200000000000081
 21
0.1200000000000081
 31
0.0
  0
LINE
  5
A8B
330
A7E
100
AcDbEntity
  8
Part
100
AcDbLine
 10
0.1200000000000081
 20
0.1200000000000081
 30
0.0
 11
0.0049999813095205
 21
0.1200000000000081
 31
0.0
  0
LINE
  5
A8C
330
A7E
100
AcDbEntity
  8
Part
100
AcDbLine
 10
1.488000007627899
 20
0.1707724008382065
 30
0.0
 11
1.48800000198214
 21
0.8292122634425886
 31
0.0
  0
ARC
  5
A8D
330
A7E
100
AcDbEntity
  8
Part
100
AcDbCircle
 10
1.518000001982141
 20
0.8292122637907635
 30
0.0
 40
0.0300000000000011
100
AcDbArc
 50
126.869898310809
 51
180.0000006649649
  0
LINE
  5
A8E
330
A7E
100
AcDbEntity
  8
Part
100
AcDbLine
 10
1.5000000017036
 20
0.8532122635818595
 30
0.0
 11
1.500000000455383
 21
0.9607636497539289
 31
0.0
  0
ARC
  5
A8F
330
A7E
100
AcDbEntity
  8
Part
100
AcDbCircle
 10
1.518000000000004
 20
1.018000001982155
 30
0.0
 40
0.0599999999999988
100
AcDbArc
 50
197.4575881370437
 51
252.5423973321327
  0
LINE
  5
A90
330
A7E
100
AcDbEntity
  8
Part
100
AcDbLine
 10
1.460763643206778
 20
1.00000001695329
 30
0.0
 11
1.353212246173232
 21
1.000000015705083
 31
0.0
  0
ARC
  5
A91
330
A7E
100
AcDbEntity
  8
Part
100
AcDbCircle
 10
1.329212245790248
 20
1.018000015774717
 30
0.0
 40
0.0300000003481671
100
AcDbArc
 50
270.0000003324737
 51
323.1301026866297
  0
LINE
  5
A92
330
A7E
100
AcDbEntity
  8
Part
100
AcDbLine
 10
1.329212245964331
 20
0.9880000154265502
 30
0.0
 11
0.1707877539660778
 21
0.9880000019821508
 31
0.0
  0
ARC
  5
A93
330
A7E
100
AcDbEntity
  8
Part
100
AcDbCircle
 10
0.1707877536179048
 20
1.018000001982152
 30
0.0
 40
0.0300000000000011
100
AcDbArc
 50
216.8698983108068
 51
270.0000006649613
  0
LINE
  5
A94
330
A7E
100
AcDbEntity
  8
Part
100
AcDbLine
 10
0.1467877538268034
 20
1.000000001703611
 30
0.0
 11
0.039236352085009
 21
1.000000000000023
 31
0.0
  0
LINE
  5
A95
330
A7E
100
AcDbEntity
  8
Part
100
AcDbLine
 10
0.0000000004553904
 20
0.9607636480582417
 30
0.0
 11
0.0000000017036008
 21
0.8532122461732178
 31
0.0
  0
ARC
  5
A96
330
A7E
100
AcDbEntity
  8
Part
100
AcDbCircle
 10
-0.01799999801786
 20
0.829212245964312
 30
0.0
 40
0.0300000000000011
100
AcDbArc
 50
0.0000006649649284
 51
53.1301030191208
  0
LINE
  5
A97
330
A7E
100
AcDbEntity
  8
Part
100
AcDbLine
 10
0.0120000019821411
 20
0.8292122463124869
 30
0.0
 11
0.0120000002292393
 21
0.3385000027745058
 31
0.0
  0
LINE
  5
A98
330
A7E
100
AcDbEntity
  8
Part
100
AcDbLine
 10
0.0119999963006698
 20
0.3385000027745058
 30
0.0
 11
0.012000000000004
 21
0.1707877538268079
 31
0.0
  0
ARC
  5
A99
330
A7E
100
AcDbEntity
  8
Part
100
AcDbCircle
 10
-0.0179999999999971
 20
0.1707877538268079
 30
0.0
 40
0.0300000000000011
100
AcDbArc
 50
306.8698976458441
 51
0.0
  0
LINE
  5
A9A
330
A7E
100
AcDbEntity
  8
Part
100
AcDbLine
 10
0.0000000000000036
 20
0.146787753826807
 30
0.0
 11
0.0000000000000036
 21
0.0392363520850072
 31
0.0
  0
ARC
  5
A9B
330
A7E
100
AcDbEntity
  8
Part
100
AcDbCircle
 10
-0.0180000000000042
 20
-0.0180000000000114
 30
0.0
 40
0.060000000000003
100
AcDbArc
 50
17.45760312374476
 51
72.54239687627467
  0
LINE
  5
A9C
330
A7E
100
AcDbEntity
  8
Part
100
AcDbLine
 10
0.039236352085009
 20
0.0000000000000124
 30
0.0
 11
0.1467877538267892
 21
0.0
 31
0.0
  0
ARC
  5
A9D
330
A7E
100
AcDbEntity
  8
Part
100
AcDbCircle
 10
0.1707877538267901
 20
-0.0180000000000025
 30
0.0
 40
0.0299999999999994
100
AcDbArc
 50
89.99999999999308
 51
143.1301023541489
  0
LINE
  5
A9E
330
A7E
100
AcDbEntity
  8
Part
100
AcDbLine
 10
0.1707877538267901
 20
0.0119999999999969
 30
0.0
 11
1.329212246173209
 21
0.0119999999999969
 31
0.0
  0
ARC
  5
A9F
330
A7E
100
AcDbEntity
  8
Part
100
AcDbCircle
 10
1.329212246173216
 20
-0.0180000000000025
 30
0.0
 40
0.0299999999999994
100
AcDbArc
 50
36.86989764585099
 51
90.00000000000651
  0
LINE
  5
AA0
330
A7E
100
AcDbEntity
  8
Part
100
AcDbLine
 10
1.35321224617321
 20
0.0
 30
0.0
 11
1.460763647914991
 21
0.0000000000000124
 31
0.0
  0
LINE
  5
AA1
330
A7E
100
AcDbEntity
  8
Part
100
AcDbLine
 10
1.500000000000003
 20
0.0392363520850072
 30
0.0
 11
1.500000000000003
 21
0.1467877566013076
 31
0.0
  0
ARC
  5
AA2
330
A7E
100
AcDbEntity
  8
Part
100
AcDbCircle
 10
1.518000003699338
 20
0.1707877538268185
 30
0.0
 40
0.03000000000001
100
AcDbArc
 50
180.0000000000135
 51
233.1300935226583
  0
CIRCLE
  5
AA3
330
A7E
100
AcDbEntity
  8
Part
100
AcDbCircle
 10
0.0549999999999962
 20
0.9450000000000251
 30
0.0
 40
0.015
  0
LWPOLYLINE
  5
AA4
330
A7E
100
AcDbEntity
  8
Part
100
AcDbPolyline
 90
        5
 70
     0
 43
0.0
 10
0.004999999999999
 20
0.9625833959900553
 10
0.004999999999999
 20
0.9200000000000265
 10
0.0800000000000019
 20
0.9200000000000265
 10
0.0800000000000019
 20
0.9950000000000258
 10
0.0374166040099802
 20
0.9950000000000258
  0
LINE
  5
AA5
330
A7E
100
AcDbEntity
  8
Part
100
AcDbLine
 10
0.1199999999999939
 20
0.9950000000001892
 30
0.0
 11
0.1200000000000081
 21
0.8800000000000274
 31
0.0
  0
LINE
  5
AA6
330
A7E
100
AcDbEntity
  8
Part
100
AcDbLine
 10
0.1200000000000081
 20
0.8800000000000274
 30
0.0
 11
0.0049999813095205
 21
0.8800000000000274
 31
0.0
  0
ARC
  5
AA7
330
A7E
100
AcDbEntity
  8
Part
100
AcDbCircle
 10
-0.0180000000000042
 20
1.018000000000046
 30
0.0
 40
0.060000000000003
100
AcDbArc
 50
287.4576031237253
 51
342.5423968762553
  0
CIRCLE
  5
AA8
330
A7E
100
AcDbEntity
  8
Part
100
AcDbCircle
 10
1.444999999999996
 20
0.0550000000000104
 30
0.0
 40
0.015
  0
LWPOLYLINE
  5
AA9
330
A7E
100
AcDbEntity
  8
Part
100
AcDbPolyline
 90
        5
 70
     0
 43
0.0
 10
1.495
 20
0.0374166040099802
 10
1.495
 20
0.080000000000009
 10
1.419999999999998
 20
0.080000000000009
 10
1.419999999999998
 20
0.0050000000000097
 10
1.462583395990019
 20
0.0050000000000097
  0
LINE
  5
AAA
330
A7E
100
AcDbEntity
  8
Part
100
AcDbLine
 10
1.380000000000013
 20
0.0049999999998462
 30
0.0
 11
1.379999999999991
 21
0.1200000000000081
 31
0.0
  0
LINE
  5
AAB
330
A7E
100
AcDbEntity
  8
Part
100
AcDbLine
 10
1.379999999999991
 20
0.1200000000000081
 30
0.0
 11
1.495000018690479
 21
0.1200000000000081
 31
0.0
  0
ARC
  5
AAC
330
A7E
100
AcDbEntity
  8
Part
100
AcDbCircle
 10
1.518000000000004
 20
-0.0180000000000114
 30
0.0
 40
0.060000000000003
100
AcDbArc
 50
107.4576031237253
 51
162.5423968762552
  0
TEXT
  5
AAD
330
A7E
100
AcDbEntity
  8
Part
100
AcDbText
 10
0.5271074730908774
 20
0.5867325556782711
 30
0.0
 40
0.07
  1
Innovative
 51
15.0
  7
ARIAL
 72
     1
 11
0.7499996968289402
 21
0.6217325556782712
 31
0.0
100
AcDbText
 73
     2
  0
TEXT
  5
AAE
330
A7E
100
AcDbEntity
  8
Part
100
AcDbText
 10
0.5752589052293495
 20
0.4889622640086568
 30
0.0
 40
0.06
  1
IPP-8063
  7
ARIAL
 72
     1
 11
0.749999696498108
 21
0.5189622640086569
 31
0.0
100
AcDbText
 73
     2
  0
TEXT
  5
AAF
330
A7E
100
AcDbEntity
  8
Part
100
AcDbText
 10
0.3074076091856932
 20
0.3964865738889156
 30
0.0
 40
0.06
  1
225 - 2500 MHz. 200W 
  7
ARIAL
 72
     1
 11
0.749999696498108
 21
0.4264865738889157
 31
0.0
100
AcDbText
 73
     2
  0
LWPOLYLINE
  5
AB0
330
A7E
100
AcDbEntity
  8
Part
100
AcDbPolyline
 90
        8
 70
     1
 43
0.0
 10
0.1436999895161186
 20
0.2927000000000071
 42
-0.4142135623731133
 10
0.1736999895161198
 20
0.3227000000000082
 10
0.4622655310013251
 20
0.3227000000000011
 42
-0.4142135623730946
 10
0.492265531001312
 20
0.2927000000000071
 10
0.4922655310012907
 20
0.0992000000000069
 42
-0.4142135623730966
 10
0.462265531001318
 20
0.0692000000000057
 10
0.1736999895161198
 20
0.0692000000000057
 42
-0.4142135623730768
 10
0.1436999895161257
 20
0.0992000000000069
  0
CIRCLE
  5
AB1
330
A7E
100
AcDbEntity
  8
Part
100
AcDbCircle
 10
0.1111999895876998
 20
0.3572000003067792
 30
0.0
 40
0.0125
  0
CIRCLE
  5
AB2
330
A7E
100
AcDbEntity
  8
Part
100
AcDbCircle
 10
0.1111999895876998
 20
0.3022000003067795
 30
0.0
 40
0.0125
  0
CIRCLE
  5
AB3
330
A7E
100
AcDbEntity
  8
Part
100
AcDbCircle
 10
0.5297655310012992
 20
0.2720107484605272
 30
0.0
 40
0.0125
  0
CIRCLE
  5
AB4
330
A7E
100
AcDbEntity
  8
Part
100
AcDbCircle
 10
0.5297655310012992
 20
0.2170107484605275
 30
0.0
 40
0.0125
  0
CIRCLE
  5
AB5
330
A7E
100
AcDbEntity
  8
Part
100
AcDbCircle
 10
0.5297655310012992
 20
0.1620107484605349
 30
0.0
 40
0.0125
  0
CIRCLE
  5
AB6
330
A7E
100
AcDbEntity
  8
Part
100
AcDbCircle
 10
0.5297655310012992
 20
0.0520107484605355
 30
0.0
 40
0.0125
  0
CIRCLE
  5
AB7
330
A7E
100
AcDbEntity
  8
Part
100
AcDbCircle
 10
0.5297655310012992
 20
0.1070107484605351
 30
0.0
 40
0.0125
  0
CIRCLE
  5
AB8
330
A7E
100
AcDbEntity
  8
Part
100
AcDbCircle
 10
0.1661999895876924
 20
0.3572000003067792
 30
0.0
 40
0.0125
  0
CIRCLE
  5
AB9
330
A7E
100
AcDbEntity
  8
Part
100
AcDbCircle
 10
0.585094194096552
 20
0.2720107484605272
 30
0.0
 40
0.0125
  0
CIRCLE
  5
ABA
330
A7E
100
AcDbEntity
  8
Part
100
AcDbCircle
 10
0.221199989587685
 20
0.3572000003067792
 30
0.0
 40
0.0125
  0
CIRCLE
  5
ABB
330
A7E
100
AcDbEntity
  8
Part
100
AcDbCircle
 10
0.2761999895876777
 20
0.3572000003067792
 30
0.0
 40
0.0125
  0
CIRCLE
  5
ABC
330
A7E
100
AcDbEntity
  8
Part
100
AcDbCircle
 10
0.4411999895876555
 20
0.3572000003067792
 30
0.0
 40
0.0125
  0
CIRCLE
  5
ABD
330
A7E
100
AcDbEntity
  8
Part
100
AcDbCircle
 10
0.4961999895876481
 20
0.3572000003067792
 30
0.0
 40
0.0125
  0
CIRCLE
  5
ABE
330
A7E
100
AcDbEntity
  8
Part
100
AcDbCircle
 10
0.5297655310012992
 20
0.3270107484605269
 30
0.0
 40
0.0125
  0
CIRCLE
  5
ABF
330
A7E
100
AcDbEntity
  8
Part
100
AcDbCircle
 10
0.0561999895877072
 20
0.3572000003067792
 30
0.0
 40
0.0125
  0
CIRCLE
  5
AC0
330
A7E
100
AcDbEntity
  8
Part
100
AcDbCircle
 10
0.0561999895877072
 20
0.3022000003067866
 30
0.0
 40
0.0125
  0
CIRCLE
  5
AC1
330
A7E
100
AcDbEntity
  8
Part
100
AcDbCircle
 10
0.0561999895877072
 20
0.247200000306794
 30
0.0
 40
0.0125
  0
LWPOLYLINE
  5
AC2
330
A7E
100
AcDbEntity
  8
Part
100
AcDbPolyline
 90
        8
 70
     1
 43
0.0
 10
1.032273572371362
 20
0.0692000000000057
 10
1.102273572371363
 20
0.0692000000000057
 42
0.4142135623730951
 10
1.132273572371364
 20
0.0992000000000069
 10
1.132273572371364
 20
0.3272000000000066
 42
0.4142135623730951
 10
1.102273572371363
 20
0.357200000000006
 10
1.032273572371362
 20
0.357200000000006
 42
0.4142135623730951
 10
1.002273572371361
 20
0.3272000000000066
 10
1.002273572371361
 20
0.0992000000000069
 42
0.4142135623730951
  0
CIRCLE
  5
AC3
330
A7E
100
AcDbEntity
  8
Part
100
AcDbCircle
 10
0.6404189293170966
 20
0.2713514816824407
 30
0.0
 40
0.0125
  0
CIRCLE
  5
AC4
330
A7E
100
AcDbEntity
  8
Part
100
AcDbCircle
 10
0.6957475924123493
 20
0.2713514816824407
 30
0.0
 40
0.0125
  0
CIRCLE
  5
AC5
330
A7E
100
AcDbEntity
  8
Part
100
AcDbCircle
 10
0.7510723276328939
 20
0.2706922149043542
 30
0.0
 40
0.0125
  0
CIRCLE
  5
AC6
330
A7E
100
AcDbEntity
  8
Part
100
AcDbCircle
 10
0.8064009907281466
 20
0.2706922149043542
 30
0.0
 40
0.0125
  0
CIRCLE
  5
AC7
330
A7E
100
AcDbEntity
  8
Part
100
AcDbCircle
 10
0.8617257259486912
 20
0.270032948126266
 30
0.0
 40
0.0125
  0
CIRCLE
  5
AC8
330
A7E
100
AcDbEntity
  8
Part
100
AcDbCircle
 10
0.9170543890439439
 20
0.270032948126266
 30
0.0
 40
0.0125
  0
CIRCLE
  5
AC9
330
A7E
100
AcDbEntity
  8
Part
100
AcDbCircle
 10
0.9647735723713601
 20
0.2143775858905421
 30
0.0
 40
0.0125
  0
CIRCLE
  5
ACA
330
A7E
100
AcDbEntity
  8
Part
100
AcDbCircle
 10
0.9647735723713601
 20
0.1593775858905495
 30
0.0
 40
0.0125
  0
CIRCLE
  5
ACB
330
A7E
100
AcDbEntity
  8
Part
100
AcDbCircle
 10
0.9647735723713601
 20
0.0493775858905501
 30
0.0
 40
0.0125
  0
CIRCLE
  5
ACC
330
A7E
100
AcDbEntity
  8
Part
100
AcDbCircle
 10
0.9647735723713601
 20
0.1043775858905498
 30
0.0
 40
0.0125
  0
CIRCLE
  5
ACD
330
A7E
100
AcDbEntity
  8
Part
100
AcDbCircle
 10
1.169773572371365
 20
0.2143775858905421
 30
0.0
 40
0.0125
  0
CIRCLE
  5
ACE
330
A7E
100
AcDbEntity
  8
Part
100
AcDbCircle
 10
1.169773572371365
 20
0.1593775858905495
 30
0.0
 40
0.0125
  0
CIRCLE
  5
ACF
330
A7E
100
AcDbEntity
  8
Part
100
AcDbCircle
 10
1.169773572371365
 20
0.0493775858905501
 30
0.0
 40
0.0125
  0
CIRCLE
  5
AD0
330
A7E
100
AcDbEntity
  8
Part
100
AcDbCircle
 10
1.169773572371365
 20
0.1043775858905498
 30
0.0
 40
0.0125
  0
LWPOLYLINE
  5
AD1
330
A7E
100
AcDbEntity
  8
Part
100
AcDbPolyline
 90
        8
 70
     1
 43
0.0
 10
1.356300010483874
 20
0.7073000000000285
 42
-0.4142135623731133
 10
1.326300010483873
 20
0.6773000000000274
 10
1.037734468998667
 20
0.6773000000000345
 42
-0.4142135623730946
 10
1.00773446899868
 20
0.7073000000000285
 10
1.007734468998702
 20
0.9008000000000286
 42
-0.4142135623730966
 10
1.037734468998674
 20
0.9308000000000298
 10
1.326300010483873
 20
0.9308000000000298
 42
-0.4142135623730768
 10
1.356300010483867
 20
0.9008000000000286
  0
CIRCLE
  5
AD2
330
A7E
100
AcDbEntity
  8
Part
100
AcDbCircle
 10
1.388800010412293
 20
0.6427999996932563
 30
0.0
 40
0.0125
  0
CIRCLE
  5
AD3
330
A7E
100
AcDbEntity
  8
Part
100
AcDbCircle
 10
1.388800010412293
 20
0.6977999996932561
 30
0.0
 40
0.0125
  0
CIRCLE
  5
AD4
330
A7E
100
AcDbEntity
  8
Part
100
AcDbCircle
 10
0.9702344689986936
 20
0.7279892515395084
 30
0.0
 40
0.0125
  0
CIRCLE
  5
AD5
330
A7E
100
AcDbEntity
  8
Part
100
AcDbCircle
 10
0.9702344689986936
 20
0.7829892515395081
 30
0.0
 40
0.0125
  0
CIRCLE
  5
AD6
330
A7E
100
AcDbEntity
  8
Part
100
AcDbCircle
 10
0.9702344689986936
 20
0.8379892515395006
 30
0.0
 40
0.0125
  0
CIRCLE
  5
AD7
330
A7E
100
AcDbEntity
  8
Part
100
AcDbCircle
 10
0.9702344689986936
 20
0.9479892515395
 30
0.0
 40
0.0125
  0
CIRCLE
  5
AD8
330
A7E
100
AcDbEntity
  8
Part
100
AcDbCircle
 10
0.9702344689986936
 20
0.8929892515395003
 30
0.0
 40
0.0125
  0
CIRCLE
  5
AD9
330
A7E
100
AcDbEntity
  8
Part
100
AcDbCircle
 10
1.3338000104123
 20
0.6427999996932563
 30
0.0
 40
0.0125
  0
CIRCLE
  5
ADA
330
A7E
100
AcDbEntity
  8
Part
100
AcDbCircle
 10
0.9149058059034409
 20
0.7279892515395084
 30
0.0
 40
0.0125
  0
CIRCLE
  5
ADB
330
A7E
100
AcDbEntity
  8
Part
100
AcDbCircle
 10
1.278800010412307
 20
0.6427999996932563
 30
0.0
 40
0.0125
  0
CIRCLE
  5
ADC
330
A7E
100
AcDbEntity
  8
Part
100
AcDbCircle
 10
1.223800010412315
 20
0.6427999996932563
 30
0.0
 40
0.0125
  0
CIRCLE
  5
ADD
330
A7E
100
AcDbEntity
  8
Part
100
AcDbCircle
 10
1.058800010412337
 20
0.6427999996932563
 30
0.0
 40
0.0125
  0
CIRCLE
  5
ADE
330
A7E
100
AcDbEntity
  8
Part
100
AcDbCircle
 10
1.003800010412344
 20
0.6427999996932563
 30
0.0
 40
0.0125
  0
CIRCLE
  5
ADF
330
A7E
100
AcDbEntity
  8
Part
100
AcDbCircle
 10
0.9702344689986936
 20
0.6729892515395087
 30
0.0
 40
0.0125
  0
CIRCLE
  5
AE0
330
A7E
100
AcDbEntity
  8
Part
100
AcDbCircle
 10
1.443800010412285
 20
0.6427999996932563
 30
0.0
 40
0.0125
  0
CIRCLE
  5
AE1
330
A7E
100
AcDbEntity
  8
Part
100
AcDbCircle
 10
1.443800010412285
 20
0.6977999996932489
 30
0.0
 40
0.0125
  0
CIRCLE
  5
AE2
330
A7E
100
AcDbEntity
  8
Part
100
AcDbCircle
 10
1.443800010412285
 20
0.7527999996932416
 30
0.0
 40
0.0125
  0
LWPOLYLINE
  5
AE3
330
A7E
100
AcDbEntity
  8
Part
100
AcDbPolyline
 90
        8
 70
     1
 43
0.0
 10
0.4677264276286302
 20
0.9308000000000298
 10
0.3977264276286298
 20
0.9308000000000298
 42
0.4142135623730951
 10
0.3677264276286287
 20
0.9008000000000286
 10
0.3677264276286287
 20
0.672800000000029
 42
0.4142135623730951
 10
0.3977264276286298
 20
0.6428000000000296
 10
0.4677264276286302
 20
0.6428000000000296
 42
0.4142135623730951
 10
0.4977264276286313
 20
0.672800000000029
 10
0.4977264276286313
 20
0.9008000000000286
 42
0.4142135623730951
  0
CIRCLE
  5
AE4
330
A7E
100
AcDbEntity
  8
Part
100
AcDbCircle
 10
0.8595810706828963
 20
0.7286485183175948
 30
0.0
 40
0.0125
  0
CIRCLE
  5
AE5
330
A7E
100
AcDbEntity
  8
Part
100
AcDbCircle
 10
0.6935990092718463
 20
0.7293077850956813
 30
0.0
 40
0.0125
  0
CIRCLE
  5
AE6
330
A7E
100
AcDbEntity
  8
Part
100
AcDbCircle
 10
0.6382742740513017
 20
0.7299670518737696
 30
0.0
 40
0.0125
  0
CIRCLE
  5
AE7
330
A7E
100
AcDbEntity
  8
Part
100
AcDbCircle
 10
0.5829456109560489
 20
0.7299670518737696
 30
0.0
 40
0.0125
  0
CIRCLE
  5
AE8
330
A7E
100
AcDbEntity
  8
Part
100
AcDbCircle
 10
0.5352264276286327
 20
0.7856224141094934
 30
0.0
 40
0.0125
  0
CIRCLE
  5
AE9
330
A7E
100
AcDbEntity
  8
Part
100
AcDbCircle
 10
0.5352264276286327
 20
0.840622414109486
 30
0.0
 40
0.0125
  0
CIRCLE
  5
AEA
330
A7E
100
AcDbEntity
  8
Part
100
AcDbCircle
 10
0.5352264276286327
 20
0.9506224141094854
 30
0.0
 40
0.0125
  0
CIRCLE
  5
AEB
330
A7E
100
AcDbEntity
  8
Part
100
AcDbCircle
 10
0.5352264276286327
 20
0.8956224141094857
 30
0.0
 40
0.0125
  0
CIRCLE
  5
AEC
330
A7E
100
AcDbEntity
  8
Part
100
AcDbCircle
 10
0.3302264276286273
 20
0.7856224141094934
 30
0.0
 40
0.0125
  0
CIRCLE
  5
AED
330
A7E
100
AcDbEntity
  8
Part
100
AcDbCircle
 10
0.3302264276286273
 20
0.840622414109486
 30
0.0
 40
0.0125
  0
CIRCLE
  5
AEE
330
A7E
100
AcDbEntity
  8
Part
100
AcDbCircle
 10
0.3302264276286273
 20
0.9506224141094854
 30
0.0
 40
0.0125
  0
CIRCLE
  5
AEF
330
A7E
100
AcDbEntity
  8
Part
100
AcDbCircle
 10
0.3302264276286273
 20
0.8956224141094857
 30
0.0
 40
0.0125
  0
CIRCLE
  5
AF0
330
A7E
100
AcDbEntity
  8
Part
100
AcDbCircle
 10
0.2169011315267362
 20
0.896671497622103
 30
0.0
 40
0.0250000000000004
  0
LWPOLYLINE
  5
AF1
330
A7E
100
AcDbEntity
  8
Part
100
AcDbPolyline
 90
        8
 70
     1
 43
0.0
 10
1.032273572371362
 20
0.0692000000000057
 10
1.102273572371363
 20
0.0692000000000057
 42
0.4142135623730951
 10
1.132273572371364
 20
0.0992000000000069
 10
1.132273572371364
 20
0.3272000000000066
 42
0.4142135623730951
 10
1.102273572371363
 20
0.357200000000006
 10
1.032273572371362
 20
0.357200000000006
 42
0.4142135623730951
 10
1.002273572371361
 20
0.3272000000000066
 10
1.002273572371361
 20
0.0992000000000069
 42
0.4142135623730951
  0
CIRCLE
  5
AF2
330
A7E
100
AcDbEntity
  8
Part
100
AcDbCircle
 10
0.8042524075876436
 20
0.7286485183175948
 30
0.0
 40
0.0125
  0
CIRCLE
  5
AF3
330
A7E
100
AcDbEntity
  8
Part
100
AcDbCircle
 10
0.748927672367099
 20
0.7293077850956813
 30
0.0
 40
0.0125
  0
LWPOLYLINE
  5
AF4
330
A7E
100
AcDbEntity
  8
Part
100
AcDbPolyline
 90
        2
 70
     1
 43
0.025
 10
0.2044011315267369
 20
0.896671497622103
 42
1.0
 10
0.2294011315267355
 20
0.896671497622103
 42
1.0
  0
ENDBLK
  5
AF8
330
A7E
100
AcDbEntity
  8
0
100
AcDbBlockEnd
  0
ENDSEC
  0
SECTION
  2
ENTITIES
  0
TEXT
  5
43F
330
1F
100
AcDbEntity
  8
Text
100
AcDbText
 10
20.90033723254866
 20
7.765934646815562
 30
-0.062
 40
0.06
  1
%%UTOP & BOTTOM ARTWORK SCALE 1:1
  7
ROMANS
 72
     1
 11
21.75133723254866
 21
7.765934646815562
 31
-0.062
100
AcDbText
  0
TEXT
  5
440
330
1F
100
AcDbEntity
  8
Text
100
AcDbText
 10
20.72419437540581
 20
7.58598284266511
 30
-0.062
 40
0.06
  1
VIEW: LOOKING THRU FROM TOP TO BOTTOM
  7
ROMANS
 72
     1
 11
21.75133723254866
 21
7.58598284266511
 31
-0.062
100
AcDbText
  0
HATCH
  5
441
330
1F
100
AcDbEntity
  8
PCB_BOT
100
AcDbHatch
 10
0.0
 20
0.0
 30
0.0
210
0.0
220
0.0
230
1.0
  2
SOLID
 70
     1
 71
     0
 91
        3
 92
        7
 72
     1
 73
     1
 93
        3
 10
20.01628356839634
 20
6.629332543788104
 42
0.0
 10
20.01628356839634
 20
6.557062118215878
 42
0.1989123673796551
 10
20.06738647639769
 20
6.578229635786751
 42
0.0
 97
        0
 92
        7
 72
     1
 73
     1
 93
        3
 10
20.08855399396857
 20
6.629332543788104
 42
0.0
 10
20.01628356839634
 20
6.629332543788103
 42
0.0
 10
20.06738647639769
 20
6.578229635786747
 42
0.1989123673796482
 97
        0
 92
        7
 72
     1
 73
     1
 93
        3
 10
20.06738647639769
 20
6.680435451789462
 42
0.0
 10
20.01628356839634
 20
6.629332543788104
 42
0.0
 10
20.08855399396857
 20
6.629332543788104
 42
0.1989123673796509
 97
        0
 75
     0
 76
     1
 47
0.0001896584045076
 98
        3
 10
20.03973305736647
 20
6.588538760323412
 10
20.06516760014356
 20
6.60447009454559
 10
20.0632695288956
 20
6.632918876475838
  0
LINE
  5
442
330
1F
100
AcDbEntity
  8
PCB_BOT
100
AcDbLine
 10
19.9439023566374
 20
6.556951332029173
 30
0.0
 11
20.08866478015528
 21
6.701713755547043
 31
0.0
  0
LINE
  5
443
330
1F
100
AcDbEntity
  8
PCB_BOT
100
AcDbLine
 10
19.9439023566374
 20
6.701713755547043
 30
0.0
 11
20.08866478015528
 21
6.556951332029167
 31
0.0
  0
HATCH
  5
444
330
1F
100
AcDbEntity
  8
PCB_OUTLINE
100
AcDbHatch
 10
0.0
 20
0.0
 30
0.0
210
0.0
220
0.0
230
1.0
  2
SOLID
 70
     1
 71
     0
 91
        2
 92
        7
 72
     1
 73
     1
 93
        3
 10
20.01628356839635
 20
6.629332543788112
 42
0.0
 10
19.96518066039497
 20
6.578229635786747
 42
0.1989123673796946
 10
20.01628356839634
 20
6.557062118215878
 42
0.0
 97
        0
 92
        7
 72
     1
 73
     1
 93
        3
 10
20.01628356839633
 20
6.629332543788104
 42
0.0
 10
19.94401314282411
 20
6.629332543788104
 42
0.1989123673796509
 10
19.96518066039497
 20
6.578229635786747
 42
0.0
 97
        0
 75
     0
 76
     1
 47
0.0001896584045076
 98
        2
 10
20.00366921858718
 20
6.577159274786692
 10
19.96836451129348
 20
6.603711453098012
  0
LINE
  5
445
330
1F
100
AcDbEntity
  8
PCB_OUTLINE
100
AcDbLine
 10
19.9439023566374
 20
6.556951332029182
 30
0.0
 11
20.08866478015529
 21
6.70171375554705
 31
0.0
  0
LINE
  5
446
330
1F
100
AcDbEntity
  8
PCB_OUTLINE
100
AcDbLine
 10
19.94390235663741
 20
6.70171375554705
 30
0.0
 11
20.08866478015529
 21
6.556951332029173
 31
0.0
  0
LINE
  5
447
330
1F
100
AcDbEntity
  8
PCB_TOP
100
AcDbLine
 10
19.94390235663741
 20
6.70171375554705
 30
0.0
 11
20.08866478015529
 21
6.556951332029173
 31
0.0
  0
LINE
  5
448
330
1F
100
AcDbEntity
  8
PCB_TOP
100
AcDbLine
 10
19.9439023566374
 20
6.556951332029182
 30
0.0
 11
20.08866478015529
 21
6.70171375554705
 31
0.0
  0
CIRCLE
  5
449
330
1F
100
AcDbEntity
  8
PCB_BOT
100
AcDbCircle
 10
20.01628356839635
 20
6.629332543788097
 30
0.0
 40
0.0722704255722269
  0
CIRCLE
  5
44A
330
1F
100
AcDbEntity
  8
PCB_OUTLINE
100
AcDbCircle
 10
20.01628356839635
 20
6.629332543788097
 30
0.0
 40
0.0722704255722269
  0
CIRCLE
  5
44B
330
1F
100
AcDbEntity
  8
PCB_TOP
100
AcDbCircle
 10
20.01628356839635
 20
6.629332543788097
 30
0.0
 40
0.0722704255722269
  0
LINE
  5
44C
330
1F
100
AcDbEntity
  8
PCB_BOT
100
AcDbLine
 10
20.01628356839634
 20
6.731695035118594
 30
0.0
 11
20.01628356839634
 21
6.526970052457617
 31
0.0
  0
LINE
  5
44D
330
1F
100
AcDbEntity
  8
PCB_OUTLINE
100
AcDbLine
 10
20.01628356839635
 20
6.731695035118601
 30
0.0
 11
20.01628356839635
 21
6.526970052457622
 31
0.0
  0
LINE
  5
44E
330
1F
100
AcDbEntity
  8
PCB_TOP
100
AcDbLine
 10
20.01628356839635
 20
6.731695035118601
 30
0.0
 11
20.01628356839635
 21
6.526970052457622
 31
0.0
  0
LINE
  5
44F
330
1F
100
AcDbEntity
  8
PCB_BOT
100
AcDbLine
 10
20.11864605972684
 20
6.629332543788104
 30
0.0
 11
19.91392107706586
 21
6.629332543788104
 31
0.0
  0
HATCH
  5
450
330
1F
100
AcDbEntity
  8
PCB_TOP
100
AcDbHatch
 10
0.0
 20
0.0
 30
0.0
210
0.0
220
0.0
230
1.0
  2
SOLID
 70
     1
 71
     0
 91
        3
 92
        7
 72
     1
 73
     1
 93
        3
 10
20.01628356839634
 20
6.701602969360332
 42
0.1989123673796765
 10
19.96518066039498
 20
6.680435451789467
 42
0.0
 10
20.01628356839634
 20
6.629332543788104
 42
0.0
 97
        0
 92
        7
 72
     1
 73
     1
 93
        3
 10
19.96518066039498
 20
6.680435451789467
 42
0.1989123673796716
 10
19.94401314282411
 20
6.629332543788104
 42
0.0
 10
20.01628356839634
 20
6.629332543788104
 42
0.0
 97
        0
 92
        7
 72
     1
 73
     1
 93
        3
 10
20.06738647639769
 20
6.680435451789462
 42
0.1989123673796498
 10
20.01628356839634
 20
6.701602969360332
 42
0.0
 10
20.01628356839634
 20
6.629332543788112
 42
0.0
 97
        0
 75
     0
 76
     1
 47
0.0001896584045076
 98
        3
 10
20.00025264183404
 20
6.678057565987397
 10
19.97709573604771
 20
6.658712413339586
 10
20.03252033811742
 20
6.663643514660377
  0
LINE
  5
451
330
1F
100
AcDbEntity
  8
PCB_OUTLINE
100
AcDbLine
 10
20.11864605972684
 20
6.629332543788112
 30
0.0
 11
19.91392107706587
 21
6.629332543788112
 31
0.0
  0
LINE
  5
452
330
1F
100
AcDbEntity
  8
PCB_TOP
100
AcDbLine
 10
20.11864605972684
 20
6.629332543788112
 30
0.0
 11
19.91392107706587
 21
6.629332543788112
 31
0.0
  0
TEXT
  5
453
330
1F
100
AcDbEntity
  8
PCB_OUTLINE
100
AcDbText
 10
23.42021314199471
 20
6.357175916586751
 30
0.0
 40
0.0299327383810564
  1
PCB_OUTLINE
  7
ROMANS
100
AcDbText
  0
HATCH
  5
454
330
1F
100
AcDbEntity
  8
PCB_BOT
100
AcDbHatch
 10
0.0
 20
0.0
 30
0.0
210
0.0
220
0.0
230
1.0
  2
SOLID
 70
     1
 71
     0
 91
        3
 92
        7
 72
     1
 73
     1
 93
        3
 10
23.52100800678264
 20
6.629332603778633
 42
0.0
 10
23.52100800678264
 20
6.5570621782064
 42
0.1989123673796551
 10
23.57211091478399
 20
6.578229695777277
 42
0.0
 97
        0
 92
        7
 72
     1
 73
     1
 93
        3
 10
23.59327843235487
 20
6.629332603778633
 42
0.0
 10
23.52100800678264
 20
6.629332603778627
 42
0.0
 10
23.57211091478399
 20
6.578229695777271
 42
0.1989123673796482
 97
        0
 92
        7
 72
     1
 73
     1
 93
        3
 10
23.57211091478399
 20
6.68043551177999
 42
0.0
 10
23.52100800678264
 20
6.629332603778633
 42
0.0
 10
23.59327843235487
 20
6.629332603778633
 42
0.1989123673796509
 97
        0
 75
     0
 76
     1
 47
0.0001896584045076
 98
        3
 10
23.54445749575277
 20
6.588538820313942
 10
23.56989203852986
 20
6.604470154536116
 10
23.56799396728189
 20
6.632918936466367
  0
LINE
  5
455
330
1F
100
AcDbEntity
  8
PCB_BOT
100
AcDbLine
 10
23.4486267950237
 20
6.5569513920197
 30
0.0
 11
23.59338921854158
 21
6.701713815537567
 31
0.0
  0
LINE
  5
456
330
1F
100
AcDbEntity
  8
PCB_BOT
100
AcDbLine
 10
23.4486267950237
 20
6.701713815537567
 30
0.0
 11
23.59338921854158
 21
6.556951392019692
 31
0.0
  0
HATCH
  5
457
330
1F
100
AcDbEntity
  8
PCB_OUTLINE
100
AcDbHatch
 10
0.0
 20
0.0
 30
0.0
210
0.0
220
0.0
230
1.0
  2
SOLID
 70
     1
 71
     0
 91
        2
 92
        7
 72
     1
 73
     1
 93
        3
 10
23.52100800678265
 20
6.629332603778641
 42
0.0
 10
23.46990509878127
 20
6.578229695777271
 42
0.1989123673796946
 10
23.52100800678264
 20
6.5570621782064
 42
0.0
 97
        0
 92
        7
 72
     1
 73
     1
 93
        3
 10
23.52100800678263
 20
6.629332603778633
 42
0.0
 10
23.44873758121041
 20
6.629332603778633
 42
0.1989123673796509
 10
23.46990509878127
 20
6.578229695777271
 42
0.0
 97
        0
 75
     0
 76
     1
 47
0.0001896584045076
 98
        2
 10
23.50839365697348
 20
6.577159334777221
 10
23.47308894967978
 20
6.603711513088541
  0
LINE
  5
458
330
1F
100
AcDbEntity
  8
PCB_OUTLINE
100
AcDbLine
 10
23.4486267950237
 20
6.556951392019707
 30
0.0
 11
23.59338921854159
 21
6.701713815537576
 31
0.0
  0
LINE
  5
459
330
1F
100
AcDbEntity
  8
PCB_OUTLINE
100
AcDbLine
 10
23.44862679502371
 20
6.701713815537576
 30
0.0
 11
23.59338921854159
 21
6.5569513920197
 31
0.0
  0
LINE
  5
45A
330
1F
100
AcDbEntity
  8
PCB_TOP
100
AcDbLine
 10
23.44862679502371
 20
6.701713815537576
 30
0.0
 11
23.59338921854159
 21
6.5569513920197
 31
0.0
  0
LINE
  5
45B
330
1F
100
AcDbEntity
  8
PCB_TOP
100
AcDbLine
 10
23.4486267950237
 20
6.556951392019707
 30
0.0
 11
23.59338921854159
 21
6.701713815537576
 31
0.0
  0
CIRCLE
  5
45C
330
1F
100
AcDbEntity
  8
PCB_BOT
100
AcDbCircle
 10
23.52100800678265
 20
6.629332603778624
 30
0.0
 40
0.0722704255722269
  0
CIRCLE
  5
45D
330
1F
100
AcDbEntity
  8
PCB_OUTLINE
100
AcDbCircle
 10
23.52100800678265
 20
6.629332603778624
 30
0.0
 40
0.0722704255722269
  0
CIRCLE
  5
45E
330
1F
100
AcDbEntity
  8
PCB_TOP
100
AcDbCircle
 10
23.52100800678265
 20
6.629332603778624
 30
0.0
 40
0.0722704255722269
  0
LINE
  5
45F
330
1F
100
AcDbEntity
  8
PCB_BOT
100
AcDbLine
 10
23.52100800678264
 20
6.73169509510912
 30
0.0
 11
23.52100800678264
 21
6.526970112448142
 31
0.0
  0
LINE
  5
460
330
1F
100
AcDbEntity
  8
PCB_OUTLINE
100
AcDbLine
 10
23.52100800678265
 20
6.731695095109127
 30
0.0
 11
23.52100800678265
 21
6.526970112448147
 31
0.0
  0
LINE
  5
461
330
1F
100
AcDbEntity
  8
PCB_TOP
100
AcDbLine
 10
23.52100800678265
 20
6.731695095109127
 30
0.0
 11
23.52100800678265
 21
6.526970112448147
 31
0.0
  0
TEXT
  5
462
330
1F
100
AcDbEntity
  8
PCB_TOP
100
AcDbText
 10
23.42021314199471
 20
6.413989358802551
 30
0.0
 40
0.0299327383810564
  1
PCB_TOP
  7
ROMANS
100
AcDbText
  0
TEXT
  5
463
330
1F
100
AcDbEntity
  8
PCB_BOT
100
AcDbText
 10
23.42021314199471
 20
6.297893894718457
 30
0.0
 40
0.0299327383810564
  1
PCB_BOT
  7
ROMANS
100
AcDbText
  0
LINE
  5
464
330
1F
100
AcDbEntity
  8
PCB_BOT
100
AcDbLine
 10
23.62337049811312
 20
6.629332603778633
 30
0.0
 11
23.41864551545215
 21
6.629332603778633
 31
0.0
  0
HATCH
  5
465
330
1F
100
AcDbEntity
  8
PCB_TOP
100
AcDbHatch
 10
0.0
 20
0.0
 30
0.0
210
0.0
220
0.0
230
1.0
  2
SOLID
 70
     1
 71
     0
 91
        3
 92
        7
 72
     1
 73
     1
 93
        3
 10
23.52100800678264
 20
6.701603029350859
 42
0.1989123673796765
 10
23.46990509878128
 20
6.680435511779992
 42
0.0
 10
23.52100800678264
 20
6.629332603778633
 42
0.0
 97
        0
 92
        7
 72
     1
 73
     1
 93
        3
 10
23.46990509878128
 20
6.680435511779992
 42
0.1989123673796716
 10
23.44873758121041
 20
6.629332603778633
 42
0.0
 10
23.52100800678264
 20
6.629332603778633
 42
0.0
 97
        0
 92
        7
 72
     1
 73
     1
 93
        3
 10
23.57211091478399
 20
6.68043551177999
 42
0.1989123673796498
 10
23.52100800678264
 20
6.701603029350859
 42
0.0
 10
23.52100800678264
 20
6.629332603778637
 42
0.0
 97
        0
 75
     0
 76
     1
 47
0.0001896584045076
 98
        3
 10
23.50497708022034
 20
6.678057625977927
 10
23.481820174434
 20
6.658712473330112
 10
23.53724477650371
 20
6.663643574650905
  0
LINE
  5
466
330
1F
100
AcDbEntity
  8
PCB_OUTLINE
100
AcDbLine
 10
23.62337049811312
 20
6.629332603778637
 30
0.0
 11
23.41864551545217
 21
6.629332603778637
 31
0.0
  0
LINE
  5
467
330
1F
100
AcDbEntity
  8
PCB_TOP
100
AcDbLine
 10
23.62337049811312
 20
6.629332603778637
 30
0.0
 11
23.41864551545217
 21
6.629332603778637
 31
0.0
  0
LWPOLYLINE
  5
468
330
1F
100
AcDbEntity
  8
PCB_BOT
100
AcDbPolyline
 90
        4
 70
     1
 43
0.0
 10
20.61864604957156
 20
7.504339817803372
 10
22.91864551545216
 20
7.504339937729407
 10
22.91864551545216
 20
5.754325269827855
 10
20.6186460698821
 20
5.754325269772852
  0
LWPOLYLINE
  5
469
330
1F
100
AcDbEntity
  8
PCB_OUTLINE
100
AcDbPolyline
 90
        4
 70
     1
 43
0.0
 10
20.6186460698821
 20
5.754325269772852
 10
22.91864551545216
 20
5.754325269827855
 10
22.91864551545216
 20
7.504339937729407
 10
20.61864604957156
 20
7.504339817803372
  0
CIRCLE
  5
46A
330
1F
100
AcDbEntity
  8
PCB_OUTLINE
100
AcDbCircle
 10
21.20864605392413
 20
6.029325269827856
 30
0.0
 40
0.015
  0
CIRCLE
  5
46B
330
1F
100
AcDbEntity
  8
PCB_OUTLINE
100
AcDbCircle
 10
21.28864605392413
 20
6.029325269827856
 30
0.0
 40
0.015
  0
CIRCLE
  5
46C
330
1F
100
AcDbEntity
  8
PCB_OUTLINE
100
AcDbCircle
 10
21.36864605392412
 20
6.029325269827856
 30
0.0
 40
0.015
  0
CIRCLE
  5
46D
330
1F
100
AcDbEntity
  8
PCB_OUTLINE
100
AcDbCircle
 10
21.44864605392412
 20
6.029325269827856
 30
0.0
 40
0.015
  0
CIRCLE
  5
46E
330
1F
100
AcDbEntity
  8
PCB_OUTLINE
100
AcDbCircle
 10
21.52864605392413
 20
6.029325269827856
 30
0.0
 40
0.015
  0
CIRCLE
  5
46F
330
1F
100
AcDbEntity
  8
PCB_OUTLINE
100
AcDbCircle
 10
21.60864605392413
 20
6.029325269827856
 30
0.0
 40
0.015
  0
CIRCLE
  5
470
330
1F
100
AcDbEntity
  8
PCB_OUTLINE
100
AcDbCircle
 10
21.76864605392412
 20
6.029325269827856
 30
0.0
 40
0.015
  0
CIRCLE
  5
471
330
1F
100
AcDbEntity
  8
PCB_OUTLINE
100
AcDbCircle
 10
21.68864605392412
 20
6.029325269827856
 30
0.0
 40
0.015
  0
CIRCLE
  5
472
330
1F
100
AcDbEntity
  8
PCB_OUTLINE
100
AcDbCircle
 10
21.20864605392413
 20
5.949325269827856
 30
0.0
 40
0.015
  0
CIRCLE
  5
473
330
1F
100
AcDbEntity
  8
PCB_OUTLINE
100
AcDbCircle
 10
21.20864605392413
 20
5.869325269827855
 30
0.0
 40
0.015
  0
CIRCLE
  5
474
330
1F
100
AcDbEntity
  8
PCB_OUTLINE
100
AcDbCircle
 10
21.28864605392413
 20
5.949325269827856
 30
0.0
 40
0.015
  0
CIRCLE
  5
475
330
1F
100
AcDbEntity
  8
PCB_OUTLINE
100
AcDbCircle
 10
21.28864605392413
 20
5.869325269827855
 30
0.0
 40
0.015
  0
CIRCLE
  5
476
330
1F
100
AcDbEntity
  8
PCB_OUTLINE
100
AcDbCircle
 10
21.36864605392412
 20
5.949325269827856
 30
0.0
 40
0.015
  0
CIRCLE
  5
477
330
1F
100
AcDbEntity
  8
PCB_OUTLINE
100
AcDbCircle
 10
21.36864605392412
 20
5.869325269827855
 30
0.0
 40
0.015
  0
CIRCLE
  5
478
330
1F
100
AcDbEntity
  8
PCB_OUTLINE
100
AcDbCircle
 10
21.44864605392412
 20
5.949325269827856
 30
0.0
 40
0.015
  0
CIRCLE
  5
479
330
1F
100
AcDbEntity
  8
PCB_OUTLINE
100
AcDbCircle
 10
21.44864605392412
 20
5.869325269827855
 30
0.0
 40
0.015
  0
CIRCLE
  5
47A
330
1F
100
AcDbEntity
  8
PCB_OUTLINE
100
AcDbCircle
 10
21.52864605392413
 20
5.949325269827856
 30
0.0
 40
0.015
  0
CIRCLE
  5
47B
330
1F
100
AcDbEntity
  8
PCB_OUTLINE
100
AcDbCircle
 10
21.52864605392413
 20
5.869325269827855
 30
0.0
 40
0.015
  0
CIRCLE
  5
47C
330
1F
100
AcDbEntity
  8
PCB_OUTLINE
100
AcDbCircle
 10
21.60864605392413
 20
5.949325269827856
 30
0.0
 40
0.015
  0
CIRCLE
  5
47D
330
1F
100
AcDbEntity
  8
PCB_OUTLINE
100
AcDbCircle
 10
21.60864605392413
 20
5.869325269827855
 30
0.0
 40
0.015
  0
CIRCLE
  5
47E
330
1F
100
AcDbEntity
  8
PCB_OUTLINE
100
AcDbCircle
 10
21.76864605392412
 20
5.949325269827856
 30
0.0
 40
0.015
  0
CIRCLE
  5
47F
330
1F
100
AcDbEntity
  8
PCB_OUTLINE
100
AcDbCircle
 10
21.76864605392412
 20
5.869325269827855
 30
0.0
 40
0.015
  0
CIRCLE
  5
480
330
1F
100
AcDbEntity
  8
PCB_OUTLINE
100
AcDbCircle
 10
21.68864605392412
 20
5.949325269827856
 30
0.0
 40
0.015
  0
CIRCLE
  5
481
330
1F
100
AcDbEntity
  8
PCB_OUTLINE
100
AcDbCircle
 10
21.68864605392412
 20
5.869325269827855
 30
0.0
 40
0.015
  0
CIRCLE
  5
482
330
1F
100
AcDbEntity
  8
PCB_OUTLINE
100
AcDbCircle
 10
21.20864605392413
 20
5.789325269827855
 30
0.0
 40
0.015
  0
CIRCLE
  5
483
330
1F
100
AcDbEntity
  8
PCB_OUTLINE
100
AcDbCircle
 10
21.28864605392413
 20
5.789325269827855
 30
0.0
 40
0.015
  0
CIRCLE
  5
484
330
1F
100
AcDbEntity
  8
PCB_OUTLINE
100
AcDbCircle
 10
21.36864605392412
 20
5.789325269827855
 30
0.0
 40
0.015
  0
CIRCLE
  5
485
330
1F
100
AcDbEntity
  8
PCB_OUTLINE
100
AcDbCircle
 10
21.44864605392412
 20
5.789325269827855
 30
0.0
 40
0.015
  0
CIRCLE
  5
486
330
1F
100
AcDbEntity
  8
PCB_OUTLINE
100
AcDbCircle
 10
21.52864605392413
 20
5.789325269827855
 30
0.0
 40
0.015
  0
CIRCLE
  5
487
330
1F
100
AcDbEntity
  8
PCB_OUTLINE
100
AcDbCircle
 10
21.60864605392413
 20
5.789325269827855
 30
0.0
 40
0.015
  0
CIRCLE
  5
488
330
1F
100
AcDbEntity
  8
PCB_OUTLINE
100
AcDbCircle
 10
21.76864605392412
 20
5.789325269827855
 30
0.0
 40
0.015
  0
CIRCLE
  5
489
330
1F
100
AcDbEntity
  8
PCB_OUTLINE
100
AcDbCircle
 10
21.68864605392412
 20
5.789325269827855
 30
0.0
 40
0.015
  0
CIRCLE
  5
48A
330
1F
100
AcDbEntity
  8
PCB_OUTLINE
100
AcDbCircle
 10
22.32864605392412
 20
6.029325269827856
 30
0.0
 40
0.015
  0
CIRCLE
  5
48B
330
1F
100
AcDbEntity
  8
PCB_OUTLINE
100
AcDbCircle
 10
22.24864605392412
 20
6.029325269827856
 30
0.0
 40
0.015
  0
CIRCLE
  5
48C
330
1F
100
AcDbEntity
  8
PCB_OUTLINE
100
AcDbCircle
 10
22.16864605392412
 20
6.029325269827856
 30
0.0
 40
0.015
  0
CIRCLE
  5
48D
330
1F
100
AcDbEntity
  8
PCB_OUTLINE
100
AcDbCircle
 10
22.08864605392412
 20
6.029325269827856
 30
0.0
 40
0.015
  0
CIRCLE
  5
48E
330
1F
100
AcDbEntity
  8
PCB_OUTLINE
100
AcDbCircle
 10
22.00864605392412
 20
6.029325269827856
 30
0.0
 40
0.015
  0
CIRCLE
  5
48F
330
1F
100
AcDbEntity
  8
PCB_OUTLINE
100
AcDbCircle
 10
21.92864605392412
 20
6.029325269827856
 30
0.0
 40
0.015
  0
CIRCLE
  5
490
330
1F
100
AcDbEntity
  8
PCB_OUTLINE
100
AcDbCircle
 10
21.84864605392413
 20
6.029325269827856
 30
0.0
 40
0.015
  0
CIRCLE
  5
491
330
1F
100
AcDbEntity
  8
PCB_OUTLINE
100
AcDbCircle
 10
22.32864605392412
 20
5.949325269827856
 30
0.0
 40
0.015
  0
CIRCLE
  5
492
330
1F
100
AcDbEntity
  8
PCB_OUTLINE
100
AcDbCircle
 10
22.32864605392412
 20
5.869325269827855
 30
0.0
 40
0.015
  0
CIRCLE
  5
493
330
1F
100
AcDbEntity
  8
PCB_OUTLINE
100
AcDbCircle
 10
22.24864605392412
 20
5.949325269827856
 30
0.0
 40
0.015
  0
CIRCLE
  5
494
330
1F
100
AcDbEntity
  8
PCB_OUTLINE
100
AcDbCircle
 10
22.24864605392412
 20
5.869325269827855
 30
0.0
 40
0.015
  0
CIRCLE
  5
495
330
1F
100
AcDbEntity
  8
PCB_OUTLINE
100
AcDbCircle
 10
22.16864605392412
 20
5.949325269827856
 30
0.0
 40
0.015
  0
CIRCLE
  5
496
330
1F
100
AcDbEntity
  8
PCB_OUTLINE
100
AcDbCircle
 10
22.16864605392412
 20
5.869325269827855
 30
0.0
 40
0.015
  0
CIRCLE
  5
497
330
1F
100
AcDbEntity
  8
PCB_OUTLINE
100
AcDbCircle
 10
22.08864605392412
 20
5.949325269827856
 30
0.0
 40
0.015
  0
CIRCLE
  5
498
330
1F
100
AcDbEntity
  8
PCB_OUTLINE
100
AcDbCircle
 10
22.08864605392412
 20
5.869325269827855
 30
0.0
 40
0.015
  0
CIRCLE
  5
499
330
1F
100
AcDbEntity
  8
PCB_OUTLINE
100
AcDbCircle
 10
22.00864605392412
 20
5.949325269827856
 30
0.0
 40
0.015
  0
CIRCLE
  5
49A
330
1F
100
AcDbEntity
  8
PCB_OUTLINE
100
AcDbCircle
 10
22.00864605392412
 20
5.869325269827855
 30
0.0
 40
0.015
  0
CIRCLE
  5
49B
330
1F
100
AcDbEntity
  8
PCB_OUTLINE
100
AcDbCircle
 10
21.92864605392412
 20
5.949325269827856
 30
0.0
 40
0.015
  0
CIRCLE
  5
49C
330
1F
100
AcDbEntity
  8
PCB_OUTLINE
100
AcDbCircle
 10
21.92864605392412
 20
5.869325269827855
 30
0.0
 40
0.015
  0
CIRCLE
  5
49D
330
1F
100
AcDbEntity
  8
PCB_OUTLINE
100
AcDbCircle
 10
21.84864605392413
 20
5.949325269827856
 30
0.0
 40
0.015
  0
CIRCLE
  5
49E
330
1F
100
AcDbEntity
  8
PCB_OUTLINE
100
AcDbCircle
 10
21.84864605392413
 20
5.869325269827855
 30
0.0
 40
0.015
  0
CIRCLE
  5
49F
330
1F
100
AcDbEntity
  8
PCB_OUTLINE
100
AcDbCircle
 10
22.32864605392412
 20
5.789325269827855
 30
0.0
 40
0.015
  0
CIRCLE
  5
4A0
330
1F
100
AcDbEntity
  8
PCB_OUTLINE
100
AcDbCircle
 10
22.24864605392412
 20
5.789325269827855
 30
0.0
 40
0.015
  0
CIRCLE
  5
4A1
330
1F
100
AcDbEntity
  8
PCB_OUTLINE
100
AcDbCircle
 10
22.16864605392412
 20
5.789325269827855
 30
0.0
 40
0.015
  0
CIRCLE
  5
4A2
330
1F
100
AcDbEntity
  8
PCB_OUTLINE
100
AcDbCircle
 10
22.08864605392412
 20
5.789325269827855
 30
0.0
 40
0.015
  0
CIRCLE
  5
4A3
330
1F
100
AcDbEntity
  8
PCB_OUTLINE
100
AcDbCircle
 10
22.00864605392412
 20
5.789325269827855
 30
0.0
 40
0.015
  0
CIRCLE
  5
4A4
330
1F
100
AcDbEntity
  8
PCB_OUTLINE
100
AcDbCircle
 10
21.92864605392412
 20
5.789325269827855
 30
0.0
 40
0.015
  0
CIRCLE
  5
4A5
330
1F
100
AcDbEntity
  8
PCB_OUTLINE
100
AcDbCircle
 10
21.84864605392413
 20
5.789325269827855
 30
0.0
 40
0.015
  0
CIRCLE
  5
4A6
330
1F
100
AcDbEntity
  8
PCB_OUTLINE
100
AcDbCircle
 10
22.88864605392411
 20
6.029325269827856
 30
0.0
 40
0.015
  0
CIRCLE
  5
4A7
330
1F
100
AcDbEntity
  8
PCB_OUTLINE
100
AcDbCircle
 10
22.88864605392411
 20
5.949325269827856
 30
0.0
 40
0.015
  0
CIRCLE
  5
4A8
330
1F
100
AcDbEntity
  8
PCB_OUTLINE
100
AcDbCircle
 10
22.88864605392411
 20
5.869325269827855
 30
0.0
 40
0.015
  0
CIRCLE
  5
4A9
330
1F
100
AcDbEntity
  8
PCB_OUTLINE
100
AcDbCircle
 10
22.88864605392411
 20
5.789325269827855
 30
0.0
 40
0.015
  0
CIRCLE
  5
4AA
330
1F
100
AcDbEntity
  8
PCB_OUTLINE
100
AcDbCircle
 10
22.64864605392412
 20
6.029325269827856
 30
0.0
 40
0.015
  0
CIRCLE
  5
4AB
330
1F
100
AcDbEntity
  8
PCB_OUTLINE
100
AcDbCircle
 10
22.72864605392411
 20
6.029325269827856
 30
0.0
 40
0.015
  0
CIRCLE
  5
4AC
330
1F
100
AcDbEntity
  8
PCB_OUTLINE
100
AcDbCircle
 10
22.80864605392411
 20
6.029325269827856
 30
0.0
 40
0.015
  0
CIRCLE
  5
4AD
330
1F
100
AcDbEntity
  8
PCB_OUTLINE
100
AcDbCircle
 10
22.64864605392412
 20
5.949325269827856
 30
0.0
 40
0.015
  0
CIRCLE
  5
4AE
330
1F
100
AcDbEntity
  8
PCB_OUTLINE
100
AcDbCircle
 10
22.64864605392412
 20
5.869325269827855
 30
0.0
 40
0.015
  0
CIRCLE
  5
4AF
330
1F
100
AcDbEntity
  8
PCB_OUTLINE
100
AcDbCircle
 10
22.72864605392411
 20
5.949325269827856
 30
0.0
 40
0.015
  0
CIRCLE
  5
4B0
330
1F
100
AcDbEntity
  8
PCB_OUTLINE
100
AcDbCircle
 10
22.72864605392411
 20
5.869325269827855
 30
0.0
 40
0.015
  0
CIRCLE
  5
4B1
330
1F
100
AcDbEntity
  8
PCB_OUTLINE
100
AcDbCircle
 10
22.80864605392411
 20
5.949325269827856
 30
0.0
 40
0.015
  0
CIRCLE
  5
4B2
330
1F
100
AcDbEntity
  8
PCB_OUTLINE
100
AcDbCircle
 10
22.80864605392411
 20
5.869325269827855
 30
0.0
 40
0.015
  0
CIRCLE
  5
4B3
330
1F
100
AcDbEntity
  8
PCB_OUTLINE
100
AcDbCircle
 10
22.64864605392412
 20
5.789325269827855
 30
0.0
 40
0.015
  0
CIRCLE
  5
4B4
330
1F
100
AcDbEntity
  8
PCB_OUTLINE
100
AcDbCircle
 10
22.72864605392411
 20
5.789325269827855
 30
0.0
 40
0.015
  0
CIRCLE
  5
4B5
330
1F
100
AcDbEntity
  8
PCB_OUTLINE
100
AcDbCircle
 10
22.80864605392411
 20
5.789325269827855
 30
0.0
 40
0.015
  0
CIRCLE
  5
4B6
330
1F
100
AcDbEntity
  8
PCB_OUTLINE
100
AcDbCircle
 10
20.88864605392413
 20
6.029325269827856
 30
0.0
 40
0.015
  0
CIRCLE
  5
4B7
330
1F
100
AcDbEntity
  8
PCB_OUTLINE
100
AcDbCircle
 10
20.80864605392413
 20
6.029325269827856
 30
0.0
 40
0.015
  0
CIRCLE
  5
4B8
330
1F
100
AcDbEntity
  8
PCB_OUTLINE
100
AcDbCircle
 10
20.64864605392413
 20
6.029325269827856
 30
0.0
 40
0.015
  0
CIRCLE
  5
4B9
330
1F
100
AcDbEntity
  8
PCB_OUTLINE
100
AcDbCircle
 10
20.72864605392414
 20
6.029325269827856
 30
0.0
 40
0.015
  0
CIRCLE
  5
4BA
330
1F
100
AcDbEntity
  8
PCB_OUTLINE
100
AcDbCircle
 10
20.88864605392413
 20
5.949325269827856
 30
0.0
 40
0.015
  0
CIRCLE
  5
4BB
330
1F
100
AcDbEntity
  8
PCB_OUTLINE
100
AcDbCircle
 10
20.88864605392413
 20
5.869325269827855
 30
0.0
 40
0.015
  0
CIRCLE
  5
4BC
330
1F
100
AcDbEntity
  8
PCB_OUTLINE
100
AcDbCircle
 10
20.80864605392413
 20
5.949325269827856
 30
0.0
 40
0.015
  0
CIRCLE
  5
4BD
330
1F
100
AcDbEntity
  8
PCB_OUTLINE
100
AcDbCircle
 10
20.80864605392413
 20
5.869325269827855
 30
0.0
 40
0.015
  0
CIRCLE
  5
4BE
330
1F
100
AcDbEntity
  8
PCB_OUTLINE
100
AcDbCircle
 10
20.64864605392413
 20
5.949325269827856
 30
0.0
 40
0.015
  0
CIRCLE
  5
4BF
330
1F
100
AcDbEntity
  8
PCB_OUTLINE
100
AcDbCircle
 10
20.64864605392413
 20
5.869325269827855
 30
0.0
 40
0.015
  0
CIRCLE
  5
4C0
330
1F
100
AcDbEntity
  8
PCB_OUTLINE
100
AcDbCircle
 10
20.72864605392414
 20
5.949325269827856
 30
0.0
 40
0.015
  0
CIRCLE
  5
4C1
330
1F
100
AcDbEntity
  8
PCB_OUTLINE
100
AcDbCircle
 10
20.72864605392414
 20
5.869325269827855
 30
0.0
 40
0.015
  0
CIRCLE
  5
4C2
330
1F
100
AcDbEntity
  8
PCB_OUTLINE
100
AcDbCircle
 10
20.88864605392413
 20
5.789325269827855
 30
0.0
 40
0.015
  0
CIRCLE
  5
4C3
330
1F
100
AcDbEntity
  8
PCB_OUTLINE
100
AcDbCircle
 10
20.80864605392413
 20
5.789325269827855
 30
0.0
 40
0.015
  0
CIRCLE
  5
4C4
330
1F
100
AcDbEntity
  8
PCB_OUTLINE
100
AcDbCircle
 10
20.64864605392413
 20
5.789325269827855
 30
0.0
 40
0.015
  0
CIRCLE
  5
4C5
330
1F
100
AcDbEntity
  8
PCB_OUTLINE
100
AcDbCircle
 10
20.72864605392414
 20
5.789325269827855
 30
0.0
 40
0.015
  0
CIRCLE
  5
4C6
330
1F
100
AcDbEntity
  8
PCB_OUTLINE
100
AcDbCircle
 10
21.20864605392413
 20
6.109325269827857
 30
0.0
 40
0.015
  0
CIRCLE
  5
4C7
330
1F
100
AcDbEntity
  8
PCB_OUTLINE
100
AcDbCircle
 10
21.20864605392413
 20
6.189325269827857
 30
0.0
 40
0.015
  0
CIRCLE
  5
4C8
330
1F
100
AcDbEntity
  8
PCB_OUTLINE
100
AcDbCircle
 10
21.28864605392413
 20
6.109325269827857
 30
0.0
 40
0.015
  0
CIRCLE
  5
4C9
330
1F
100
AcDbEntity
  8
PCB_OUTLINE
100
AcDbCircle
 10
21.28864605392413
 20
6.189325269827857
 30
0.0
 40
0.015
  0
CIRCLE
  5
4CA
330
1F
100
AcDbEntity
  8
PCB_OUTLINE
100
AcDbCircle
 10
21.36864605392412
 20
6.109325269827857
 30
0.0
 40
0.015
  0
CIRCLE
  5
4CB
330
1F
100
AcDbEntity
  8
PCB_OUTLINE
100
AcDbCircle
 10
21.36864605392412
 20
6.189325269827857
 30
0.0
 40
0.015
  0
CIRCLE
  5
4CC
330
1F
100
AcDbEntity
  8
PCB_OUTLINE
100
AcDbCircle
 10
21.44864605392412
 20
6.109325269827857
 30
0.0
 40
0.015
  0
CIRCLE
  5
4CD
330
1F
100
AcDbEntity
  8
PCB_OUTLINE
100
AcDbCircle
 10
21.44864605392412
 20
6.189325269827857
 30
0.0
 40
0.015
  0
CIRCLE
  5
4CE
330
1F
100
AcDbEntity
  8
PCB_OUTLINE
100
AcDbCircle
 10
21.52864605392413
 20
6.109325269827857
 30
0.0
 40
0.015
  0
CIRCLE
  5
4CF
330
1F
100
AcDbEntity
  8
PCB_OUTLINE
100
AcDbCircle
 10
21.52864605392413
 20
6.189325269827857
 30
0.0
 40
0.015
  0
CIRCLE
  5
4D0
330
1F
100
AcDbEntity
  8
PCB_OUTLINE
100
AcDbCircle
 10
21.60864605392413
 20
6.109325269827857
 30
0.0
 40
0.015
  0
CIRCLE
  5
4D1
330
1F
100
AcDbEntity
  8
PCB_OUTLINE
100
AcDbCircle
 10
21.60864605392413
 20
6.189325269827857
 30
0.0
 40
0.015
  0
CIRCLE
  5
4D2
330
1F
100
AcDbEntity
  8
PCB_OUTLINE
100
AcDbCircle
 10
21.76864605392412
 20
6.109325269827857
 30
0.0
 40
0.015
  0
CIRCLE
  5
4D3
330
1F
100
AcDbEntity
  8
PCB_OUTLINE
100
AcDbCircle
 10
21.76864605392412
 20
6.189325269827857
 30
0.0
 40
0.015
  0
CIRCLE
  5
4D4
330
1F
100
AcDbEntity
  8
PCB_OUTLINE
100
AcDbCircle
 10
21.68864605392412
 20
6.109325269827857
 30
0.0
 40
0.015
  0
CIRCLE
  5
4D5
330
1F
100
AcDbEntity
  8
PCB_OUTLINE
100
AcDbCircle
 10
21.68864605392412
 20
6.189325269827857
 30
0.0
 40
0.015
  0
CIRCLE
  5
4D6
330
1F
100
AcDbEntity
  8
PCB_OUTLINE
100
AcDbCircle
 10
21.20864605392413
 20
6.269325269827857
 30
0.0
 40
0.015
  0
CIRCLE
  5
4D7
330
1F
100
AcDbEntity
  8
PCB_OUTLINE
100
AcDbCircle
 10
21.28864605392413
 20
6.269325269827857
 30
0.0
 40
0.015
  0
CIRCLE
  5
4D8
330
1F
100
AcDbEntity
  8
PCB_OUTLINE
100
AcDbCircle
 10
21.36864605392412
 20
6.269325269827857
 30
0.0
 40
0.015
  0
CIRCLE
  5
4D9
330
1F
100
AcDbEntity
  8
PCB_OUTLINE
100
AcDbCircle
 10
21.44864605392412
 20
6.269325269827857
 30
0.0
 40
0.015
  0
CIRCLE
  5
4DA
330
1F
100
AcDbEntity
  8
PCB_OUTLINE
100
AcDbCircle
 10
21.52864605392413
 20
6.269325269827857
 30
0.0
 40
0.015
  0
CIRCLE
  5
4DB
330
1F
100
AcDbEntity
  8
PCB_OUTLINE
100
AcDbCircle
 10
21.60864605392413
 20
6.269325269827857
 30
0.0
 40
0.015
  0
CIRCLE
  5
4DC
330
1F
100
AcDbEntity
  8
PCB_OUTLINE
100
AcDbCircle
 10
21.76864605392412
 20
6.269325269827857
 30
0.0
 40
0.015
  0
CIRCLE
  5
4DD
330
1F
100
AcDbEntity
  8
PCB_OUTLINE
100
AcDbCircle
 10
21.68864605392412
 20
6.269325269827857
 30
0.0
 40
0.015
  0
CIRCLE
  5
4DE
330
1F
100
AcDbEntity
  8
PCB_OUTLINE
100
AcDbCircle
 10
22.32864605392412
 20
6.109325269827857
 30
0.0
 40
0.015
  0
CIRCLE
  5
4DF
330
1F
100
AcDbEntity
  8
PCB_OUTLINE
100
AcDbCircle
 10
22.32864605392412
 20
6.189325269827857
 30
0.0
 40
0.015
  0
CIRCLE
  5
4E0
330
1F
100
AcDbEntity
  8
PCB_OUTLINE
100
AcDbCircle
 10
22.24864605392412
 20
6.109325269827857
 30
0.0
 40
0.015
  0
CIRCLE
  5
4E1
330
1F
100
AcDbEntity
  8
PCB_OUTLINE
100
AcDbCircle
 10
22.24864605392412
 20
6.189325269827857
 30
0.0
 40
0.015
  0
CIRCLE
  5
4E2
330
1F
100
AcDbEntity
  8
PCB_OUTLINE
100
AcDbCircle
 10
22.16864605392412
 20
6.109325269827857
 30
0.0
 40
0.015
  0
CIRCLE
  5
4E3
330
1F
100
AcDbEntity
  8
PCB_OUTLINE
100
AcDbCircle
 10
22.16864605392412
 20
6.189325269827857
 30
0.0
 40
0.015
  0
CIRCLE
  5
4E4
330
1F
100
AcDbEntity
  8
PCB_OUTLINE
100
AcDbCircle
 10
22.08864605392412
 20
6.109325269827857
 30
0.0
 40
0.015
  0
CIRCLE
  5
4E5
330
1F
100
AcDbEntity
  8
PCB_OUTLINE
100
AcDbCircle
 10
22.08864605392412
 20
6.189325269827857
 30
0.0
 40
0.015
  0
CIRCLE
  5
4E6
330
1F
100
AcDbEntity
  8
PCB_OUTLINE
100
AcDbCircle
 10
22.00864605392412
 20
6.109325269827857
 30
0.0
 40
0.015
  0
CIRCLE
  5
4E7
330
1F
100
AcDbEntity
  8
PCB_OUTLINE
100
AcDbCircle
 10
22.00864605392412
 20
6.189325269827857
 30
0.0
 40
0.015
  0
CIRCLE
  5
4E8
330
1F
100
AcDbEntity
  8
PCB_OUTLINE
100
AcDbCircle
 10
21.92864605392412
 20
6.109325269827857
 30
0.0
 40
0.015
  0
CIRCLE
  5
4E9
330
1F
100
AcDbEntity
  8
PCB_OUTLINE
100
AcDbCircle
 10
21.92864605392412
 20
6.189325269827857
 30
0.0
 40
0.015
  0
CIRCLE
  5
4EA
330
1F
100
AcDbEntity
  8
PCB_OUTLINE
100
AcDbCircle
 10
21.84864605392413
 20
6.109325269827857
 30
0.0
 40
0.015
  0
CIRCLE
  5
4EB
330
1F
100
AcDbEntity
  8
PCB_OUTLINE
100
AcDbCircle
 10
21.84864605392413
 20
6.189325269827857
 30
0.0
 40
0.015
  0
CIRCLE
  5
4EC
330
1F
100
AcDbEntity
  8
PCB_OUTLINE
100
AcDbCircle
 10
22.32864605392412
 20
6.269325269827857
 30
0.0
 40
0.015
  0
CIRCLE
  5
4ED
330
1F
100
AcDbEntity
  8
PCB_OUTLINE
100
AcDbCircle
 10
22.24864605392412
 20
6.269325269827857
 30
0.0
 40
0.015
  0
CIRCLE
  5
4EE
330
1F
100
AcDbEntity
  8
PCB_OUTLINE
100
AcDbCircle
 10
22.16864605392412
 20
6.269325269827857
 30
0.0
 40
0.015
  0
CIRCLE
  5
4EF
330
1F
100
AcDbEntity
  8
PCB_OUTLINE
100
AcDbCircle
 10
22.08864605392412
 20
6.269325269827857
 30
0.0
 40
0.015
  0
CIRCLE
  5
4F0
330
1F
100
AcDbEntity
  8
PCB_OUTLINE
100
AcDbCircle
 10
22.00864605392412
 20
6.269325269827857
 30
0.0
 40
0.015
  0
CIRCLE
  5
4F1
330
1F
100
AcDbEntity
  8
PCB_OUTLINE
100
AcDbCircle
 10
21.92864605392412
 20
6.269325269827857
 30
0.0
 40
0.015
  0
CIRCLE
  5
4F2
330
1F
100
AcDbEntity
  8
PCB_OUTLINE
100
AcDbCircle
 10
21.84864605392413
 20
6.269325269827857
 30
0.0
 40
0.015
  0
CIRCLE
  5
4F3
330
1F
100
AcDbEntity
  8
PCB_OUTLINE
100
AcDbCircle
 10
22.88864605392411
 20
6.109325269827857
 30
0.0
 40
0.015
  0
CIRCLE
  5
4F4
330
1F
100
AcDbEntity
  8
PCB_OUTLINE
100
AcDbCircle
 10
22.88864605392411
 20
6.189325269827857
 30
0.0
 40
0.015
  0
CIRCLE
  5
4F5
330
1F
100
AcDbEntity
  8
PCB_OUTLINE
100
AcDbCircle
 10
22.88864605392411
 20
6.269325269827857
 30
0.0
 40
0.015
  0
CIRCLE
  5
4F6
330
1F
100
AcDbEntity
  8
PCB_OUTLINE
100
AcDbCircle
 10
22.64864605392412
 20
6.109325269827857
 30
0.0
 40
0.015
  0
CIRCLE
  5
4F7
330
1F
100
AcDbEntity
  8
PCB_OUTLINE
100
AcDbCircle
 10
22.64864605392412
 20
6.189325269827857
 30
0.0
 40
0.015
  0
CIRCLE
  5
4F8
330
1F
100
AcDbEntity
  8
PCB_OUTLINE
100
AcDbCircle
 10
22.72864605392411
 20
6.109325269827857
 30
0.0
 40
0.015
  0
CIRCLE
  5
4F9
330
1F
100
AcDbEntity
  8
PCB_OUTLINE
100
AcDbCircle
 10
22.72864605392411
 20
6.189325269827857
 30
0.0
 40
0.015
  0
CIRCLE
  5
4FA
330
1F
100
AcDbEntity
  8
PCB_OUTLINE
100
AcDbCircle
 10
22.80864605392411
 20
6.109325269827857
 30
0.0
 40
0.015
  0
CIRCLE
  5
4FB
330
1F
100
AcDbEntity
  8
PCB_OUTLINE
100
AcDbCircle
 10
22.80864605392411
 20
6.189325269827857
 30
0.0
 40
0.015
  0
CIRCLE
  5
4FC
330
1F
100
AcDbEntity
  8
PCB_OUTLINE
100
AcDbCircle
 10
22.40864605392411
 20
6.269325269827857
 30
0.0
 40
0.015
  0
CIRCLE
  5
4FD
330
1F
100
AcDbEntity
  8
PCB_OUTLINE
100
AcDbCircle
 10
22.48864605392411
 20
6.269325269827857
 30
0.0
 40
0.015
  0
CIRCLE
  5
4FE
330
1F
100
AcDbEntity
  8
PCB_OUTLINE
100
AcDbCircle
 10
22.56864605392411
 20
6.269325269827857
 30
0.0
 40
0.015
  0
CIRCLE
  5
4FF
330
1F
100
AcDbEntity
  8
PCB_OUTLINE
100
AcDbCircle
 10
22.64864605392412
 20
6.269325269827857
 30
0.0
 40
0.015
  0
CIRCLE
  5
500
330
1F
100
AcDbEntity
  8
PCB_OUTLINE
100
AcDbCircle
 10
22.72864605392411
 20
6.269325269827857
 30
0.0
 40
0.015
  0
CIRCLE
  5
501
330
1F
100
AcDbEntity
  8
PCB_OUTLINE
100
AcDbCircle
 10
22.80864605392411
 20
6.269325269827857
 30
0.0
 40
0.015
  0
CIRCLE
  5
502
330
1F
100
AcDbEntity
  8
PCB_OUTLINE
100
AcDbCircle
 10
20.88864605392413
 20
6.109325269827857
 30
0.0
 40
0.015
  0
CIRCLE
  5
503
330
1F
100
AcDbEntity
  8
PCB_OUTLINE
100
AcDbCircle
 10
20.88864605392413
 20
6.189325269827857
 30
0.0
 40
0.015
  0
CIRCLE
  5
504
330
1F
100
AcDbEntity
  8
PCB_OUTLINE
100
AcDbCircle
 10
20.80864605392413
 20
6.109325269827857
 30
0.0
 40
0.015
  0
CIRCLE
  5
505
330
1F
100
AcDbEntity
  8
PCB_OUTLINE
100
AcDbCircle
 10
20.80864605392413
 20
6.189325269827857
 30
0.0
 40
0.015
  0
CIRCLE
  5
506
330
1F
100
AcDbEntity
  8
PCB_OUTLINE
100
AcDbCircle
 10
20.64864605392413
 20
6.109325269827857
 30
0.0
 40
0.015
  0
CIRCLE
  5
507
330
1F
100
AcDbEntity
  8
PCB_OUTLINE
100
AcDbCircle
 10
20.64864605392413
 20
6.189325269827857
 30
0.0
 40
0.015
  0
CIRCLE
  5
508
330
1F
100
AcDbEntity
  8
PCB_OUTLINE
100
AcDbCircle
 10
20.72864605392414
 20
6.109325269827857
 30
0.0
 40
0.015
  0
CIRCLE
  5
509
330
1F
100
AcDbEntity
  8
PCB_OUTLINE
100
AcDbCircle
 10
20.72864605392414
 20
6.189325269827857
 30
0.0
 40
0.015
  0
CIRCLE
  5
50A
330
1F
100
AcDbEntity
  8
PCB_OUTLINE
100
AcDbCircle
 10
20.88864605392413
 20
6.269325269827857
 30
0.0
 40
0.015
  0
CIRCLE
  5
50B
330
1F
100
AcDbEntity
  8
PCB_OUTLINE
100
AcDbCircle
 10
20.80864605392413
 20
6.269325269827857
 30
0.0
 40
0.015
  0
CIRCLE
  5
50C
330
1F
100
AcDbEntity
  8
PCB_OUTLINE
100
AcDbCircle
 10
20.64864605392413
 20
6.269325269827857
 30
0.0
 40
0.015
  0
CIRCLE
  5
50D
330
1F
100
AcDbEntity
  8
PCB_OUTLINE
100
AcDbCircle
 10
20.72864605392414
 20
6.269325269827857
 30
0.0
 40
0.015
  0
CIRCLE
  5
50E
330
1F
100
AcDbEntity
  8
PCB_OUTLINE
100
AcDbCircle
 10
20.96864605392413
 20
6.269325269827857
 30
0.0
 40
0.015
  0
CIRCLE
  5
50F
330
1F
100
AcDbEntity
  8
PCB_OUTLINE
100
AcDbCircle
 10
21.12864605392412
 20
6.269325269827857
 30
0.0
 40
0.015
  0
CIRCLE
  5
510
330
1F
100
AcDbEntity
  8
PCB_OUTLINE
100
AcDbCircle
 10
21.04864605392412
 20
6.269325269827857
 30
0.0
 40
0.015
  0
CIRCLE
  5
511
330
1F
100
AcDbEntity
  8
PCB_OUTLINE
100
AcDbCircle
 10
20.88864605392413
 20
6.429325269827857
 30
0.0
 40
0.015
  0
CIRCLE
  5
512
330
1F
100
AcDbEntity
  8
PCB_OUTLINE
100
AcDbCircle
 10
20.88864605392413
 20
6.349325269827857
 30
0.0
 40
0.015
  0
CIRCLE
  5
513
330
1F
100
AcDbEntity
  8
PCB_OUTLINE
100
AcDbCircle
 10
20.80864605392413
 20
6.429325269827857
 30
0.0
 40
0.015
  0
CIRCLE
  5
514
330
1F
100
AcDbEntity
  8
PCB_OUTLINE
100
AcDbCircle
 10
20.80864605392413
 20
6.349325269827857
 30
0.0
 40
0.015
  0
CIRCLE
  5
515
330
1F
100
AcDbEntity
  8
PCB_OUTLINE
100
AcDbCircle
 10
20.64864605392413
 20
6.429325269827857
 30
0.0
 40
0.015
  0
CIRCLE
  5
516
330
1F
100
AcDbEntity
  8
PCB_OUTLINE
100
AcDbCircle
 10
20.64864605392413
 20
6.349325269827857
 30
0.0
 40
0.015
  0
CIRCLE
  5
517
330
1F
100
AcDbEntity
  8
PCB_OUTLINE
100
AcDbCircle
 10
20.72864605392414
 20
6.429325269827857
 30
0.0
 40
0.015
  0
CIRCLE
  5
518
330
1F
100
AcDbEntity
  8
PCB_OUTLINE
100
AcDbCircle
 10
20.72864605392414
 20
6.349325269827857
 30
0.0
 40
0.015
  0
CIRCLE
  5
519
330
1F
100
AcDbEntity
  8
PCB_OUTLINE
100
AcDbCircle
 10
20.96864605392413
 20
6.429325269827857
 30
0.0
 40
0.015
  0
CIRCLE
  5
51A
330
1F
100
AcDbEntity
  8
PCB_OUTLINE
100
AcDbCircle
 10
20.96864605392413
 20
6.349325269827857
 30
0.0
 40
0.015
  0
CIRCLE
  5
51B
330
1F
100
AcDbEntity
  8
PCB_OUTLINE
100
AcDbCircle
 10
21.12864605392412
 20
6.429325269827857
 30
0.0
 40
0.015
  0
CIRCLE
  5
51C
330
1F
100
AcDbEntity
  8
PCB_OUTLINE
100
AcDbCircle
 10
21.12864605392412
 20
6.349325269827857
 30
0.0
 40
0.015
  0
CIRCLE
  5
51D
330
1F
100
AcDbEntity
  8
PCB_OUTLINE
100
AcDbCircle
 10
21.04864605392412
 20
6.429325269827857
 30
0.0
 40
0.015
  0
CIRCLE
  5
51E
330
1F
100
AcDbEntity
  8
PCB_OUTLINE
100
AcDbCircle
 10
21.04864605392412
 20
6.349325269827857
 30
0.0
 40
0.015
  0
CIRCLE
  5
51F
330
1F
100
AcDbEntity
  8
PCB_OUTLINE
100
AcDbCircle
 10
21.36864605392412
 20
6.429325269827857
 30
0.0
 40
0.015
  0
CIRCLE
  5
520
330
1F
100
AcDbEntity
  8
PCB_OUTLINE
100
AcDbCircle
 10
21.36864605392412
 20
6.349325269827857
 30
0.0
 40
0.015
  0
CIRCLE
  5
521
330
1F
100
AcDbEntity
  8
PCB_OUTLINE
100
AcDbCircle
 10
21.44864605392411
 20
6.429325269827857
 30
0.0
 40
0.015
  0
CIRCLE
  5
522
330
1F
100
AcDbEntity
  8
PCB_OUTLINE
100
AcDbCircle
 10
21.44864605392411
 20
6.349325269827857
 30
0.0
 40
0.015
  0
CIRCLE
  5
523
330
1F
100
AcDbEntity
  8
PCB_OUTLINE
100
AcDbCircle
 10
21.60864605392411
 20
6.429325269827857
 30
0.0
 40
0.015
  0
CIRCLE
  5
524
330
1F
100
AcDbEntity
  8
PCB_OUTLINE
100
AcDbCircle
 10
21.60864605392411
 20
6.349325269827857
 30
0.0
 40
0.015
  0
CIRCLE
  5
525
330
1F
100
AcDbEntity
  8
PCB_OUTLINE
100
AcDbCircle
 10
21.5286460539241
 20
6.429325269827857
 30
0.0
 40
0.015
  0
CIRCLE
  5
526
330
1F
100
AcDbEntity
  8
PCB_OUTLINE
100
AcDbCircle
 10
21.5286460539241
 20
6.349325269827857
 30
0.0
 40
0.015
  0
CIRCLE
  5
527
330
1F
100
AcDbEntity
  8
PCB_OUTLINE
100
AcDbCircle
 10
21.28864605392412
 20
6.429325269827857
 30
0.0
 40
0.015
  0
CIRCLE
  5
528
330
1F
100
AcDbEntity
  8
PCB_OUTLINE
100
AcDbCircle
 10
21.28864605392412
 20
6.349325269827857
 30
0.0
 40
0.015
  0
CIRCLE
  5
529
330
1F
100
AcDbEntity
  8
PCB_OUTLINE
100
AcDbCircle
 10
21.20864605392413
 20
6.429325269827857
 30
0.0
 40
0.015
  0
CIRCLE
  5
52A
330
1F
100
AcDbEntity
  8
PCB_OUTLINE
100
AcDbCircle
 10
21.20864605392413
 20
6.349325269827857
 30
0.0
 40
0.015
  0
CIRCLE
  5
52B
330
1F
100
AcDbEntity
  8
PCB_OUTLINE
100
AcDbCircle
 10
21.76864605392412
 20
6.429325269827857
 30
0.0
 40
0.015
  0
CIRCLE
  5
52C
330
1F
100
AcDbEntity
  8
PCB_OUTLINE
100
AcDbCircle
 10
21.76864605392412
 20
6.349325269827857
 30
0.0
 40
0.015
  0
CIRCLE
  5
52D
330
1F
100
AcDbEntity
  8
PCB_OUTLINE
100
AcDbCircle
 10
21.68864605392412
 20
6.429325269827857
 30
0.0
 40
0.015
  0
CIRCLE
  5
52E
330
1F
100
AcDbEntity
  8
PCB_OUTLINE
100
AcDbCircle
 10
21.68864605392412
 20
6.349325269827857
 30
0.0
 40
0.015
  0
CIRCLE
  5
52F
330
1F
100
AcDbEntity
  8
PCB_OUTLINE
100
AcDbCircle
 10
22.32864605392412
 20
6.429325269827857
 30
0.0
 40
0.015
  0
CIRCLE
  5
530
330
1F
100
AcDbEntity
  8
PCB_OUTLINE
100
AcDbCircle
 10
22.32864605392412
 20
6.349325269827857
 30
0.0
 40
0.015
  0
CIRCLE
  5
531
330
1F
100
AcDbEntity
  8
PCB_OUTLINE
100
AcDbCircle
 10
22.24864605392412
 20
6.429325269827857
 30
0.0
 40
0.015
  0
CIRCLE
  5
532
330
1F
100
AcDbEntity
  8
PCB_OUTLINE
100
AcDbCircle
 10
22.24864605392412
 20
6.349325269827857
 30
0.0
 40
0.015
  0
CIRCLE
  5
533
330
1F
100
AcDbEntity
  8
PCB_OUTLINE
100
AcDbCircle
 10
22.16864605392412
 20
6.429325269827857
 30
0.0
 40
0.015
  0
CIRCLE
  5
534
330
1F
100
AcDbEntity
  8
PCB_OUTLINE
100
AcDbCircle
 10
22.16864605392412
 20
6.349325269827857
 30
0.0
 40
0.015
  0
CIRCLE
  5
535
330
1F
100
AcDbEntity
  8
PCB_OUTLINE
100
AcDbCircle
 10
22.08864605392412
 20
6.429325269827857
 30
0.0
 40
0.015
  0
CIRCLE
  5
536
330
1F
100
AcDbEntity
  8
PCB_OUTLINE
100
AcDbCircle
 10
22.08864605392412
 20
6.349325269827857
 30
0.0
 40
0.015
  0
CIRCLE
  5
537
330
1F
100
AcDbEntity
  8
PCB_OUTLINE
100
AcDbCircle
 10
22.00864605392412
 20
6.429325269827857
 30
0.0
 40
0.015
  0
CIRCLE
  5
538
330
1F
100
AcDbEntity
  8
PCB_OUTLINE
100
AcDbCircle
 10
22.00864605392412
 20
6.349325269827857
 30
0.0
 40
0.015
  0
CIRCLE
  5
539
330
1F
100
AcDbEntity
  8
PCB_OUTLINE
100
AcDbCircle
 10
21.92864605392412
 20
6.429325269827857
 30
0.0
 40
0.015
  0
CIRCLE
  5
53A
330
1F
100
AcDbEntity
  8
PCB_OUTLINE
100
AcDbCircle
 10
21.92864605392412
 20
6.349325269827857
 30
0.0
 40
0.015
  0
CIRCLE
  5
53B
330
1F
100
AcDbEntity
  8
PCB_OUTLINE
100
AcDbCircle
 10
21.84864605392413
 20
6.429325269827857
 30
0.0
 40
0.015
  0
CIRCLE
  5
53C
330
1F
100
AcDbEntity
  8
PCB_OUTLINE
100
AcDbCircle
 10
21.84864605392413
 20
6.349325269827857
 30
0.0
 40
0.015
  0
CIRCLE
  5
53D
330
1F
100
AcDbEntity
  8
PCB_OUTLINE
100
AcDbCircle
 10
22.88864605392411
 20
6.429325269827857
 30
0.0
 40
0.015
  0
CIRCLE
  5
53E
330
1F
100
AcDbEntity
  8
PCB_OUTLINE
100
AcDbCircle
 10
22.88864605392411
 20
6.349325269827857
 30
0.0
 40
0.015
  0
CIRCLE
  5
53F
330
1F
100
AcDbEntity
  8
PCB_OUTLINE
100
AcDbCircle
 10
22.40864605392411
 20
6.429325269827857
 30
0.0
 40
0.015
  0
CIRCLE
  5
540
330
1F
100
AcDbEntity
  8
PCB_OUTLINE
100
AcDbCircle
 10
22.40864605392411
 20
6.349325269827857
 30
0.0
 40
0.015
  0
CIRCLE
  5
541
330
1F
100
AcDbEntity
  8
PCB_OUTLINE
100
AcDbCircle
 10
22.48864605392411
 20
6.429325269827857
 30
0.0
 40
0.015
  0
CIRCLE
  5
542
330
1F
100
AcDbEntity
  8
PCB_OUTLINE
100
AcDbCircle
 10
22.48864605392411
 20
6.349325269827857
 30
0.0
 40
0.015
  0
CIRCLE
  5
543
330
1F
100
AcDbEntity
  8
PCB_OUTLINE
100
AcDbCircle
 10
22.56864605392411
 20
6.429325269827857
 30
0.0
 40
0.015
  0
CIRCLE
  5
544
330
1F
100
AcDbEntity
  8
PCB_OUTLINE
100
AcDbCircle
 10
22.56864605392411
 20
6.349325269827857
 30
0.0
 40
0.015
  0
CIRCLE
  5
545
330
1F
100
AcDbEntity
  8
PCB_OUTLINE
100
AcDbCircle
 10
22.64864605392412
 20
6.429325269827857
 30
0.0
 40
0.015
  0
CIRCLE
  5
546
330
1F
100
AcDbEntity
  8
PCB_OUTLINE
100
AcDbCircle
 10
22.64864605392412
 20
6.349325269827857
 30
0.0
 40
0.015
  0
CIRCLE
  5
547
330
1F
100
AcDbEntity
  8
PCB_OUTLINE
100
AcDbCircle
 10
22.72864605392411
 20
6.429325269827857
 30
0.0
 40
0.015
  0
CIRCLE
  5
548
330
1F
100
AcDbEntity
  8
PCB_OUTLINE
100
AcDbCircle
 10
22.72864605392411
 20
6.349325269827857
 30
0.0
 40
0.015
  0
CIRCLE
  5
549
330
1F
100
AcDbEntity
  8
PCB_OUTLINE
100
AcDbCircle
 10
22.80864605392411
 20
6.429325269827857
 30
0.0
 40
0.015
  0
CIRCLE
  5
54A
330
1F
100
AcDbEntity
  8
PCB_OUTLINE
100
AcDbCircle
 10
22.80864605392411
 20
6.349325269827857
 30
0.0
 40
0.015
  0
CIRCLE
  5
54B
330
1F
100
AcDbEntity
  8
PCB_OUTLINE
100
AcDbCircle
 10
21.20864605392413
 20
6.589325269827856
 30
0.0
 40
0.015
  0
CIRCLE
  5
54C
330
1F
100
AcDbEntity
  8
PCB_OUTLINE
100
AcDbCircle
 10
21.28864605392413
 20
6.589325269827856
 30
0.0
 40
0.015
  0
CIRCLE
  5
54D
330
1F
100
AcDbEntity
  8
PCB_OUTLINE
100
AcDbCircle
 10
21.36864605392412
 20
6.589325269827856
 30
0.0
 40
0.015
  0
CIRCLE
  5
54E
330
1F
100
AcDbEntity
  8
PCB_OUTLINE
100
AcDbCircle
 10
21.44864605392412
 20
6.589325269827856
 30
0.0
 40
0.015
  0
CIRCLE
  5
54F
330
1F
100
AcDbEntity
  8
PCB_OUTLINE
100
AcDbCircle
 10
21.52864605392413
 20
6.589325269827856
 30
0.0
 40
0.015
  0
CIRCLE
  5
550
330
1F
100
AcDbEntity
  8
PCB_OUTLINE
100
AcDbCircle
 10
21.60864605392413
 20
6.589325269827856
 30
0.0
 40
0.015
  0
CIRCLE
  5
551
330
1F
100
AcDbEntity
  8
PCB_OUTLINE
100
AcDbCircle
 10
21.76864605392412
 20
6.589325269827856
 30
0.0
 40
0.015
  0
CIRCLE
  5
552
330
1F
100
AcDbEntity
  8
PCB_OUTLINE
100
AcDbCircle
 10
21.68864605392412
 20
6.589325269827856
 30
0.0
 40
0.015
  0
CIRCLE
  5
553
330
1F
100
AcDbEntity
  8
PCB_OUTLINE
100
AcDbCircle
 10
22.32864605392412
 20
6.589325269827856
 30
0.0
 40
0.015
  0
CIRCLE
  5
554
330
1F
100
AcDbEntity
  8
PCB_OUTLINE
100
AcDbCircle
 10
22.24864605392412
 20
6.589325269827856
 30
0.0
 40
0.015
  0
CIRCLE
  5
555
330
1F
100
AcDbEntity
  8
PCB_OUTLINE
100
AcDbCircle
 10
22.16864605392412
 20
6.589325269827856
 30
0.0
 40
0.015
  0
CIRCLE
  5
556
330
1F
100
AcDbEntity
  8
PCB_OUTLINE
100
AcDbCircle
 10
22.08864605392412
 20
6.589325269827856
 30
0.0
 40
0.015
  0
CIRCLE
  5
557
330
1F
100
AcDbEntity
  8
PCB_OUTLINE
100
AcDbCircle
 10
22.00864605392412
 20
6.589325269827856
 30
0.0
 40
0.015
  0
CIRCLE
  5
558
330
1F
100
AcDbEntity
  8
PCB_OUTLINE
100
AcDbCircle
 10
21.92864605392412
 20
6.589325269827856
 30
0.0
 40
0.015
  0
CIRCLE
  5
559
330
1F
100
AcDbEntity
  8
PCB_OUTLINE
100
AcDbCircle
 10
21.84864605392413
 20
6.589325269827856
 30
0.0
 40
0.015
  0
CIRCLE
  5
55A
330
1F
100
AcDbEntity
  8
PCB_OUTLINE
100
AcDbCircle
 10
21.12864605392412
 20
6.509325269827857
 30
0.0
 40
0.015
  0
CIRCLE
  5
55B
330
1F
100
AcDbEntity
  8
PCB_OUTLINE
100
AcDbCircle
 10
21.04864605392412
 20
6.509325269827857
 30
0.0
 40
0.015
  0
CIRCLE
  5
55C
330
1F
100
AcDbEntity
  8
PCB_OUTLINE
100
AcDbCircle
 10
21.36864605392412
 20
6.509325269827857
 30
0.0
 40
0.015
  0
CIRCLE
  5
55D
330
1F
100
AcDbEntity
  8
PCB_OUTLINE
100
AcDbCircle
 10
21.44864605392411
 20
6.509325269827857
 30
0.0
 40
0.015
  0
CIRCLE
  5
55E
330
1F
100
AcDbEntity
  8
PCB_OUTLINE
100
AcDbCircle
 10
21.60864605392411
 20
6.509325269827857
 30
0.0
 40
0.015
  0
CIRCLE
  5
55F
330
1F
100
AcDbEntity
  8
PCB_OUTLINE
100
AcDbCircle
 10
21.5286460539241
 20
6.509325269827857
 30
0.0
 40
0.015
  0
CIRCLE
  5
560
330
1F
100
AcDbEntity
  8
PCB_OUTLINE
100
AcDbCircle
 10
21.28864605392412
 20
6.509325269827857
 30
0.0
 40
0.015
  0
CIRCLE
  5
561
330
1F
100
AcDbEntity
  8
PCB_OUTLINE
100
AcDbCircle
 10
21.20864605392413
 20
6.509325269827857
 30
0.0
 40
0.015
  0
CIRCLE
  5
562
330
1F
100
AcDbEntity
  8
PCB_OUTLINE
100
AcDbCircle
 10
21.76864605392412
 20
6.509325269827857
 30
0.0
 40
0.015
  0
CIRCLE
  5
563
330
1F
100
AcDbEntity
  8
PCB_OUTLINE
100
AcDbCircle
 10
21.68864605392412
 20
6.509325269827857
 30
0.0
 40
0.015
  0
CIRCLE
  5
564
330
1F
100
AcDbEntity
  8
PCB_OUTLINE
100
AcDbCircle
 10
22.32864605392412
 20
6.509325269827857
 30
0.0
 40
0.015
  0
CIRCLE
  5
565
330
1F
100
AcDbEntity
  8
PCB_OUTLINE
100
AcDbCircle
 10
22.24864605392412
 20
6.509325269827857
 30
0.0
 40
0.015
  0
CIRCLE
  5
566
330
1F
100
AcDbEntity
  8
PCB_OUTLINE
100
AcDbCircle
 10
22.16864605392412
 20
6.509325269827857
 30
0.0
 40
0.015
  0
CIRCLE
  5
567
330
1F
100
AcDbEntity
  8
PCB_OUTLINE
100
AcDbCircle
 10
22.08864605392412
 20
6.509325269827857
 30
0.0
 40
0.015
  0
CIRCLE
  5
568
330
1F
100
AcDbEntity
  8
PCB_OUTLINE
100
AcDbCircle
 10
22.00864605392412
 20
6.509325269827857
 30
0.0
 40
0.015
  0
CIRCLE
  5
569
330
1F
100
AcDbEntity
  8
PCB_OUTLINE
100
AcDbCircle
 10
21.92864605392412
 20
6.509325269827857
 30
0.0
 40
0.015
  0
CIRCLE
  5
56A
330
1F
100
AcDbEntity
  8
PCB_OUTLINE
100
AcDbCircle
 10
21.84864605392413
 20
6.509325269827857
 30
0.0
 40
0.015
  0
CIRCLE
  5
56B
330
1F
100
AcDbEntity
  8
PCB_OUTLINE
100
AcDbCircle
 10
22.40864605392411
 20
6.509325269827857
 30
0.0
 40
0.015
  0
CIRCLE
  5
56C
330
1F
100
AcDbEntity
  8
PCB_OUTLINE
100
AcDbCircle
 10
22.48864605392411
 20
6.509325269827857
 30
0.0
 40
0.015
  0
CIRCLE
  5
56D
330
1F
100
AcDbEntity
  8
PCB_OUTLINE
100
AcDbCircle
 10
21.12864605392412
 20
6.749325269827856
 30
0.0
 40
0.015
  0
CIRCLE
  5
56E
330
1F
100
AcDbEntity
  8
PCB_OUTLINE
100
AcDbCircle
 10
21.12864605392412
 20
6.829325269827856
 30
0.0
 40
0.015
  0
CIRCLE
  5
56F
330
1F
100
AcDbEntity
  8
PCB_OUTLINE
100
AcDbCircle
 10
21.04864605392412
 20
6.749325269827856
 30
0.0
 40
0.015
  0
CIRCLE
  5
570
330
1F
100
AcDbEntity
  8
PCB_OUTLINE
100
AcDbCircle
 10
21.04864605392412
 20
6.829325269827856
 30
0.0
 40
0.015
  0
CIRCLE
  5
571
330
1F
100
AcDbEntity
  8
PCB_OUTLINE
100
AcDbCircle
 10
21.36864605392412
 20
6.749325269827856
 30
0.0
 40
0.015
  0
CIRCLE
  5
572
330
1F
100
AcDbEntity
  8
PCB_OUTLINE
100
AcDbCircle
 10
21.36864605392412
 20
6.829325269827856
 30
0.0
 40
0.015
  0
CIRCLE
  5
573
330
1F
100
AcDbEntity
  8
PCB_OUTLINE
100
AcDbCircle
 10
21.44864605392411
 20
6.749325269827856
 30
0.0
 40
0.015
  0
CIRCLE
  5
574
330
1F
100
AcDbEntity
  8
PCB_OUTLINE
100
AcDbCircle
 10
21.44864605392411
 20
6.829325269827856
 30
0.0
 40
0.015
  0
CIRCLE
  5
575
330
1F
100
AcDbEntity
  8
PCB_OUTLINE
100
AcDbCircle
 10
21.60864605392411
 20
6.749325269827856
 30
0.0
 40
0.015
  0
CIRCLE
  5
576
330
1F
100
AcDbEntity
  8
PCB_OUTLINE
100
AcDbCircle
 10
21.60864605392411
 20
6.829325269827856
 30
0.0
 40
0.015
  0
CIRCLE
  5
577
330
1F
100
AcDbEntity
  8
PCB_OUTLINE
100
AcDbCircle
 10
21.5286460539241
 20
6.749325269827856
 30
0.0
 40
0.015
  0
CIRCLE
  5
578
330
1F
100
AcDbEntity
  8
PCB_OUTLINE
100
AcDbCircle
 10
21.5286460539241
 20
6.829325269827856
 30
0.0
 40
0.015
  0
CIRCLE
  5
579
330
1F
100
AcDbEntity
  8
PCB_OUTLINE
100
AcDbCircle
 10
21.28864605392412
 20
6.749325269827856
 30
0.0
 40
0.015
  0
CIRCLE
  5
57A
330
1F
100
AcDbEntity
  8
PCB_OUTLINE
100
AcDbCircle
 10
21.28864605392412
 20
6.829325269827856
 30
0.0
 40
0.015
  0
CIRCLE
  5
57B
330
1F
100
AcDbEntity
  8
PCB_OUTLINE
100
AcDbCircle
 10
21.20864605392413
 20
6.749325269827856
 30
0.0
 40
0.015
  0
CIRCLE
  5
57C
330
1F
100
AcDbEntity
  8
PCB_OUTLINE
100
AcDbCircle
 10
21.20864605392413
 20
6.829325269827856
 30
0.0
 40
0.015
  0
CIRCLE
  5
57D
330
1F
100
AcDbEntity
  8
PCB_OUTLINE
100
AcDbCircle
 10
21.76864605392412
 20
6.749325269827856
 30
0.0
 40
0.015
  0
CIRCLE
  5
57E
330
1F
100
AcDbEntity
  8
PCB_OUTLINE
100
AcDbCircle
 10
21.76864605392412
 20
6.829325269827856
 30
0.0
 40
0.015
  0
CIRCLE
  5
57F
330
1F
100
AcDbEntity
  8
PCB_OUTLINE
100
AcDbCircle
 10
21.68864605392412
 20
6.749325269827856
 30
0.0
 40
0.015
  0
CIRCLE
  5
580
330
1F
100
AcDbEntity
  8
PCB_OUTLINE
100
AcDbCircle
 10
21.68864605392412
 20
6.829325269827856
 30
0.0
 40
0.015
  0
CIRCLE
  5
581
330
1F
100
AcDbEntity
  8
PCB_OUTLINE
100
AcDbCircle
 10
22.32864605392412
 20
6.749325269827856
 30
0.0
 40
0.015
  0
CIRCLE
  5
582
330
1F
100
AcDbEntity
  8
PCB_OUTLINE
100
AcDbCircle
 10
22.32864605392412
 20
6.829325269827856
 30
0.0
 40
0.015
  0
CIRCLE
  5
583
330
1F
100
AcDbEntity
  8
PCB_OUTLINE
100
AcDbCircle
 10
22.24864605392412
 20
6.749325269827856
 30
0.0
 40
0.015
  0
CIRCLE
  5
584
330
1F
100
AcDbEntity
  8
PCB_OUTLINE
100
AcDbCircle
 10
22.24864605392412
 20
6.829325269827856
 30
0.0
 40
0.015
  0
CIRCLE
  5
585
330
1F
100
AcDbEntity
  8
PCB_OUTLINE
100
AcDbCircle
 10
22.16864605392412
 20
6.749325269827856
 30
0.0
 40
0.015
  0
CIRCLE
  5
586
330
1F
100
AcDbEntity
  8
PCB_OUTLINE
100
AcDbCircle
 10
22.16864605392412
 20
6.829325269827856
 30
0.0
 40
0.015
  0
CIRCLE
  5
587
330
1F
100
AcDbEntity
  8
PCB_OUTLINE
100
AcDbCircle
 10
22.08864605392412
 20
6.749325269827856
 30
0.0
 40
0.015
  0
CIRCLE
  5
588
330
1F
100
AcDbEntity
  8
PCB_OUTLINE
100
AcDbCircle
 10
22.08864605392412
 20
6.829325269827856
 30
0.0
 40
0.015
  0
CIRCLE
  5
589
330
1F
100
AcDbEntity
  8
PCB_OUTLINE
100
AcDbCircle
 10
22.00864605392412
 20
6.749325269827856
 30
0.0
 40
0.015
  0
CIRCLE
  5
58A
330
1F
100
AcDbEntity
  8
PCB_OUTLINE
100
AcDbCircle
 10
22.00864605392412
 20
6.829325269827856
 30
0.0
 40
0.015
  0
CIRCLE
  5
58B
330
1F
100
AcDbEntity
  8
PCB_OUTLINE
100
AcDbCircle
 10
21.92864605392412
 20
6.749325269827856
 30
0.0
 40
0.015
  0
CIRCLE
  5
58C
330
1F
100
AcDbEntity
  8
PCB_OUTLINE
100
AcDbCircle
 10
21.92864605392412
 20
6.829325269827856
 30
0.0
 40
0.015
  0
CIRCLE
  5
58D
330
1F
100
AcDbEntity
  8
PCB_OUTLINE
100
AcDbCircle
 10
21.84864605392413
 20
6.749325269827856
 30
0.0
 40
0.015
  0
CIRCLE
  5
58E
330
1F
100
AcDbEntity
  8
PCB_OUTLINE
100
AcDbCircle
 10
21.84864605392413
 20
6.829325269827856
 30
0.0
 40
0.015
  0
CIRCLE
  5
58F
330
1F
100
AcDbEntity
  8
PCB_OUTLINE
100
AcDbCircle
 10
22.40864605392411
 20
6.749325269827856
 30
0.0
 40
0.015
  0
CIRCLE
  5
590
330
1F
100
AcDbEntity
  8
PCB_OUTLINE
100
AcDbCircle
 10
22.40864605392411
 20
6.829325269827856
 30
0.0
 40
0.015
  0
CIRCLE
  5
591
330
1F
100
AcDbEntity
  8
PCB_OUTLINE
100
AcDbCircle
 10
22.48864605392411
 20
6.749325269827856
 30
0.0
 40
0.015
  0
CIRCLE
  5
592
330
1F
100
AcDbEntity
  8
PCB_OUTLINE
100
AcDbCircle
 10
22.48864605392411
 20
6.829325269827856
 30
0.0
 40
0.015
  0
CIRCLE
  5
593
330
1F
100
AcDbEntity
  8
PCB_OUTLINE
100
AcDbCircle
 10
21.36864605392412
 20
6.669325269827856
 30
0.0
 40
0.015
  0
CIRCLE
  5
594
330
1F
100
AcDbEntity
  8
PCB_OUTLINE
100
AcDbCircle
 10
21.44864605392411
 20
6.669325269827856
 30
0.0
 40
0.015
  0
CIRCLE
  5
595
330
1F
100
AcDbEntity
  8
PCB_OUTLINE
100
AcDbCircle
 10
21.60864605392411
 20
6.669325269827856
 30
0.0
 40
0.015
  0
CIRCLE
  5
596
330
1F
100
AcDbEntity
  8
PCB_OUTLINE
100
AcDbCircle
 10
21.5286460539241
 20
6.669325269827856
 30
0.0
 40
0.015
  0
CIRCLE
  5
597
330
1F
100
AcDbEntity
  8
PCB_OUTLINE
100
AcDbCircle
 10
21.28864605392412
 20
6.669325269827856
 30
0.0
 40
0.015
  0
CIRCLE
  5
598
330
1F
100
AcDbEntity
  8
PCB_OUTLINE
100
AcDbCircle
 10
21.20864605392413
 20
6.669325269827856
 30
0.0
 40
0.015
  0
CIRCLE
  5
599
330
1F
100
AcDbEntity
  8
PCB_OUTLINE
100
AcDbCircle
 10
21.76864605392412
 20
6.669325269827856
 30
0.0
 40
0.015
  0
CIRCLE
  5
59A
330
1F
100
AcDbEntity
  8
PCB_OUTLINE
100
AcDbCircle
 10
21.68864605392412
 20
6.669325269827856
 30
0.0
 40
0.015
  0
CIRCLE
  5
59B
330
1F
100
AcDbEntity
  8
PCB_OUTLINE
100
AcDbCircle
 10
22.32864605392412
 20
6.669325269827856
 30
0.0
 40
0.015
  0
CIRCLE
  5
59C
330
1F
100
AcDbEntity
  8
PCB_OUTLINE
100
AcDbCircle
 10
22.24864605392412
 20
6.669325269827856
 30
0.0
 40
0.015
  0
CIRCLE
  5
59D
330
1F
100
AcDbEntity
  8
PCB_OUTLINE
100
AcDbCircle
 10
22.16864605392412
 20
6.669325269827856
 30
0.0
 40
0.015
  0
CIRCLE
  5
59E
330
1F
100
AcDbEntity
  8
PCB_OUTLINE
100
AcDbCircle
 10
22.08864605392412
 20
6.669325269827856
 30
0.0
 40
0.015
  0
CIRCLE
  5
59F
330
1F
100
AcDbEntity
  8
PCB_OUTLINE
100
AcDbCircle
 10
22.00864605392412
 20
6.669325269827856
 30
0.0
 40
0.015
  0
CIRCLE
  5
5A0
330
1F
100
AcDbEntity
  8
PCB_OUTLINE
100
AcDbCircle
 10
21.92864605392412
 20
6.669325269827856
 30
0.0
 40
0.015
  0
CIRCLE
  5
5A1
330
1F
100
AcDbEntity
  8
PCB_OUTLINE
100
AcDbCircle
 10
21.84864605392413
 20
6.669325269827856
 30
0.0
 40
0.015
  0
CIRCLE
  5
5A2
330
1F
100
AcDbEntity
  8
PCB_OUTLINE
100
AcDbCircle
 10
21.12864605392412
 20
6.909325269827856
 30
0.0
 40
0.015
  0
CIRCLE
  5
5A3
330
1F
100
AcDbEntity
  8
PCB_OUTLINE
100
AcDbCircle
 10
21.04864605392412
 20
6.909325269827856
 30
0.0
 40
0.015
  0
CIRCLE
  5
5A4
330
1F
100
AcDbEntity
  8
PCB_OUTLINE
100
AcDbCircle
 10
21.36864605392412
 20
6.909325269827856
 30
0.0
 40
0.015
  0
CIRCLE
  5
5A5
330
1F
100
AcDbEntity
  8
PCB_OUTLINE
100
AcDbCircle
 10
21.44864605392411
 20
6.909325269827856
 30
0.0
 40
0.015
  0
CIRCLE
  5
5A6
330
1F
100
AcDbEntity
  8
PCB_OUTLINE
100
AcDbCircle
 10
21.60864605392411
 20
6.909325269827856
 30
0.0
 40
0.015
  0
CIRCLE
  5
5A7
330
1F
100
AcDbEntity
  8
PCB_OUTLINE
100
AcDbCircle
 10
21.5286460539241
 20
6.909325269827856
 30
0.0
 40
0.015
  0
CIRCLE
  5
5A8
330
1F
100
AcDbEntity
  8
PCB_OUTLINE
100
AcDbCircle
 10
21.28864605392412
 20
6.909325269827856
 30
0.0
 40
0.015
  0
CIRCLE
  5
5A9
330
1F
100
AcDbEntity
  8
PCB_OUTLINE
100
AcDbCircle
 10
21.20864605392413
 20
6.909325269827856
 30
0.0
 40
0.015
  0
CIRCLE
  5
5AA
330
1F
100
AcDbEntity
  8
PCB_OUTLINE
100
AcDbCircle
 10
21.76864605392412
 20
6.909325269827856
 30
0.0
 40
0.015
  0
CIRCLE
  5
5AB
330
1F
100
AcDbEntity
  8
PCB_OUTLINE
100
AcDbCircle
 10
21.68864605392412
 20
6.909325269827856
 30
0.0
 40
0.015
  0
CIRCLE
  5
5AC
330
1F
100
AcDbEntity
  8
PCB_OUTLINE
100
AcDbCircle
 10
22.32864605392412
 20
6.909325269827856
 30
0.0
 40
0.015
  0
CIRCLE
  5
5AD
330
1F
100
AcDbEntity
  8
PCB_OUTLINE
100
AcDbCircle
 10
22.24864605392412
 20
6.909325269827856
 30
0.0
 40
0.015
  0
CIRCLE
  5
5AE
330
1F
100
AcDbEntity
  8
PCB_OUTLINE
100
AcDbCircle
 10
22.16864605392412
 20
6.909325269827856
 30
0.0
 40
0.015
  0
CIRCLE
  5
5AF
330
1F
100
AcDbEntity
  8
PCB_OUTLINE
100
AcDbCircle
 10
22.08864605392412
 20
6.909325269827856
 30
0.0
 40
0.015
  0
CIRCLE
  5
5B0
330
1F
100
AcDbEntity
  8
PCB_OUTLINE
100
AcDbCircle
 10
22.00864605392412
 20
6.909325269827856
 30
0.0
 40
0.015
  0
CIRCLE
  5
5B1
330
1F
100
AcDbEntity
  8
PCB_OUTLINE
100
AcDbCircle
 10
21.92864605392412
 20
6.909325269827856
 30
0.0
 40
0.015
  0
CIRCLE
  5
5B2
330
1F
100
AcDbEntity
  8
PCB_OUTLINE
100
AcDbCircle
 10
21.84864605392413
 20
6.909325269827856
 30
0.0
 40
0.015
  0
CIRCLE
  5
5B3
330
1F
100
AcDbEntity
  8
PCB_OUTLINE
100
AcDbCircle
 10
22.40864605392411
 20
6.909325269827856
 30
0.0
 40
0.015
  0
CIRCLE
  5
5B4
330
1F
100
AcDbEntity
  8
PCB_OUTLINE
100
AcDbCircle
 10
22.48864605392411
 20
6.909325269827856
 30
0.0
 40
0.015
  0
CIRCLE
  5
5B5
330
1F
100
AcDbEntity
  8
PCB_OUTLINE
100
AcDbCircle
 10
21.12864605392412
 20
6.989325269827856
 30
0.0
 40
0.015
  0
CIRCLE
  5
5B6
330
1F
100
AcDbEntity
  8
PCB_OUTLINE
100
AcDbCircle
 10
21.04864605392412
 20
6.989325269827856
 30
0.0
 40
0.015
  0
CIRCLE
  5
5B7
330
1F
100
AcDbEntity
  8
PCB_OUTLINE
100
AcDbCircle
 10
21.36864605392412
 20
7.069325269827857
 30
0.0
 40
0.015
  0
CIRCLE
  5
5B8
330
1F
100
AcDbEntity
  8
PCB_OUTLINE
100
AcDbCircle
 10
21.36864605392412
 20
6.989325269827856
 30
0.0
 40
0.015
  0
CIRCLE
  5
5B9
330
1F
100
AcDbEntity
  8
PCB_OUTLINE
100
AcDbCircle
 10
21.44864605392411
 20
7.069325269827857
 30
0.0
 40
0.015
  0
CIRCLE
  5
5BA
330
1F
100
AcDbEntity
  8
PCB_OUTLINE
100
AcDbCircle
 10
21.44864605392411
 20
6.989325269827856
 30
0.0
 40
0.015
  0
CIRCLE
  5
5BB
330
1F
100
AcDbEntity
  8
PCB_OUTLINE
100
AcDbCircle
 10
21.60864605392411
 20
7.069325269827857
 30
0.0
 40
0.015
  0
CIRCLE
  5
5BC
330
1F
100
AcDbEntity
  8
PCB_OUTLINE
100
AcDbCircle
 10
21.60864605392411
 20
6.989325269827856
 30
0.0
 40
0.015
  0
CIRCLE
  5
5BD
330
1F
100
AcDbEntity
  8
PCB_OUTLINE
100
AcDbCircle
 10
21.5286460539241
 20
7.069325269827857
 30
0.0
 40
0.015
  0
CIRCLE
  5
5BE
330
1F
100
AcDbEntity
  8
PCB_OUTLINE
100
AcDbCircle
 10
21.5286460539241
 20
6.989325269827856
 30
0.0
 40
0.015
  0
CIRCLE
  5
5BF
330
1F
100
AcDbEntity
  8
PCB_OUTLINE
100
AcDbCircle
 10
21.28864605392412
 20
7.069325269827857
 30
0.0
 40
0.015
  0
CIRCLE
  5
5C0
330
1F
100
AcDbEntity
  8
PCB_OUTLINE
100
AcDbCircle
 10
21.28864605392412
 20
6.989325269827856
 30
0.0
 40
0.015
  0
CIRCLE
  5
5C1
330
1F
100
AcDbEntity
  8
PCB_OUTLINE
100
AcDbCircle
 10
21.20864605392413
 20
7.069325269827857
 30
0.0
 40
0.015
  0
CIRCLE
  5
5C2
330
1F
100
AcDbEntity
  8
PCB_OUTLINE
100
AcDbCircle
 10
21.20864605392413
 20
6.989325269827856
 30
0.0
 40
0.015
  0
CIRCLE
  5
5C3
330
1F
100
AcDbEntity
  8
PCB_OUTLINE
100
AcDbCircle
 10
21.76864605392412
 20
7.069325269827857
 30
0.0
 40
0.015
  0
CIRCLE
  5
5C4
330
1F
100
AcDbEntity
  8
PCB_OUTLINE
100
AcDbCircle
 10
21.76864605392412
 20
6.989325269827856
 30
0.0
 40
0.015
  0
CIRCLE
  5
5C5
330
1F
100
AcDbEntity
  8
PCB_OUTLINE
100
AcDbCircle
 10
21.68864605392412
 20
7.069325269827857
 30
0.0
 40
0.015
  0
CIRCLE
  5
5C6
330
1F
100
AcDbEntity
  8
PCB_OUTLINE
100
AcDbCircle
 10
21.68864605392412
 20
6.989325269827856
 30
0.0
 40
0.015
  0
CIRCLE
  5
5C7
330
1F
100
AcDbEntity
  8
PCB_OUTLINE
100
AcDbCircle
 10
22.32864605392412
 20
7.069325269827857
 30
0.0
 40
0.015
  0
CIRCLE
  5
5C8
330
1F
100
AcDbEntity
  8
PCB_OUTLINE
100
AcDbCircle
 10
22.32864605392412
 20
6.989325269827856
 30
0.0
 40
0.015
  0
CIRCLE
  5
5C9
330
1F
100
AcDbEntity
  8
PCB_OUTLINE
100
AcDbCircle
 10
22.24864605392412
 20
7.069325269827857
 30
0.0
 40
0.015
  0
CIRCLE
  5
5CA
330
1F
100
AcDbEntity
  8
PCB_OUTLINE
100
AcDbCircle
 10
22.24864605392412
 20
6.989325269827856
 30
0.0
 40
0.015
  0
CIRCLE
  5
5CB
330
1F
100
AcDbEntity
  8
PCB_OUTLINE
100
AcDbCircle
 10
22.16864605392412
 20
7.069325269827857
 30
0.0
 40
0.015
  0
CIRCLE
  5
5CC
330
1F
100
AcDbEntity
  8
PCB_OUTLINE
100
AcDbCircle
 10
22.16864605392412
 20
6.989325269827856
 30
0.0
 40
0.015
  0
CIRCLE
  5
5CD
330
1F
100
AcDbEntity
  8
PCB_OUTLINE
100
AcDbCircle
 10
22.08864605392412
 20
7.069325269827857
 30
0.0
 40
0.015
  0
CIRCLE
  5
5CE
330
1F
100
AcDbEntity
  8
PCB_OUTLINE
100
AcDbCircle
 10
22.08864605392412
 20
6.989325269827856
 30
0.0
 40
0.015
  0
CIRCLE
  5
5CF
330
1F
100
AcDbEntity
  8
PCB_OUTLINE
100
AcDbCircle
 10
22.00864605392412
 20
7.069325269827857
 30
0.0
 40
0.015
  0
CIRCLE
  5
5D0
330
1F
100
AcDbEntity
  8
PCB_OUTLINE
100
AcDbCircle
 10
22.00864605392412
 20
6.989325269827856
 30
0.0
 40
0.015
  0
CIRCLE
  5
5D1
330
1F
100
AcDbEntity
  8
PCB_OUTLINE
100
AcDbCircle
 10
21.92864605392412
 20
7.069325269827857
 30
0.0
 40
0.015
  0
CIRCLE
  5
5D2
330
1F
100
AcDbEntity
  8
PCB_OUTLINE
100
AcDbCircle
 10
21.92864605392412
 20
6.989325269827856
 30
0.0
 40
0.015
  0
CIRCLE
  5
5D3
330
1F
100
AcDbEntity
  8
PCB_OUTLINE
100
AcDbCircle
 10
21.84864605392413
 20
7.069325269827857
 30
0.0
 40
0.015
  0
CIRCLE
  5
5D4
330
1F
100
AcDbEntity
  8
PCB_OUTLINE
100
AcDbCircle
 10
21.84864605392413
 20
6.989325269827856
 30
0.0
 40
0.015
  0
CIRCLE
  5
5D5
330
1F
100
AcDbEntity
  8
PCB_OUTLINE
100
AcDbCircle
 10
22.40864605392411
 20
6.989325269827856
 30
0.0
 40
0.015
  0
CIRCLE
  5
5D6
330
1F
100
AcDbEntity
  8
PCB_OUTLINE
100
AcDbCircle
 10
22.48864605392411
 20
6.989325269827856
 30
0.0
 40
0.015
  0
CIRCLE
  5
5D7
330
1F
100
AcDbEntity
  8
PCB_OUTLINE
100
AcDbCircle
 10
20.96864605392411
 20
6.829325269827856
 30
0.0
 40
0.015
  0
CIRCLE
  5
5D8
330
1F
100
AcDbEntity
  8
PCB_OUTLINE
100
AcDbCircle
 10
20.72864605392412
 20
6.829325269827856
 30
0.0
 40
0.015
  0
CIRCLE
  5
5D9
330
1F
100
AcDbEntity
  8
PCB_OUTLINE
100
AcDbCircle
 10
20.64864605392412
 20
6.829325269827856
 30
0.0
 40
0.015
  0
CIRCLE
  5
5DA
330
1F
100
AcDbEntity
  8
PCB_OUTLINE
100
AcDbCircle
 10
20.80864605392411
 20
6.829325269827856
 30
0.0
 40
0.015
  0
CIRCLE
  5
5DB
330
1F
100
AcDbEntity
  8
PCB_OUTLINE
100
AcDbCircle
 10
20.8886460539241
 20
6.829325269827856
 30
0.0
 40
0.015
  0
CIRCLE
  5
5DC
330
1F
100
AcDbEntity
  8
PCB_OUTLINE
100
AcDbCircle
 10
20.96864605392411
 20
6.909325269827856
 30
0.0
 40
0.015
  0
CIRCLE
  5
5DD
330
1F
100
AcDbEntity
  8
PCB_OUTLINE
100
AcDbCircle
 10
20.72864605392412
 20
6.909325269827856
 30
0.0
 40
0.015
  0
CIRCLE
  5
5DE
330
1F
100
AcDbEntity
  8
PCB_OUTLINE
100
AcDbCircle
 10
20.64864605392412
 20
6.909325269827856
 30
0.0
 40
0.015
  0
CIRCLE
  5
5DF
330
1F
100
AcDbEntity
  8
PCB_OUTLINE
100
AcDbCircle
 10
20.80864605392411
 20
6.909325269827856
 30
0.0
 40
0.015
  0
CIRCLE
  5
5E0
330
1F
100
AcDbEntity
  8
PCB_OUTLINE
100
AcDbCircle
 10
20.8886460539241
 20
6.909325269827856
 30
0.0
 40
0.015
  0
CIRCLE
  5
5E1
330
1F
100
AcDbEntity
  8
PCB_OUTLINE
100
AcDbCircle
 10
20.96864605392411
 20
6.989325269827856
 30
0.0
 40
0.015
  0
CIRCLE
  5
5E2
330
1F
100
AcDbEntity
  8
PCB_OUTLINE
100
AcDbCircle
 10
20.72864605392412
 20
7.069325269827857
 30
0.0
 40
0.015
  0
CIRCLE
  5
5E3
330
1F
100
AcDbEntity
  8
PCB_OUTLINE
100
AcDbCircle
 10
20.72864605392412
 20
6.989325269827856
 30
0.0
 40
0.015
  0
CIRCLE
  5
5E4
330
1F
100
AcDbEntity
  8
PCB_OUTLINE
100
AcDbCircle
 10
20.64864605392412
 20
7.069325269827857
 30
0.0
 40
0.015
  0
CIRCLE
  5
5E5
330
1F
100
AcDbEntity
  8
PCB_OUTLINE
100
AcDbCircle
 10
20.64864605392412
 20
6.989325269827856
 30
0.0
 40
0.015
  0
CIRCLE
  5
5E6
330
1F
100
AcDbEntity
  8
PCB_OUTLINE
100
AcDbCircle
 10
20.80864605392411
 20
7.069325269827857
 30
0.0
 40
0.015
  0
CIRCLE
  5
5E7
330
1F
100
AcDbEntity
  8
PCB_OUTLINE
100
AcDbCircle
 10
20.80864605392411
 20
6.989325269827856
 30
0.0
 40
0.015
  0
CIRCLE
  5
5E8
330
1F
100
AcDbEntity
  8
PCB_OUTLINE
100
AcDbCircle
 10
20.8886460539241
 20
7.069325269827857
 30
0.0
 40
0.015
  0
CIRCLE
  5
5E9
330
1F
100
AcDbEntity
  8
PCB_OUTLINE
100
AcDbCircle
 10
20.8886460539241
 20
6.989325269827856
 30
0.0
 40
0.015
  0
CIRCLE
  5
5EA
330
1F
100
AcDbEntity
  8
PCB_OUTLINE
100
AcDbCircle
 10
22.64864605392411
 20
6.829325269827856
 30
0.0
 40
0.015
  0
CIRCLE
  5
5EB
330
1F
100
AcDbEntity
  8
PCB_OUTLINE
100
AcDbCircle
 10
22.72864605392411
 20
6.829325269827856
 30
0.0
 40
0.015
  0
CIRCLE
  5
5EC
330
1F
100
AcDbEntity
  8
PCB_OUTLINE
100
AcDbCircle
 10
22.80864605392411
 20
6.829325269827856
 30
0.0
 40
0.015
  0
CIRCLE
  5
5ED
330
1F
100
AcDbEntity
  8
PCB_OUTLINE
100
AcDbCircle
 10
22.56864605392411
 20
6.829325269827856
 30
0.0
 40
0.015
  0
CIRCLE
  5
5EE
330
1F
100
AcDbEntity
  8
PCB_OUTLINE
100
AcDbCircle
 10
22.64864605392411
 20
6.909325269827856
 30
0.0
 40
0.015
  0
CIRCLE
  5
5EF
330
1F
100
AcDbEntity
  8
PCB_OUTLINE
100
AcDbCircle
 10
22.72864605392411
 20
6.909325269827856
 30
0.0
 40
0.015
  0
CIRCLE
  5
5F0
330
1F
100
AcDbEntity
  8
PCB_OUTLINE
100
AcDbCircle
 10
22.80864605392411
 20
6.909325269827856
 30
0.0
 40
0.015
  0
CIRCLE
  5
5F1
330
1F
100
AcDbEntity
  8
PCB_OUTLINE
100
AcDbCircle
 10
22.56864605392411
 20
6.909325269827856
 30
0.0
 40
0.015
  0
CIRCLE
  5
5F2
330
1F
100
AcDbEntity
  8
PCB_OUTLINE
100
AcDbCircle
 10
22.64864605392411
 20
6.989325269827856
 30
0.0
 40
0.015
  0
CIRCLE
  5
5F3
330
1F
100
AcDbEntity
  8
PCB_OUTLINE
100
AcDbCircle
 10
22.72864605392411
 20
6.989325269827856
 30
0.0
 40
0.015
  0
CIRCLE
  5
5F4
330
1F
100
AcDbEntity
  8
PCB_OUTLINE
100
AcDbCircle
 10
22.80864605392411
 20
6.989325269827856
 30
0.0
 40
0.015
  0
CIRCLE
  5
5F5
330
1F
100
AcDbEntity
  8
PCB_OUTLINE
100
AcDbCircle
 10
22.56864605392411
 20
6.989325269827856
 30
0.0
 40
0.015
  0
CIRCLE
  5
5F6
330
1F
100
AcDbEntity
  8
PCB_OUTLINE
100
AcDbCircle
 10
22.88864605392411
 20
6.909325269827856
 30
0.0
 40
0.015
  0
CIRCLE
  5
5F7
330
1F
100
AcDbEntity
  8
PCB_OUTLINE
100
AcDbCircle
 10
22.88864605392411
 20
6.989325269827856
 30
0.0
 40
0.015
  0
CIRCLE
  5
5F8
330
1F
100
AcDbEntity
  8
PCB_OUTLINE
100
AcDbCircle
 10
22.64864605392411
 20
7.229325269827857
 30
0.0
 40
0.015
  0
CIRCLE
  5
5F9
330
1F
100
AcDbEntity
  8
PCB_OUTLINE
100
AcDbCircle
 10
22.64864605392411
 20
7.149325269827857
 30
0.0
 40
0.015
  0
CIRCLE
  5
5FA
330
1F
100
AcDbEntity
  8
PCB_OUTLINE
100
AcDbCircle
 10
22.72864605392411
 20
7.229325269827857
 30
0.0
 40
0.015
  0
CIRCLE
  5
5FB
330
1F
100
AcDbEntity
  8
PCB_OUTLINE
100
AcDbCircle
 10
22.72864605392411
 20
7.149325269827857
 30
0.0
 40
0.015
  0
CIRCLE
  5
5FC
330
1F
100
AcDbEntity
  8
PCB_OUTLINE
100
AcDbCircle
 10
22.80864605392411
 20
7.229325269827857
 30
0.0
 40
0.015
  0
CIRCLE
  5
5FD
330
1F
100
AcDbEntity
  8
PCB_OUTLINE
100
AcDbCircle
 10
22.80864605392411
 20
7.149325269827857
 30
0.0
 40
0.015
  0
CIRCLE
  5
5FE
330
1F
100
AcDbEntity
  8
PCB_OUTLINE
100
AcDbCircle
 10
22.64864605392411
 20
7.069325269827857
 30
0.0
 40
0.015
  0
CIRCLE
  5
5FF
330
1F
100
AcDbEntity
  8
PCB_OUTLINE
100
AcDbCircle
 10
22.72864605392411
 20
7.069325269827857
 30
0.0
 40
0.015
  0
CIRCLE
  5
600
330
1F
100
AcDbEntity
  8
PCB_OUTLINE
100
AcDbCircle
 10
22.80864605392411
 20
7.069325269827857
 30
0.0
 40
0.015
  0
CIRCLE
  5
601
330
1F
100
AcDbEntity
  8
PCB_OUTLINE
100
AcDbCircle
 10
22.88864605392411
 20
7.229325269827857
 30
0.0
 40
0.015
  0
CIRCLE
  5
602
330
1F
100
AcDbEntity
  8
PCB_OUTLINE
100
AcDbCircle
 10
22.88864605392411
 20
7.149325269827857
 30
0.0
 40
0.015
  0
CIRCLE
  5
603
330
1F
100
AcDbEntity
  8
PCB_OUTLINE
100
AcDbCircle
 10
22.88864605392411
 20
7.069325269827857
 30
0.0
 40
0.015
  0
CIRCLE
  5
604
330
1F
100
AcDbEntity
  8
PCB_OUTLINE
100
AcDbCircle
 10
21.36864605392412
 20
7.229325269827857
 30
0.0
 40
0.015
  0
CIRCLE
  5
605
330
1F
100
AcDbEntity
  8
PCB_OUTLINE
100
AcDbCircle
 10
21.44864605392411
 20
7.229325269827857
 30
0.0
 40
0.015
  0
CIRCLE
  5
606
330
1F
100
AcDbEntity
  8
PCB_OUTLINE
100
AcDbCircle
 10
21.60864605392411
 20
7.229325269827857
 30
0.0
 40
0.015
  0
CIRCLE
  5
607
330
1F
100
AcDbEntity
  8
PCB_OUTLINE
100
AcDbCircle
 10
21.5286460539241
 20
7.229325269827857
 30
0.0
 40
0.015
  0
CIRCLE
  5
608
330
1F
100
AcDbEntity
  8
PCB_OUTLINE
100
AcDbCircle
 10
21.28864605392412
 20
7.229325269827857
 30
0.0
 40
0.015
  0
CIRCLE
  5
609
330
1F
100
AcDbEntity
  8
PCB_OUTLINE
100
AcDbCircle
 10
21.20864605392413
 20
7.229325269827857
 30
0.0
 40
0.015
  0
CIRCLE
  5
60A
330
1F
100
AcDbEntity
  8
PCB_OUTLINE
100
AcDbCircle
 10
21.76864605392412
 20
7.229325269827857
 30
0.0
 40
0.015
  0
CIRCLE
  5
60B
330
1F
100
AcDbEntity
  8
PCB_OUTLINE
100
AcDbCircle
 10
21.68864605392412
 20
7.229325269827857
 30
0.0
 40
0.015
  0
CIRCLE
  5
60C
330
1F
100
AcDbEntity
  8
PCB_OUTLINE
100
AcDbCircle
 10
22.32864605392412
 20
7.229325269827857
 30
0.0
 40
0.015
  0
CIRCLE
  5
60D
330
1F
100
AcDbEntity
  8
PCB_OUTLINE
100
AcDbCircle
 10
22.24864605392412
 20
7.229325269827857
 30
0.0
 40
0.015
  0
CIRCLE
  5
60E
330
1F
100
AcDbEntity
  8
PCB_OUTLINE
100
AcDbCircle
 10
22.16864605392412
 20
7.229325269827857
 30
0.0
 40
0.015
  0
CIRCLE
  5
60F
330
1F
100
AcDbEntity
  8
PCB_OUTLINE
100
AcDbCircle
 10
22.08864605392412
 20
7.229325269827857
 30
0.0
 40
0.015
  0
CIRCLE
  5
610
330
1F
100
AcDbEntity
  8
PCB_OUTLINE
100
AcDbCircle
 10
22.00864605392412
 20
7.229325269827857
 30
0.0
 40
0.015
  0
CIRCLE
  5
611
330
1F
100
AcDbEntity
  8
PCB_OUTLINE
100
AcDbCircle
 10
21.92864605392412
 20
7.229325269827857
 30
0.0
 40
0.015
  0
CIRCLE
  5
612
330
1F
100
AcDbEntity
  8
PCB_OUTLINE
100
AcDbCircle
 10
21.84864605392413
 20
7.229325269827857
 30
0.0
 40
0.015
  0
CIRCLE
  5
613
330
1F
100
AcDbEntity
  8
PCB_OUTLINE
100
AcDbCircle
 10
21.36864605392412
 20
7.149325269827857
 30
0.0
 40
0.015
  0
CIRCLE
  5
614
330
1F
100
AcDbEntity
  8
PCB_OUTLINE
100
AcDbCircle
 10
21.44864605392411
 20
7.149325269827857
 30
0.0
 40
0.015
  0
CIRCLE
  5
615
330
1F
100
AcDbEntity
  8
PCB_OUTLINE
100
AcDbCircle
 10
21.60864605392411
 20
7.149325269827857
 30
0.0
 40
0.015
  0
CIRCLE
  5
616
330
1F
100
AcDbEntity
  8
PCB_OUTLINE
100
AcDbCircle
 10
21.5286460539241
 20
7.149325269827857
 30
0.0
 40
0.015
  0
CIRCLE
  5
617
330
1F
100
AcDbEntity
  8
PCB_OUTLINE
100
AcDbCircle
 10
21.28864605392412
 20
7.149325269827857
 30
0.0
 40
0.015
  0
CIRCLE
  5
618
330
1F
100
AcDbEntity
  8
PCB_OUTLINE
100
AcDbCircle
 10
21.20864605392413
 20
7.149325269827857
 30
0.0
 40
0.015
  0
CIRCLE
  5
619
330
1F
100
AcDbEntity
  8
PCB_OUTLINE
100
AcDbCircle
 10
21.76864605392412
 20
7.149325269827857
 30
0.0
 40
0.015
  0
CIRCLE
  5
61A
330
1F
100
AcDbEntity
  8
PCB_OUTLINE
100
AcDbCircle
 10
21.68864605392412
 20
7.149325269827857
 30
0.0
 40
0.015
  0
CIRCLE
  5
61B
330
1F
100
AcDbEntity
  8
PCB_OUTLINE
100
AcDbCircle
 10
22.32864605392412
 20
7.149325269827857
 30
0.0
 40
0.015
  0
CIRCLE
  5
61C
330
1F
100
AcDbEntity
  8
PCB_OUTLINE
100
AcDbCircle
 10
22.24864605392412
 20
7.149325269827857
 30
0.0
 40
0.015
  0
CIRCLE
  5
61D
330
1F
100
AcDbEntity
  8
PCB_OUTLINE
100
AcDbCircle
 10
22.16864605392412
 20
7.149325269827857
 30
0.0
 40
0.015
  0
CIRCLE
  5
61E
330
1F
100
AcDbEntity
  8
PCB_OUTLINE
100
AcDbCircle
 10
22.08864605392412
 20
7.149325269827857
 30
0.0
 40
0.015
  0
CIRCLE
  5
61F
330
1F
100
AcDbEntity
  8
PCB_OUTLINE
100
AcDbCircle
 10
22.00864605392412
 20
7.149325269827857
 30
0.0
 40
0.015
  0
CIRCLE
  5
620
330
1F
100
AcDbEntity
  8
PCB_OUTLINE
100
AcDbCircle
 10
21.92864605392412
 20
7.149325269827857
 30
0.0
 40
0.015
  0
CIRCLE
  5
621
330
1F
100
AcDbEntity
  8
PCB_OUTLINE
100
AcDbCircle
 10
21.84864605392413
 20
7.149325269827857
 30
0.0
 40
0.015
  0
CIRCLE
  5
622
330
1F
100
AcDbEntity
  8
PCB_OUTLINE
100
AcDbCircle
 10
20.72864605392412
 20
7.229325269827857
 30
0.0
 40
0.015
  0
CIRCLE
  5
623
330
1F
100
AcDbEntity
  8
PCB_OUTLINE
100
AcDbCircle
 10
20.64864605392412
 20
7.229325269827857
 30
0.0
 40
0.015
  0
CIRCLE
  5
624
330
1F
100
AcDbEntity
  8
PCB_OUTLINE
100
AcDbCircle
 10
20.80864605392411
 20
7.229325269827857
 30
0.0
 40
0.015
  0
CIRCLE
  5
625
330
1F
100
AcDbEntity
  8
PCB_OUTLINE
100
AcDbCircle
 10
20.8886460539241
 20
7.229325269827857
 30
0.0
 40
0.015
  0
CIRCLE
  5
626
330
1F
100
AcDbEntity
  8
PCB_OUTLINE
100
AcDbCircle
 10
20.72864605392412
 20
7.149325269827857
 30
0.0
 40
0.015
  0
CIRCLE
  5
627
330
1F
100
AcDbEntity
  8
PCB_OUTLINE
100
AcDbCircle
 10
20.64864605392412
 20
7.149325269827857
 30
0.0
 40
0.015
  0
CIRCLE
  5
628
330
1F
100
AcDbEntity
  8
PCB_OUTLINE
100
AcDbCircle
 10
20.80864605392411
 20
7.149325269827857
 30
0.0
 40
0.015
  0
CIRCLE
  5
629
330
1F
100
AcDbEntity
  8
PCB_OUTLINE
100
AcDbCircle
 10
20.8886460539241
 20
7.149325269827857
 30
0.0
 40
0.015
  0
CIRCLE
  5
62A
330
1F
100
AcDbEntity
  8
PCB_OUTLINE
100
AcDbCircle
 10
21.36864605392412
 20
7.389325269827857
 30
0.0
 40
0.015
  0
CIRCLE
  5
62B
330
1F
100
AcDbEntity
  8
PCB_OUTLINE
100
AcDbCircle
 10
21.36864605392412
 20
7.469325269827857
 30
0.0
 40
0.015
  0
CIRCLE
  5
62C
330
1F
100
AcDbEntity
  8
PCB_OUTLINE
100
AcDbCircle
 10
21.44864605392411
 20
7.389325269827857
 30
0.0
 40
0.015
  0
CIRCLE
  5
62D
330
1F
100
AcDbEntity
  8
PCB_OUTLINE
100
AcDbCircle
 10
21.44864605392411
 20
7.469325269827857
 30
0.0
 40
0.015
  0
CIRCLE
  5
62E
330
1F
100
AcDbEntity
  8
PCB_OUTLINE
100
AcDbCircle
 10
21.60864605392411
 20
7.389325269827857
 30
0.0
 40
0.015
  0
CIRCLE
  5
62F
330
1F
100
AcDbEntity
  8
PCB_OUTLINE
100
AcDbCircle
 10
21.60864605392411
 20
7.469325269827857
 30
0.0
 40
0.015
  0
CIRCLE
  5
630
330
1F
100
AcDbEntity
  8
PCB_OUTLINE
100
AcDbCircle
 10
21.5286460539241
 20
7.389325269827857
 30
0.0
 40
0.015
  0
CIRCLE
  5
631
330
1F
100
AcDbEntity
  8
PCB_OUTLINE
100
AcDbCircle
 10
21.5286460539241
 20
7.469325269827857
 30
0.0
 40
0.015
  0
CIRCLE
  5
632
330
1F
100
AcDbEntity
  8
PCB_OUTLINE
100
AcDbCircle
 10
21.28864605392412
 20
7.389325269827857
 30
0.0
 40
0.015
  0
CIRCLE
  5
633
330
1F
100
AcDbEntity
  8
PCB_OUTLINE
100
AcDbCircle
 10
21.20864605392413
 20
7.389325269827857
 30
0.0
 40
0.015
  0
CIRCLE
  5
634
330
1F
100
AcDbEntity
  8
PCB_OUTLINE
100
AcDbCircle
 10
21.76864605392412
 20
7.389325269827857
 30
0.0
 40
0.015
  0
CIRCLE
  5
635
330
1F
100
AcDbEntity
  8
PCB_OUTLINE
100
AcDbCircle
 10
21.76864605392412
 20
7.469325269827857
 30
0.0
 40
0.015
  0
CIRCLE
  5
636
330
1F
100
AcDbEntity
  8
PCB_OUTLINE
100
AcDbCircle
 10
21.68864605392412
 20
7.389325269827857
 30
0.0
 40
0.015
  0
CIRCLE
  5
637
330
1F
100
AcDbEntity
  8
PCB_OUTLINE
100
AcDbCircle
 10
21.68864605392412
 20
7.469325269827857
 30
0.0
 40
0.015
  0
CIRCLE
  5
638
330
1F
100
AcDbEntity
  8
PCB_OUTLINE
100
AcDbCircle
 10
22.32864605392412
 20
7.389325269827857
 30
0.0
 40
0.015
  0
CIRCLE
  5
639
330
1F
100
AcDbEntity
  8
PCB_OUTLINE
100
AcDbCircle
 10
22.32864605392412
 20
7.469325269827857
 30
0.0
 40
0.015
  0
CIRCLE
  5
63A
330
1F
100
AcDbEntity
  8
PCB_OUTLINE
100
AcDbCircle
 10
22.24864605392412
 20
7.389325269827857
 30
0.0
 40
0.015
  0
CIRCLE
  5
63B
330
1F
100
AcDbEntity
  8
PCB_OUTLINE
100
AcDbCircle
 10
22.24864605392412
 20
7.469325269827857
 30
0.0
 40
0.015
  0
CIRCLE
  5
63C
330
1F
100
AcDbEntity
  8
PCB_OUTLINE
100
AcDbCircle
 10
22.16864605392412
 20
7.389325269827857
 30
0.0
 40
0.015
  0
CIRCLE
  5
63D
330
1F
100
AcDbEntity
  8
PCB_OUTLINE
100
AcDbCircle
 10
22.16864605392412
 20
7.469325269827857
 30
0.0
 40
0.015
  0
CIRCLE
  5
63E
330
1F
100
AcDbEntity
  8
PCB_OUTLINE
100
AcDbCircle
 10
22.08864605392412
 20
7.389325269827857
 30
0.0
 40
0.015
  0
CIRCLE
  5
63F
330
1F
100
AcDbEntity
  8
PCB_OUTLINE
100
AcDbCircle
 10
22.08864605392412
 20
7.469325269827857
 30
0.0
 40
0.015
  0
CIRCLE
  5
640
330
1F
100
AcDbEntity
  8
PCB_OUTLINE
100
AcDbCircle
 10
22.00864605392412
 20
7.389325269827857
 30
0.0
 40
0.015
  0
CIRCLE
  5
641
330
1F
100
AcDbEntity
  8
PCB_OUTLINE
100
AcDbCircle
 10
22.00864605392412
 20
7.469325269827857
 30
0.0
 40
0.015
  0
CIRCLE
  5
642
330
1F
100
AcDbEntity
  8
PCB_OUTLINE
100
AcDbCircle
 10
21.92864605392412
 20
7.389325269827857
 30
0.0
 40
0.015
  0
CIRCLE
  5
643
330
1F
100
AcDbEntity
  8
PCB_OUTLINE
100
AcDbCircle
 10
21.92864605392412
 20
7.469325269827857
 30
0.0
 40
0.015
  0
CIRCLE
  5
644
330
1F
100
AcDbEntity
  8
PCB_OUTLINE
100
AcDbCircle
 10
21.84864605392413
 20
7.389325269827857
 30
0.0
 40
0.015
  0
CIRCLE
  5
645
330
1F
100
AcDbEntity
  8
PCB_OUTLINE
100
AcDbCircle
 10
21.84864605392413
 20
7.469325269827857
 30
0.0
 40
0.015
  0
CIRCLE
  5
646
330
1F
100
AcDbEntity
  8
PCB_OUTLINE
100
AcDbCircle
 10
20.72864605392412
 20
7.389325269827857
 30
0.0
 40
0.015
  0
CIRCLE
  5
647
330
1F
100
AcDbEntity
  8
PCB_OUTLINE
100
AcDbCircle
 10
20.72864605392412
 20
7.469325269827857
 30
0.0
 40
0.015
  0
CIRCLE
  5
648
330
1F
100
AcDbEntity
  8
PCB_OUTLINE
100
AcDbCircle
 10
20.64864605392412
 20
7.389325269827857
 30
0.0
 40
0.015
  0
CIRCLE
  5
649
330
1F
100
AcDbEntity
  8
PCB_OUTLINE
100
AcDbCircle
 10
20.64864605392412
 20
7.469325269827857
 30
0.0
 40
0.015
  0
CIRCLE
  5
64A
330
1F
100
AcDbEntity
  8
PCB_OUTLINE
100
AcDbCircle
 10
20.80864605392411
 20
7.389325269827857
 30
0.0
 40
0.015
  0
CIRCLE
  5
64B
330
1F
100
AcDbEntity
  8
PCB_OUTLINE
100
AcDbCircle
 10
20.80864605392411
 20
7.469325269827857
 30
0.0
 40
0.015
  0
CIRCLE
  5
64C
330
1F
100
AcDbEntity
  8
PCB_OUTLINE
100
AcDbCircle
 10
20.8886460539241
 20
7.389325269827857
 30
0.0
 40
0.015
  0
CIRCLE
  5
64D
330
1F
100
AcDbEntity
  8
PCB_OUTLINE
100
AcDbCircle
 10
20.8886460539241
 20
7.469325269827857
 30
0.0
 40
0.015
  0
CIRCLE
  5
64E
330
1F
100
AcDbEntity
  8
PCB_OUTLINE
100
AcDbCircle
 10
22.64864605392411
 20
7.469325269827857
 30
0.0
 40
0.015
  0
CIRCLE
  5
64F
330
1F
100
AcDbEntity
  8
PCB_OUTLINE
100
AcDbCircle
 10
22.72864605392411
 20
7.469325269827857
 30
0.0
 40
0.015
  0
CIRCLE
  5
650
330
1F
100
AcDbEntity
  8
PCB_OUTLINE
100
AcDbCircle
 10
22.80864605392411
 20
7.469325269827857
 30
0.0
 40
0.015
  0
CIRCLE
  5
651
330
1F
100
AcDbEntity
  8
PCB_OUTLINE
100
AcDbCircle
 10
22.88864605392411
 20
7.469325269827857
 30
0.0
 40
0.015
  0
CIRCLE
  5
652
330
1F
100
AcDbEntity
  8
PCB_OUTLINE
100
AcDbCircle
 10
22.64864605392411
 20
7.309325269827857
 30
0.0
 40
0.015
  0
CIRCLE
  5
653
330
1F
100
AcDbEntity
  8
PCB_OUTLINE
100
AcDbCircle
 10
22.72864605392411
 20
7.309325269827857
 30
0.0
 40
0.015
  0
CIRCLE
  5
654
330
1F
100
AcDbEntity
  8
PCB_OUTLINE
100
AcDbCircle
 10
22.80864605392411
 20
7.309325269827857
 30
0.0
 40
0.015
  0
CIRCLE
  5
655
330
1F
100
AcDbEntity
  8
PCB_OUTLINE
100
AcDbCircle
 10
22.64864605392411
 20
7.389325269827857
 30
0.0
 40
0.015
  0
CIRCLE
  5
656
330
1F
100
AcDbEntity
  8
PCB_OUTLINE
100
AcDbCircle
 10
22.72864605392411
 20
7.389325269827857
 30
0.0
 40
0.015
  0
CIRCLE
  5
657
330
1F
100
AcDbEntity
  8
PCB_OUTLINE
100
AcDbCircle
 10
22.80864605392411
 20
7.389325269827857
 30
0.0
 40
0.015
  0
CIRCLE
  5
658
330
1F
100
AcDbEntity
  8
PCB_OUTLINE
100
AcDbCircle
 10
22.88864605392411
 20
7.309325269827857
 30
0.0
 40
0.015
  0
CIRCLE
  5
659
330
1F
100
AcDbEntity
  8
PCB_OUTLINE
100
AcDbCircle
 10
22.88864605392411
 20
7.389325269827857
 30
0.0
 40
0.015
  0
CIRCLE
  5
65A
330
1F
100
AcDbEntity
  8
PCB_OUTLINE
100
AcDbCircle
 10
21.36864605392412
 20
7.309325269827857
 30
0.0
 40
0.015
  0
CIRCLE
  5
65B
330
1F
100
AcDbEntity
  8
PCB_OUTLINE
100
AcDbCircle
 10
21.44864605392411
 20
7.309325269827857
 30
0.0
 40
0.015
  0
CIRCLE
  5
65C
330
1F
100
AcDbEntity
  8
PCB_OUTLINE
100
AcDbCircle
 10
21.60864605392411
 20
7.309325269827857
 30
0.0
 40
0.015
  0
CIRCLE
  5
65D
330
1F
100
AcDbEntity
  8
PCB_OUTLINE
100
AcDbCircle
 10
21.5286460539241
 20
7.309325269827857
 30
0.0
 40
0.015
  0
CIRCLE
  5
65E
330
1F
100
AcDbEntity
  8
PCB_OUTLINE
100
AcDbCircle
 10
21.28864605392412
 20
7.309325269827857
 30
0.0
 40
0.015
  0
CIRCLE
  5
65F
330
1F
100
AcDbEntity
  8
PCB_OUTLINE
100
AcDbCircle
 10
21.20864605392413
 20
7.309325269827857
 30
0.0
 40
0.015
  0
CIRCLE
  5
660
330
1F
100
AcDbEntity
  8
PCB_OUTLINE
100
AcDbCircle
 10
21.76864605392412
 20
7.309325269827857
 30
0.0
 40
0.015
  0
CIRCLE
  5
661
330
1F
100
AcDbEntity
  8
PCB_OUTLINE
100
AcDbCircle
 10
21.68864605392412
 20
7.309325269827857
 30
0.0
 40
0.015
  0
CIRCLE
  5
662
330
1F
100
AcDbEntity
  8
PCB_OUTLINE
100
AcDbCircle
 10
22.32864605392412
 20
7.309325269827857
 30
0.0
 40
0.015
  0
CIRCLE
  5
663
330
1F
100
AcDbEntity
  8
PCB_OUTLINE
100
AcDbCircle
 10
22.24864605392412
 20
7.309325269827857
 30
0.0
 40
0.015
  0
CIRCLE
  5
664
330
1F
100
AcDbEntity
  8
PCB_OUTLINE
100
AcDbCircle
 10
22.16864605392412
 20
7.309325269827857
 30
0.0
 40
0.015
  0
CIRCLE
  5
665
330
1F
100
AcDbEntity
  8
PCB_OUTLINE
100
AcDbCircle
 10
22.08864605392412
 20
7.309325269827857
 30
0.0
 40
0.015
  0
CIRCLE
  5
666
330
1F
100
AcDbEntity
  8
PCB_OUTLINE
100
AcDbCircle
 10
22.00864605392412
 20
7.309325269827857
 30
0.0
 40
0.015
  0
CIRCLE
  5
667
330
1F
100
AcDbEntity
  8
PCB_OUTLINE
100
AcDbCircle
 10
21.92864605392412
 20
7.309325269827857
 30
0.0
 40
0.015
  0
CIRCLE
  5
668
330
1F
100
AcDbEntity
  8
PCB_OUTLINE
100
AcDbCircle
 10
21.84864605392413
 20
7.309325269827857
 30
0.0
 40
0.015
  0
CIRCLE
  5
669
330
1F
100
AcDbEntity
  8
PCB_OUTLINE
100
AcDbCircle
 10
20.72864605392412
 20
7.309325269827857
 30
0.0
 40
0.015
  0
CIRCLE
  5
66A
330
1F
100
AcDbEntity
  8
PCB_OUTLINE
100
AcDbCircle
 10
20.64864605392412
 20
7.309325269827857
 30
0.0
 40
0.015
  0
CIRCLE
  5
66B
330
1F
100
AcDbEntity
  8
PCB_OUTLINE
100
AcDbCircle
 10
20.80864605392411
 20
7.309325269827857
 30
0.0
 40
0.015
  0
CIRCLE
  5
66C
330
1F
100
AcDbEntity
  8
PCB_OUTLINE
100
AcDbCircle
 10
20.8886460539241
 20
7.309325269827857
 30
0.0
 40
0.015
  0
CIRCLE
  5
66E
330
1F
100
AcDbEntity
  8
PCB_OUTLINE
100
AcDbCircle
 10
22.56864605392411
 20
6.509325269827857
 30
0.0
 40
0.015
  0
CIRCLE
  5
66F
330
1F
100
AcDbEntity
  8
PCB_OUTLINE
100
AcDbCircle
 10
22.64864605392412
 20
6.509325269827857
 30
0.0
 40
0.015
  0
CIRCLE
  5
670
330
1F
100
AcDbEntity
  8
PCB_OUTLINE
100
AcDbCircle
 10
22.72864605392411
 20
6.509325269827857
 30
0.0
 40
0.015
  0
CIRCLE
  5
671
330
1F
100
AcDbEntity
  8
PCB_OUTLINE
100
AcDbCircle
 10
22.80864605392411
 20
6.509325269827857
 30
0.0
 40
0.015
  0
CIRCLE
  5
672
330
1F
100
AcDbEntity
  8
PCB_OUTLINE
100
AcDbCircle
 10
22.40864605392411
 20
6.589325269827856
 30
0.0
 40
0.015
  0
CIRCLE
  5
673
330
1F
100
AcDbEntity
  8
PCB_OUTLINE
100
AcDbCircle
 10
22.48864605392411
 20
6.589325269827856
 30
0.0
 40
0.015
  0
CIRCLE
  5
674
330
1F
100
AcDbEntity
  8
PCB_OUTLINE
100
AcDbCircle
 10
22.56864605392411
 20
6.589325269827856
 30
0.0
 40
0.015
  0
CIRCLE
  5
675
330
1F
100
AcDbEntity
  8
PCB_OUTLINE
100
AcDbCircle
 10
22.64864605392412
 20
6.589325269827856
 30
0.0
 40
0.015
  0
CIRCLE
  5
676
330
1F
100
AcDbEntity
  8
PCB_OUTLINE
100
AcDbCircle
 10
22.72864605392411
 20
6.589325269827856
 30
0.0
 40
0.015
  0
CIRCLE
  5
677
330
1F
100
AcDbEntity
  8
PCB_OUTLINE
100
AcDbCircle
 10
22.80864605392411
 20
6.589325269827856
 30
0.0
 40
0.015
  0
CIRCLE
  5
678
330
1F
100
AcDbEntity
  8
PCB_OUTLINE
100
AcDbCircle
 10
22.40864605392411
 20
6.669325269827856
 30
0.0
 40
0.015
  0
CIRCLE
  5
679
330
1F
100
AcDbEntity
  8
PCB_OUTLINE
100
AcDbCircle
 10
22.48864605392411
 20
6.669325269827856
 30
0.0
 40
0.015
  0
CIRCLE
  5
67A
330
1F
100
AcDbEntity
  8
PCB_OUTLINE
100
AcDbCircle
 10
22.56864605392411
 20
6.669325269827856
 30
0.0
 40
0.015
  0
CIRCLE
  5
67B
330
1F
100
AcDbEntity
  8
PCB_OUTLINE
100
AcDbCircle
 10
22.64864605392412
 20
6.669325269827856
 30
0.0
 40
0.015
  0
CIRCLE
  5
67C
330
1F
100
AcDbEntity
  8
PCB_OUTLINE
100
AcDbCircle
 10
22.72864605392411
 20
6.669325269827856
 30
0.0
 40
0.015
  0
CIRCLE
  5
67D
330
1F
100
AcDbEntity
  8
PCB_OUTLINE
100
AcDbCircle
 10
22.80864605392411
 20
6.669325269827856
 30
0.0
 40
0.015
  0
CIRCLE
  5
67E
330
1F
100
AcDbEntity
  8
PCB_OUTLINE
100
AcDbCircle
 10
22.56864605392411
 20
6.749325269827856
 30
0.0
 40
0.015
  0
CIRCLE
  5
67F
330
1F
100
AcDbEntity
  8
PCB_OUTLINE
100
AcDbCircle
 10
22.64864605392412
 20
6.749325269827856
 30
0.0
 40
0.015
  0
CIRCLE
  5
680
330
1F
100
AcDbEntity
  8
PCB_OUTLINE
100
AcDbCircle
 10
22.72864605392411
 20
6.749325269827856
 30
0.0
 40
0.015
  0
CIRCLE
  5
681
330
1F
100
AcDbEntity
  8
PCB_OUTLINE
100
AcDbCircle
 10
22.80864605392411
 20
6.749325269827856
 30
0.0
 40
0.015
  0
CIRCLE
  5
682
330
1F
100
AcDbEntity
  8
PCB_OUTLINE
100
AcDbCircle
 10
20.88864605392413
 20
6.509325269827857
 30
0.0
 40
0.015
  0
CIRCLE
  5
683
330
1F
100
AcDbEntity
  8
PCB_OUTLINE
100
AcDbCircle
 10
20.80864605392413
 20
6.509325269827857
 30
0.0
 40
0.015
  0
CIRCLE
  5
684
330
1F
100
AcDbEntity
  8
PCB_OUTLINE
100
AcDbCircle
 10
20.64864605392413
 20
6.509325269827857
 30
0.0
 40
0.015
  0
CIRCLE
  5
685
330
1F
100
AcDbEntity
  8
PCB_OUTLINE
100
AcDbCircle
 10
20.72864605392414
 20
6.509325269827857
 30
0.0
 40
0.015
  0
CIRCLE
  5
686
330
1F
100
AcDbEntity
  8
PCB_OUTLINE
100
AcDbCircle
 10
20.96864605392413
 20
6.509325269827857
 30
0.0
 40
0.015
  0
CIRCLE
  5
687
330
1F
100
AcDbEntity
  8
PCB_OUTLINE
100
AcDbCircle
 10
21.12864605392412
 20
6.589325269827856
 30
0.0
 40
0.015
  0
CIRCLE
  5
688
330
1F
100
AcDbEntity
  8
PCB_OUTLINE
100
AcDbCircle
 10
21.04864605392412
 20
6.589325269827856
 30
0.0
 40
0.015
  0
CIRCLE
  5
689
330
1F
100
AcDbEntity
  8
PCB_OUTLINE
100
AcDbCircle
 10
20.88864605392413
 20
6.589325269827856
 30
0.0
 40
0.015
  0
CIRCLE
  5
68A
330
1F
100
AcDbEntity
  8
PCB_OUTLINE
100
AcDbCircle
 10
20.80864605392413
 20
6.589325269827856
 30
0.0
 40
0.015
  0
CIRCLE
  5
68B
330
1F
100
AcDbEntity
  8
PCB_OUTLINE
100
AcDbCircle
 10
20.64864605392413
 20
6.589325269827856
 30
0.0
 40
0.015
  0
CIRCLE
  5
68C
330
1F
100
AcDbEntity
  8
PCB_OUTLINE
100
AcDbCircle
 10
20.72864605392414
 20
6.589325269827856
 30
0.0
 40
0.015
  0
CIRCLE
  5
68D
330
1F
100
AcDbEntity
  8
PCB_OUTLINE
100
AcDbCircle
 10
20.96864605392413
 20
6.589325269827856
 30
0.0
 40
0.015
  0
CIRCLE
  5
68E
330
1F
100
AcDbEntity
  8
PCB_OUTLINE
100
AcDbCircle
 10
21.12864605392412
 20
6.669325269827856
 30
0.0
 40
0.015
  0
CIRCLE
  5
68F
330
1F
100
AcDbEntity
  8
PCB_OUTLINE
100
AcDbCircle
 10
21.04864605392412
 20
6.669325269827856
 30
0.0
 40
0.015
  0
CIRCLE
  5
690
330
1F
100
AcDbEntity
  8
PCB_OUTLINE
100
AcDbCircle
 10
20.88864605392413
 20
6.669325269827856
 30
0.0
 40
0.015
  0
CIRCLE
  5
691
330
1F
100
AcDbEntity
  8
PCB_OUTLINE
100
AcDbCircle
 10
20.80864605392413
 20
6.669325269827856
 30
0.0
 40
0.015
  0
CIRCLE
  5
692
330
1F
100
AcDbEntity
  8
PCB_OUTLINE
100
AcDbCircle
 10
20.64864605392413
 20
6.669325269827856
 30
0.0
 40
0.015
  0
CIRCLE
  5
693
330
1F
100
AcDbEntity
  8
PCB_OUTLINE
100
AcDbCircle
 10
20.72864605392414
 20
6.669325269827856
 30
0.0
 40
0.015
  0
CIRCLE
  5
694
330
1F
100
AcDbEntity
  8
PCB_OUTLINE
100
AcDbCircle
 10
20.96864605392413
 20
6.669325269827856
 30
0.0
 40
0.015
  0
CIRCLE
  5
695
330
1F
100
AcDbEntity
  8
PCB_OUTLINE
100
AcDbCircle
 10
20.88864605392413
 20
6.749325269827856
 30
0.0
 40
0.015
  0
CIRCLE
  5
696
330
1F
100
AcDbEntity
  8
PCB_OUTLINE
100
AcDbCircle
 10
20.80864605392413
 20
6.749325269827856
 30
0.0
 40
0.015
  0
CIRCLE
  5
697
330
1F
100
AcDbEntity
  8
PCB_OUTLINE
100
AcDbCircle
 10
20.64864605392413
 20
6.749325269827856
 30
0.0
 40
0.015
  0
CIRCLE
  5
698
330
1F
100
AcDbEntity
  8
PCB_OUTLINE
100
AcDbCircle
 10
20.72864605392414
 20
6.749325269827856
 30
0.0
 40
0.015
  0
CIRCLE
  5
699
330
1F
100
AcDbEntity
  8
PCB_OUTLINE
100
AcDbCircle
 10
20.96864605392413
 20
6.749325269827856
 30
0.0
 40
0.015
  0
CIRCLE
  5
69A
330
1F
100
AcDbEntity
  8
PCB_OUTLINE
100
AcDbCircle
 10
21.28864605392412
 20
7.469325269827857
 30
0.0
 40
0.015
  0
CIRCLE
  5
69B
330
1F
100
AcDbEntity
  8
PCB_OUTLINE
100
AcDbCircle
 10
21.20864605392413
 20
7.469325269827857
 30
0.0
 40
0.015
  0
LWPOLYLINE
  5
69C
330
1F
100
AcDbEntity
  8
PCB_TOP
100
AcDbPolyline
 90
       22
 70
     0
 43
0.0
 10
21.17367791214697
 20
5.754325295362896
 10
22.36364553141013
 20
5.754325295362896
 10
22.36364553141013
 20
6.129311572424732
 10
22.39864553141015
 20
6.129311572424736
 10
22.39864553141012
 20
6.249311572424744
 10
22.58464553141014
 20
6.249311572424744
 10
22.58464553141014
 20
5.754325295362896
 10
22.91864551545216
 20
5.754325295362896
 10
22.91864551545216
 20
7.504339843338414
 10
22.58464553141014
 20
7.504339963264447
 10
22.58464553141014
 20
7.009353686202601
 10
22.39864553141012
 20
7.009353686202601
 10
22.39864553141015
 20
7.129353686202605
 10
22.36364553141013
 20
7.129353686202612
 10
22.36364553141013
 20
7.504339963264447
 10
21.17364605392412
 20
7.504339843338414
 10
21.17364605392412
 20
7.129353566221571
 10
21.13864605392411
 20
7.129353566221567
 10
21.13864605392413
 20
7.009353566221559
 10
20.95264605392412
 20
7.009353566221559
 10
20.95264605392412
 20
7.504339843283407
 10
20.61864604957156
 20
7.504339843338414
  0
LINE
  5
69D
330
1F
100
AcDbEntity
  8
PCB_TOP
100
AcDbLine
 10
20.61864597863325
 20
7.504339843338409
 30
0.0
 11
20.6186460698821
 21
5.754325295307892
 31
0.0
  0
LINE
  5
69E
330
1F
100
AcDbEntity
  8
PCB_TOP
100
AcDbLine
 10
20.6186460698821
 20
5.754325295307892
 30
0.0
 11
20.95264605392412
 21
5.754325295362896
 31
0.0
  0
LINE
  5
69F
330
1F
100
AcDbEntity
  8
PCB_TOP
100
AcDbLine
 10
20.95264605392412
 20
5.754325295362896
 30
0.0
 11
20.95264605392412
 21
6.249311572424744
 31
0.0
  0
LINE
  5
6A0
330
1F
100
AcDbEntity
  8
PCB_TOP
100
AcDbLine
 10
20.95264605392412
 20
6.249311572424744
 30
0.0
 11
21.13864605392413
 21
6.249311572424744
 31
0.0
  0
LINE
  5
6A1
330
1F
100
AcDbEntity
  8
PCB_TOP
100
AcDbLine
 10
21.13864605392413
 20
6.249311572424744
 30
0.0
 11
21.13864605392411
 21
6.129311572424736
 31
0.0
  0
LINE
  5
6A2
330
1F
100
AcDbEntity
  8
PCB_TOP
100
AcDbLine
 10
21.13864605392411
 20
6.129311572424736
 30
0.0
 11
21.17364605392412
 21
6.129311572424732
 31
0.0
  0
LINE
  5
6A3
330
1F
100
AcDbEntity
  8
PCB_TOP
100
AcDbLine
 10
21.17364605392412
 20
6.129311572424732
 30
0.0
 11
21.17364605392412
 21
5.754325295362896
 31
0.0
  0
LWPOLYLINE
  5
6A4
330
1F
100
AcDbEntity
  8
PCB_TOP
100
AcDbPolyline
 90
        6
 70
     1
 43
0.0
 10
21.02364605392412
 20
6.209311572424747
 10
21.09864605392412
 20
6.20931157242474
 10
21.09864605392412
 20
5.763837491694197
 42
-0.2679491924311238
 10
21.02764605392412
 20
5.763837491694202
 10
21.02764605392412
 20
6.134311572424744
 10
21.02364605392412
 20
6.134311572424744
  0
LWPOLYLINE
  5
6A5
330
1F
100
AcDbEntity
  8
PCB_TOP
100
AcDbPolyline
 90
        6
 70
     1
 43
0.0
 10
22.51364553141014
 20
6.209311572424747
 10
22.43864553141014
 20
6.20931157242474
 10
22.43864553141014
 20
5.763837491694197
 42
0.2679491924311238
 10
22.50964553141014
 20
5.763837491694202
 10
22.50964553141014
 20
6.134311572424744
 10
22.51364553141014
 20
6.134311572424744
  0
LWPOLYLINE
  5
6A6
330
1F
100
AcDbEntity
  8
PCB_TOP
100
AcDbPolyline
 90
        6
 70
     1
 43
0.0
 10
21.02364605392412
 20
7.049353566221554
 10
21.09864605392412
 20
7.049353566221559
 10
21.09864605392412
 20
7.494827646952102
 42
0.2679491924311238
 10
21.02764605392412
 20
7.494827646952097
 10
21.02764605392412
 20
7.124353566221557
 10
21.02364605392412
 20
7.124353566221557
  0
LWPOLYLINE
  5
6A7
330
1F
100
AcDbEntity
  8
PCB_TOP
100
AcDbPolyline
 90
        6
 70
     1
 43
0.0
 10
22.51364553141014
 20
7.049353686202596
 10
22.43864553141014
 20
7.049353686202602
 10
22.43864553141014
 20
7.494827766933143
 42
-0.2679491924311238
 10
22.50964553141014
 20
7.494827766933143
 10
22.50964553141014
 20
7.124353686202601
 10
22.51364553141014
 20
7.124353686202601
  0
MTEXT
  5
890
330
1F
100
AcDbEntity
  8
Text
100
AcDbMText
 10
21.72099590821374
 20
5.615682691825417
 30
0.0
 40
0.1
 41
2.0564
 71
     2
 72
     5
  1
Er=3.55, 2oz. Cu, Both Sides\P(.032" THK.)
  7
ARIAL
 73
     1
 44
1.0
1001
ACAD
1000
MTEXTBEGIN
1070
    73
1070
     1
1070
    44
1040
1.0
1070
    74
1070
     0
1000
MTEXTEND
  0
CIRCLE
  5
891
330
1F
100
AcDbEntity
  8
PCB_OUTLINE
100
AcDbCircle
 10
22.88864605392411
 20
6.829325269827856
 30
0.0
 40
0.015
  0
CIRCLE
  5
892
330
1F
100
AcDbEntity
  8
PCB_OUTLINE
100
AcDbCircle
 10
22.88864605392411
 20
6.509325269827857
 30
0.0
 40
0.015
  0
CIRCLE
  5
893
330
1F
100
AcDbEntity
  8
PCB_OUTLINE
100
AcDbCircle
 10
22.88864605392411
 20
6.589325269827856
 30
0.0
 40
0.015
  0
CIRCLE
  5
894
330
1F
100
AcDbEntity
  8
PCB_OUTLINE
100
AcDbCircle
 10
22.88864605392411
 20
6.669325269827856
 30
0.0
 40
0.015
  0
CIRCLE
  5
895
330
1F
100
AcDbEntity
  8
PCB_OUTLINE
100
AcDbCircle
 10
22.88864605392411
 20
6.749325269827856
 30
0.0
 40
0.015
  0
INSERT
  5
AF9
330
1F
100
AcDbEntity
  8
Part
100
AcDbBlockReference
  2
A$Cb67f6ff0
 10
21.01864579266713
 20
6.129332569323132
 30
0.0
  0
ENDSEC
  0
SECTION
  2
OBJECTS
  0
DICTIONARY
  5
C
330
0
100
AcDbDictionary
281
     1
  3
ACAD_2007HEADERVARS_RT
350
B41
  3
ACAD_CIP_PREVIOUS_PRODUCT_INFO
350
1A5
  3
ACAD_COLOR
350
73
  3
ACAD_DETAILVIEWSTYLE
350
1AB
  3
ACAD_GROUP
350
D
  3
ACAD_LAYOUT
350
1A
  3
ACAD_MATERIAL
350
72
  3
ACAD_MLEADERSTYLE
350
D7
  3
ACAD_MLINESTYLE
350
17
  3
ACAD_PLOTSETTINGS
350
19
  3
ACAD_PLOTSTYLENAME
350
E
  3
ACAD_SCALELIST
350
B6
  3
ACAD_SECTIONVIEWSTYLE
350
1A8
  3
ACAD_TABLESTYLE
350
86
  3
ACAD_VISUALSTYLE
350
99
  3
ACDB_RECOMPOSE_DATA
350
B3F
  3
AcDbVariableDictionary
350
66
  3
AcmDictionary
350
83D
  3
AMG
350
812
  3
AMGSNAPSETTINGS
350
880
  3
DWGPROPS
350
B40
  0
DICTIONARY
  5
18E
330
2
100
AcDbDictionary
280
     1
281
     1
  3
ACAD_LAYERSTATES
360
18F
  0
DICTIONARY
  5
E6
330
10
100
AcDbDictionary
280
     1
281
     1
  0
DICTIONARY
  5
1C0
330
1BF
100
AcDbDictionary
280
     1
281
     1
  0
DICTIONARY
  5
1C2
330
1C1
100
AcDbDictionary
280
     1
281
     1
  0
DICTIONARY
  5
1C4
330
1C3
100
AcDbDictionary
280
     1
281
     1
  0
DICTIONARY
  5
1C6
330
1C5
100
AcDbDictionary
280
     1
281
     1
  0
DICTIONARY
  5
15D
330
1F
100
AcDbDictionary
280
     1
281
     1
  0
DICTIONARY
  5
AF5
330
A7E
100
AcDbDictionary
280
     1
281
     1
  3
ACAD_SORTENTS
360
AF6
  0
DICTIONARY
  5
B41
102
{ACAD_REACTORS
330
C
102
}
330
C
100
AcDbDictionary
281
     1
  3
DIMARCSYM
350
B42
  3
DIMLTEX1
350
B44
  3
DIMLTEX2
350
B45
  3
DIMLTYPE
350
B43
  0
XRECORD
  5
1A5
102
{ACAD_REACTORS
330
C
102
}
330
C
100
AcDbXrecord
280
     1
300
ACD
300
2022
300

  0
DICTIONARY
  5
73
102
{ACAD_REACTORS
330
C
102
}
330
C
100
AcDbDictionary
281
     1
  0
DICTIONARY
  5
1AB
102
{ACAD_REACTORS
330
C
102
}
330
C
100
AcDbDictionary
281
     1
  3
Imperial24
350
1AC
  0
DICTIONARY
  5
D
102
{ACAD_REACTORS
330
C
102
}
330
C
100
AcDbDictionary
281
     1
  0
DICTIONARY
  5
1A
102
{ACAD_REACTORS
330
C
102
}
330
C
100
AcDbDictionary
281
     1
  3
Layout1
350
59
  3
Layout2
350
5E
  3
Model
350
22
  0
DICTIONARY
  5
72
102
{ACAD_REACTORS
330
C
102
}
330
C
100
AcDbDictionary
281
     1
  3
ByBlock
350
97
  3
ByLayer
350
96
  3
Global
350
98
  0
DICTIONARY
  5
D7
102
{ACAD_REACTORS
330
C
102
}
330
C
100
AcDbDictionary
281
     1
  3
Standard
350
D8
  0
DICTIONARY
  5
17
102
{ACAD_REACTORS
330
C
102
}
330
C
100
AcDbDictionary
281
     1
  3
Standard
350
18
  0
DICTIONARY
  5
19
102
{ACAD_REACTORS
330
C
102
}
330
C
100
AcDbDictionary
281
     1
  0
ACDBDICTIONARYWDFLT
  5
E
102
{ACAD_REACTORS
330
C
102
}
330
C
100
AcDbDictionary
281
     1
  3
Normal
350
F
100
AcDbDictionaryWithDefault
340
F
  0
DICTIONARY
  5
B6
102
{ACAD_REACTORS
330
C
102
}
330
C
100
AcDbDictionary
281
     1
  3
A0
350
B7
  3
A1
350
124
  3
A2
350
125
  3
A3
350
126
  3
A4
350
127
  3
A5
350
128
  3
A6
350
129
  3
A7
350
12A
  3
A8
350
12B
  3
A9
350
12C
  3
B0
350
12D
  3
B1
350
12E
  3
B2
350
12F
  3
B3
350
130
  3
B4
350
131
  3
B5
350
132
  3
B6
350
133
  3
B7
350
134
  3
B8
350
135
  3
B9
350
136
  3
C0
350
137
  3
C1
350
138
  3
C2
350
139
  3
C3
350
13A
  3
C4
350
13B
  3
C5
350
13C
  3
C6
350
13D
  3
C7
350
13E
  3
C8
350
13F
  3
C9
350
140
  3
D0
350
141
  3
D1
350
142
  3
D2
350
143
  0
DICTIONARY
  5
1A8
102
{ACAD_REACTORS
330
C
102
}
330
C
100
AcDbDictionary
281
     1
  3
Imperial24
350
1AA
  0
DICTIONARY
  5
86
102
{ACAD_REACTORS
330
C
102
}
330
C
100
AcDbDictionary
281
     1
  3
Standard
350
87
  0
DICTIONARY
  5
99
102
{ACAD_REACTORS
330
C
102
}
330
C
100
AcDbDictionary
281
     1
  3
2dWireframe
350
9F
  3
Basic
350
9E
  3
Brighten
350
A5
  3
ColorChange
350
A9
  3
Conceptual
350
A2
  3
Dim
350
A4
  3
EdgeColorOff
350
175
  3
Facepattern
350
A8
  3
Flat
350
9A
  3
FlatWithEdges
350
9B
  3
Gouraud
350
9C
  3
GouraudWithEdges
350
9D
  3
Hidden
350
A1
  3
JitterOff
350
173
  3
Linepattern
350
A7
  3
OverhangOff
350
174
  3
Realistic
350
A3
  3
Shaded
350
182
  3
Shaded with edges
350
181
  3
Shades of Gray
350
17E
  3
Sketchy
350
17F
  3
Thicken
350
A6
  3
Wireframe
350
A0
  3
X-Ray
350
180
  0
XRECORD
  5
B3F
102
{ACAD_REACTORS
330
C
102
}
330
C
100
AcDbXrecord
280
     1
 90
        1
330
87
  0
DICTIONARY
  5
66
102
{ACAD_REACTORS
330
C
102
}
330
C
100
AcDbDictionary
281
     1
  3
CANNOSCALE
350
F0
  3
CMLEADERSTYLE
350
EF
  3
CTABLESTYLE
350
89
  3
CVIEWDETAILSTYLE
350
1B7
  3
CVIEWSECTIONSTYLE
350
1B8
  3
DIMASSOC
350
67
  3
HIDETEXT
350
6B
  3
INDEXCTL
350
7C8
  3
LAYEREVAL
350
14D
  3
LAYERNOTIFY
350
14E
  3
LIGHTINGUNITS
350
7C6
  3
MSLTSCALE
350
7C5
  3
SORTENTS
350
7C7
  3
XCLIPFRAME
350
AFA
  0
DICTIONARY
  5
83D
102
{ACAD_REACTORS
330
C
102
}
330
C
100
AcDbDictionary
281
     1
  3
AcmStdDictionary
350
844
  0
DICTIONARY
  5
812
102
{ACAD_REACTORS
330
C
102
}
330
C
100
AcDbDictionary
281
     1
  0
DICTIONARY
  5
880
102
{ACAD_REACTORS
330
C
102
}
330
C
100
AcDbDictionary
281
     1
  0
XRECORD
  5
B40
102
{ACAD_REACTORS
330
C
102
}
330
C
100
AcDbXrecord
280
     1
  1
DWGPROPS COOKIE
  2

  3

  4

  6

  7

  8
dguiffre
  9

300
=
301
=
302
=
303
=
304
=
305
=
306
=
307
=
308
=
309
=
 40
0.0055596296296296
 41
2456842.468796296
 42
2459956.322094908
  1

 90
        0
  0
DICTIONARY
  5
18F
102
{ACAD_REACTORS
330
18E
102
}
330
18E
100
AcDbDictionary
281
     1
  0
SORTENTSTABLE
  5
AF6
102
{ACAD_REACTORS
330
AF5
102
}
330
AF5
100
AcDbSortentsTable
330
A7E
  0
XRECORD
  5
B42
102
{ACAD_REACTORS
330
B41
102
}
330
B41
100
AcDbXrecord
280
     1
 70
     1
  0
XRECORD
  5
B44
102
{ACAD_REACTORS
330
B41
102
}
330
B41
100
AcDbXrecord
280
     1
340
14
  0
XRECORD
  5
B45
102
{ACAD_REACTORS
330
B41
102
}
330
B41
100
AcDbXrecord
280
     1
340
14
  0
XRECORD
  5
B43
102
{ACAD_REACTORS
330
B41
102
}
330
B41
100
AcDbXrecord
280
     1
340
14
  0
ACDBDETAILVIEWSTYLE
  5
1AC
102
{ACAD_XDICTIONARY
360
B7F
102
}
102
{ACAD_REACTORS
330
1AB
102
}
330
1AB
100
AcDbModelDocViewStyle
 70
     0
  3
Imperial24
290
     0
100
AcDbDetailViewStyle
 70
     0
 71
     0
 90
        3
 71
     1
340
11
 40
0.24
340
0
 40
0.24
300

 40
0.36
280
     3
 71
     2
340
16
 90
       25
 71
     3
340
11
 40
0.24
 90
        1
 40
0.75
 90
        1
300
%<\AcVar ViewType \f "%tc1">% %<\AcVar ViewDetailId>%\PSCALE %<\AcVar ViewScale \f "%sn">%
 71
     4
340
16
 90
       25
340
16
 90
       25
280
     0
  0
LAYOUT
  5
59
102
{ACAD_XDICTIONARY
360
B48
102
}
102
{ACAD_REACTORS
330
1A
102
}
330
1A
100
AcDbPlotSettings
  1

  2
None
  4

  6

 40
0.0
 41
0.0
 42
0.0
 43
0.0
 44
0.0
 45
0.0
 46
0.0
 47
0.0
 48
0.0
 49
0.0
140
0.0
141
0.0
142
1.0
143
1.0
 70
   688
 72
     0
 73
     0
 74
     5
  7

 75
    16
147
1.0
148
0.0
149
0.0
100
AcDbLayout
  1
Layout1
 70
     1
 71
     1
 10
0.0
 20
0.0
 11
12.0
 21
9.0
 12
0.0
 22
0.0
 32
0.0
 14
0.0
 24
0.0
 34
0.0
 15
0.0
 25
0.0
 35
0.0
146
0.0
 13
0.0
 23
0.0
 33
0.0
 16
1.0
 26
0.0
 36
0.0
 17
0.0
 27
1.0
 37
0.0
 76
     0
330
58
  0
LAYOUT
  5
5E
102
{ACAD_XDICTIONARY
360
B4A
102
}
102
{ACAD_REACTORS
330
1A
102
}
330
1A
100
AcDbPlotSettings
  1

  2
None
  4

  6

 40
0.0
 41
0.0
 42
0.0
 43
0.0
 44
0.0
 45
0.0
 46
0.0
 47
0.0
 48
0.0
 49
0.0
140
0.0
141
0.0
142
1.0
143
1.0
 70
   688
 72
     0
 73
     0
 74
     5
  7

 75
    16
147
1.0
148
0.0
149
0.0
100
AcDbLayout
  1
Layout2
 70
     1
 71
     2
 10
0.0
 20
0.0
 11
12.0
 21
9.0
 12
0.0
 22
0.0
 32
0.0
 14
0.0
 24
0.0
 34
0.0
 15
0.0
 25
0.0
 35
0.0
146
0.0
 13
0.0
 23
0.0
 33
0.0
 16
1.0
 26
0.0
 36
0.0
 17
0.0
 27
1.0
 37
0.0
 76
     0
330
5D
  0
LAYOUT
  5
22
102
{ACAD_XDICTIONARY
360
B46
102
}
102
{ACAD_REACTORS
330
1A
102
}
330
1A
100
AcDbPlotSettings
  1

  2
none_device
  4
ANSI_A_(8.50_x_11.00_Inches)
  6

 40
6.349999904632567
 41
19.04999923706055
 42
6.350006103515625
 43
19.04998779296875
 44
215.8999938964844
 45
279.3999938964844
 46
0.0
 47
0.0
 48
0.0
 49
0.0
140
0.0
141
0.0
142
1.0
143
2.584895464708373
 70
 11952
 72
     0
 73
     1
 74
     0
  7

 75
     0
147
0.3868628397755418
148
0.0
149
0.0
100
AcDbLayout
  1
Model
 70
     1
 71
     0
 10
0.0
 20
0.0
 11
12.0
 21
9.0
 12
0.0
 22
0.0
 32
0.0
 14
0.0
 24
0.0
 34
0.0
 15
0.0
 25
0.0
 35
0.0
146
0.0
 13
0.0
 23
0.0
 33
0.0
 16
1.0
 26
0.0
 36
0.0
 17
0.0
 27
1.0
 37
0.0
 76
     0
330
1F
331
94
  0
MATERIAL
  5
97
102
{ACAD_XDICTIONARY
360
188
102
}
102
{ACAD_REACTORS
330
72
102
}
330
72
100
AcDbMaterial
  1
ByBlock
  0
MATERIAL
  5
96
102
{ACAD_XDICTIONARY
360
186
102
}
102
{ACAD_REACTORS
330
72
102
}
330
72
100
AcDbMaterial
  1
ByLayer
  0
MATERIAL
  5
98
102
{ACAD_XDICTIONARY
360
110
102
}
102
{ACAD_REACTORS
330
72
102
}
330
72
100
AcDbMaterial
  1
Global
 43
0.0208000000566244
 43
0.0
 43
0.0
 43
0.0
 43
0.0
 43
0.0208000000566244
 43
0.0
 43
0.0
 43
0.0
 43
0.0
 43
1.0
 43
0.0
 43
0.0
 43
0.0
 43
0.0
 43
1.0
 49
0.0208000000566244
 49
0.0
 49
0.0
 49
0.0
 49
0.0
 49
0.0208000000566244
 49
0.0
 49
0.0
 49
0.0
 49
0.0
 49
1.0
 49
0.0
 49
0.0
 49
0.0
 49
0.0
 49
1.0
142
0.0208000000566244
142
0.0
142
0.0
142
0.0
142
0.0
142
0.0208000000566244
142
0.0
142
0.0
142
0.0
142
0.0
142
1.0
142
0.0
142
0.0
142
0.0
142
0.0
142
1.0
144
0.0208000000566244
144
0.0
144
0.0
144
0.0
144
0.0
144
0.0208000000566244
144
0.0
144
0.0
144
0.0
144
0.0
144
1.0
144
0.0
144
0.0
144
0.0
144
0.0
144
1.0
1001
ACAD
1070
    -1
1070
     3
1070
     0
1000

1071
        0
1070
     0
  0
MLEADERSTYLE
  5
D8
102
{ACAD_REACTORS
330
D7
102
}
330
D7
100
AcDbMLeaderStyle
170
     2
171
     1
172
     0
 90
        2
 40
0.0
 41
0.0
173
     1
 91
-1056964608
340
14
 92
       -2
290
     1
 42
0.09
291
     1
 43
0.36
  3
Standard
 44
0.18
300

342
11
174
     1
178
     1
175
     1
176
     0
 93
-1056964608
 45
0.18
292
     0
297
     0
 46
0.18
 94
-1056964608
 47
1.0
 49
1.0
140
1.0
293
     1
141
0.0
294
     1
177
     0
142
1.0
295
     0
296
     0
143
0.125
1001
ACAD_MLEADERVER
1070
     2
  0
MLINESTYLE
  5
18
102
{ACAD_REACTORS
330
17
102
}
330
17
100
AcDbMlineStyle
  2
STANDARD
 70
     0
  3

 62
   256
 51
90.0
 52
90.0
 71
     2
 49
0.5
 62
   256
  6
BYLAYER
 49
-0.5
 62
   256
  6
BYLAYER
  0
ACDBPLACEHOLDER
  5
F
102
{ACAD_REACTORS
330
E
102
}
330
E
  0
SCALE
  5
B7
102
{ACAD_REACTORS
330
B6
102
}
330
B6
100
AcDbScale
 70
     0
300
1:1
140
1.0
141
1.0
290
     1
  0
SCALE
  5
124
102
{ACAD_REACTORS
330
B6
102
}
330
B6
100
AcDbScale
 70
     0
300
1:2
140
1.0
141
2.0
290
     0
  0
SCALE
  5
125
102
{ACAD_REACTORS
330
B6
102
}
330
B6
100
AcDbScale
 70
     0
300
1:4
140
1.0
141
4.0
290
     0
  0
SCALE
  5
126
102
{ACAD_REACTORS
330
B6
102
}
330
B6
100
AcDbScale
 70
     0
300
1:5
140
1.0
141
5.0
290
     0
  0
SCALE
  5
127
102
{ACAD_REACTORS
330
B6
102
}
330
B6
100
AcDbScale
 70
     0
300
1:8
140
1.0
141
8.0
290
     0
  0
SCALE
  5
128
102
{ACAD_REACTORS
330
B6
102
}
330
B6
100
AcDbScale
 70
     0
300
1:10
140
1.0
141
10.0
290
     0
  0
SCALE
  5
129
102
{ACAD_REACTORS
330
B6
102
}
330
B6
100
AcDbScale
 70
     0
300
1:16
140
1.0
141
16.0
290
     0
  0
SCALE
  5
12A
102
{ACAD_REACTORS
330
B6
102
}
330
B6
100
AcDbScale
 70
     0
300
1:20
140
1.0
141
20.0
290
     0
  0
SCALE
  5
12B
102
{ACAD_REACTORS
330
B6
102
}
330
B6
100
AcDbScale
 70
     0
300
1:30
140
1.0
141
30.0
290
     0
  0
SCALE
  5
12C
102
{ACAD_REACTORS
330
B6
102
}
330
B6
100
AcDbScale
 70
     0
300
1:40
140
1.0
141
40.0
290
     0
  0
SCALE
  5
12D
102
{ACAD_REACTORS
330
B6
102
}
330
B6
100
AcDbScale
 70
     0
300
1:50
140
1.0
141
50.0
290
     0
  0
SCALE
  5
12E
102
{ACAD_REACTORS
330
B6
102
}
330
B6
100
AcDbScale
 70
     0
300
1:100
140
1.0
141
100.0
290
     0
  0
SCALE
  5
12F
102
{ACAD_REACTORS
330
B6
102
}
330
B6
100
AcDbScale
 70
     0
300
2:1
140
2.0
141
1.0
290
     0
  0
SCALE
  5
130
102
{ACAD_REACTORS
330
B6
102
}
330
B6
100
AcDbScale
 70
     0
300
4:1
140
4.0
141
1.0
290
     0
  0
SCALE
  5
131
102
{ACAD_REACTORS
330
B6
102
}
330
B6
100
AcDbScale
 70
     0
300
8:1
140
8.0
141
1.0
290
     0
  0
SCALE
  5
132
102
{ACAD_REACTORS
330
B6
102
}
330
B6
100
AcDbScale
 70
     0
300
10:1
140
10.0
141
1.0
290
     0
  0
SCALE
  5
133
102
{ACAD_REACTORS
330
B6
102
}
330
B6
100
AcDbScale
 70
     0
300
100:1
140
100.0
141
1.0
290
     0
  0
SCALE
  5
134
102
{ACAD_REACTORS
330
B6
102
}
330
B6
100
AcDbScale
 70
     0
300
1/128" = 1'-0"
140
0.0078125
141
12.0
290
     0
  0
SCALE
  5
135
102
{ACAD_REACTORS
330
B6
102
}
330
B6
100
AcDbScale
 70
     0
300
1/64" = 1'-0"
140
0.015625
141
12.0
290
     0
  0
SCALE
  5
136
102
{ACAD_REACTORS
330
B6
102
}
330
B6
100
AcDbScale
 70
     0
300
1/32" = 1'-0"
140
0.03125
141
12.0
290
     0
  0
SCALE
  5
137
102
{ACAD_REACTORS
330
B6
102
}
330
B6
100
AcDbScale
 70
     0
300
1/16" = 1'-0"
140
0.0625
141
12.0
290
     0
  0
SCALE
  5
138
102
{ACAD_REACTORS
330
B6
102
}
330
B6
100
AcDbScale
 70
     0
300
3/32" = 1'-0"
140
0.09375
141
12.0
290
     0
  0
SCALE
  5
139
102
{ACAD_REACTORS
330
B6
102
}
330
B6
100
AcDbScale
 70
     0
300
1/8" = 1'-0"
140
0.125
141
12.0
290
     0
  0
SCALE
  5
13A
102
{ACAD_REACTORS
330
B6
102
}
330
B6
100
AcDbScale
 70
     0
300
3/16" = 1'-0"
140
0.1875
141
12.0
290
     0
  0
SCALE
  5
13B
102
{ACAD_REACTORS
330
B6
102
}
330
B6
100
AcDbScale
 70
     0
300
1/4" = 1'-0"
140
0.25
141
12.0
290
     0
  0
SCALE
  5
13C
102
{ACAD_REACTORS
330
B6
102
}
330
B6
100
AcDbScale
 70
     0
300
3/8" = 1'-0"
140
0.375
141
12.0
290
     0
  0
SCALE
  5
13D
102
{ACAD_REACTORS
330
B6
102
}
330
B6
100
AcDbScale
 70
     0
300
1/2" = 1'-0"
140
0.5
141
12.0
290
     0
  0
SCALE
  5
13E
102
{ACAD_REACTORS
330
B6
102
}
330
B6
100
AcDbScale
 70
     0
300
3/4" = 1'-0"
140
0.75
141
12.0
290
     0
  0
SCALE
  5
13F
102
{ACAD_REACTORS
330
B6
102
}
330
B6
100
AcDbScale
 70
     0
300
1" = 1'-0"
140
1.0
141
12.0
290
     0
  0
SCALE
  5
140
102
{ACAD_REACTORS
330
B6
102
}
330
B6
100
AcDbScale
 70
     0
300
1-1/2" = 1'-0"
140
1.5
141
12.0
290
     0
  0
SCALE
  5
141
102
{ACAD_REACTORS
330
B6
102
}
330
B6
100
AcDbScale
 70
     0
300
3" = 1'-0"
140
3.0
141
12.0
290
     0
  0
SCALE
  5
142
102
{ACAD_REACTORS
330
B6
102
}
330
B6
100
AcDbScale
 70
     0
300
6" = 1'-0"
140
6.0
141
12.0
290
     0
  0
SCALE
  5
143
102
{ACAD_REACTORS
330
B6
102
}
330
B6
100
AcDbScale
 70
     0
300
1'-0" = 1'-0"
140
12.0
141
12.0
290
     0
  0
ACDBSECTIONVIEWSTYLE
  5
1AA
102
{ACAD_XDICTIONARY
360
B7D
102
}
102
{ACAD_REACTORS
330
1A8
102
}
330
1A8
100
AcDbModelDocViewStyle
 70
     0
  3
Imperial24
290
     0
100
AcDbSectionViewStyle
 70
     0
 71
     0
 90
       78
 71
     1
340
11
 40
0.24
340
0
340
0
 40
0.24
300
I, O, Q, S, X, Z
 40
0.48
 90
        3
 40
0.18
 90
        1
 71
     2
340
1A9
 90
       25
340
16
 90
       50
 40
0.24
 40
0.0
 40
0.24
 71
     3
340
11
 40
0.24
 90
        1
 40
0.75
 90
        1
300
%<\AcVar ViewType \f "%tc1">% %<\AcVar ViewSectionStartId>%-%<\AcVar ViewSectionEndId>%\PSCALE %<\AcVar ViewScale \f "%sn">%
 71
     4
300
ANSI31
 40
1.0
 90
        0
290
     0
290
     0
 90
        6
 40
0.0
 40
1.570796326794896
 40
0.2617993877991494
 40
1.308996938995747
 40
-0.2617993877991494
 40
1.832595714594044
  0
TABLESTYLE
  5
87
102
{ACAD_XDICTIONARY
360
104
102
}
102
{ACAD_REACTORS
330
86
102
}
330
86
100
AcDbTableStyle
  3
Standard
 70
     0
 71
     0
 40
0.06
 41
0.06
280
     0
281
     0
  7
Standard
140
0.18
170
     2
 62
     0
 63
     7
283
     0
274
    -2
284
     1
 64
     0
275
    -2
285
     1
 65
     0
276
    -2
286
     1
 66
     0
277
    -2
287
     1
 67
     0
278
    -2
288
     1
 68
     0
279
    -2
289
     1
 69
     0
  7
Standard
140
0.25
170
     5
 62
     0
 63
     7
283
     0
274
    -2
284
     1
 64
     0
275
    -2
285
     1
 65
     0
276
    -2
286
     1
 66
     0
277
    -2
287
     1
 67
     0
278
    -2
288
     1
 68
     0
279
    -2
289
     1
 69
     0
  7
Standard
140
0.18
170
     5
 62
     0
 63
     7
283
     0
274
    -2
284
     1
 64
     0
275
    -2
285
     1
 65
     0
276
    -2
286
     1
 66
     0
277
    -2
287
     1
 67
     0
278
    -2
288
     1
 68
     0
279
    -2
289
     1
 69
     0
  0
VISUALSTYLE
  5
9F
102
{ACAD_XDICTIONARY
360
B57
102
}
102
{ACAD_REACTORS
330
99
102
}
330
99
100
AcDbVisualStyle
  2

 70
     4
 71
     0
 72
     2
 73
     1
 90
        0
 40
-0.6
 41
-30.0
 62
     5
 63
     7
 74
     1
 91
        4
 64
     7
 65
   257
 75
     1
175
     1
 42
1.0
 92
        0
 66
   257
 43
1.0
 76
     1
 77
     6
 78
     2
 67
     7
 79
     5
170
     0
171
     0
290
     0
174
     0
 93
        1
 44
0.0
173
     0
291
     0
 45
0.0
1001
ACAD
1000
AcDbSavedByObjectVersion
1070
     0
  0
VISUALSTYLE
  5
9E
102
{ACAD_XDICTIONARY
360
B55
102
}
102
{ACAD_REACTORS
330
99
102
}
330
99
100
AcDbVisualStyle
  2

 70
     7
 71
     1
 72
     0
 73
     1
 90
        0
 40
-0.6
 41
-30.0
 62
     5
 63
     7
 74
     0
 91
        4
 64
     7
 65
   257
 75
     1
175
     1
 42
1.0
 92
        8
 66
     7
 43
1.0
 76
     1
 77
     6
 78
     2
 67
     7
 79
     5
170
     0
171
     0
290
     0
174
     0
 93
        1
 44
0.0
173
     0
291
     1
 45
0.0
1001
ACAD
1000
AcDbSavedByObjectVersion
1070
     0
  0
VISUALSTYLE
  5
A5
102
{ACAD_XDICTIONARY
360
B63
102
}
102
{ACAD_REACTORS
330
99
102
}
330
99
100
AcDbVisualStyle
  2

 70
    12
 71
     2
 72
     2
 73
     1
 90
        0
 40
-0.6
 41
-30.0
 62
     5
 63
     7
 74
     1
 91
        4
 64
     7
 65
   257
 75
     1
175
     1
 42
1.0
 92
        8
 66
     7
 43
1.0
 76
     1
 77
     6
 78
     2
 67
     7
 79
     5
170
     0
171
     0
290
     0
174
     0
 93
        1
 44
50.0
173
     0
291
     1
 45
0.0
1001
ACAD
1000
AcDbSavedByObjectVersion
1070
     0
  0
VISUALSTYLE
  5
A9
102
{ACAD_XDICTIONARY
360
B6B
102
}
102
{ACAD_REACTORS
330
99
102
}
330
99
100
AcDbVisualStyle
  2

 70
    16
 71
     2
 72
     2
 73
     3
 90
        0
 40
-0.6
 41
-30.0
 62
     5
 63
     8
 74
     1
 91
        4
 64
     7
 65
   257
 75
     1
175
     1
 42
1.0
 92
        8
 66
     8
 43
1.0
 76
     1
 77
     6
 78
     2
 67
     7
 79
     5
170
     0
171
     0
290
     0
174
     0
 93
        1
 44
0.0
173
     0
291
     1
 45
0.0
1001
ACAD
1000
AcDbSavedByObjectVersion
1070
     0
  0
VISUALSTYLE
  5
A2
102
{ACAD_XDICTIONARY
360
B5D
102
}
102
{ACAD_REACTORS
330
99
102
}
330
99
100
AcDbVisualStyle
  2

 70
     9
 71
     3
 72
     2
 73
     1
 90
        0
 40
-0.6
 41
-30.0
 62
     5
 63
     7
 74
     2
 91
        2
 64
     7
 65
   257
 75
     1
175
     1
 42
40.0
 92
        8
 66
     7
 43
1.0
 76
     1
 77
     6
 78
     2
 67
     7
 79
     3
170
     0
171
     0
290
     0
174
     0
 93
        1
 44
0.0
173
     0
291
     0
 45
0.0
1001
ACAD
1000
AcDbSavedByObjectVersion
1070
     0
  0
VISUALSTYLE
  5
A4
102
{ACAD_XDICTIONARY
360
B61
102
}
102
{ACAD_REACTORS
330
99
102
}
330
99
100
AcDbVisualStyle
  2

 70
    11
 71
     2
 72
     2
 73
     1
 90
        0
 40
-0.6
 41
-30.0
 62
     5
 63
     7
 74
     1
 91
        4
 64
     7
 65
   257
 75
     1
175
     1
 42
1.0
 92
        8
 66
     7
 43
1.0
 76
     1
 77
     6
 78
     2
 67
     7
 79
     5
170
     0
171
     0
290
     0
174
     0
 93
        1
 44
-50.0
173
     0
291
     1
 45
0.0
1001
ACAD
1000
AcDbSavedByObjectVersion
1070
     0
  0
VISUALSTYLE
  5
175
102
{ACAD_XDICTIONARY
360
B71
102
}
102
{ACAD_REACTORS
330
99
102
}
330
99
100
AcDbVisualStyle
  2

 70
    22
 71
     2
 72
     2
 73
     0
 90
        0
 40
-0.6
 41
-30.0
 62
     5
 63
     7
 74
     1
 91
        4
 64
     7
 65
   257
 75
     1
175
     1
 42
1.0
 92
        8
 66
     7
 43
1.0
 76
     1
 77
     6
 78
     2
 67
     7
 79
     5
170
     0
171
     0
290
     0
174
     0
 93
        1
 44
0.0
173
     0
291
     1
 45
0.0
1001
ACAD
1000
AcDbSavedByObjectVersion
1070
     0
  0
VISUALSTYLE
  5
A8
102
{ACAD_XDICTIONARY
360
B69
102
}
102
{ACAD_REACTORS
330
99
102
}
330
99
100
AcDbVisualStyle
  2

 70
    15
 71
     2
 72
     2
 73
     1
 90
        0
 40
-0.6
 41
-30.0
 62
     5
 63
     7
 74
     1
 91
        4
 64
     7
 65
   257
 75
     1
175
     1
 42
1.0
 92
        8
 66
     7
 43
1.0
 76
     1
 77
     6
 78
     2
 67
     7
 79
     5
170
     0
171
     0
290
     0
174
     0
 93
        1
 44
0.0
173
     0
291
     1
 45
0.0
1001
ACAD
1000
AcDbSavedByObjectVersion
1070
     0
  0
VISUALSTYLE
  5
9A
102
{ACAD_XDICTIONARY
360
B4D
102
}
102
{ACAD_REACTORS
330
99
102
}
330
99
100
AcDbVisualStyle
  2

 70
     0
 71
     2
 72
     1
 73
     1
 90
        2
 40
-0.6
 41
30.0
 62
     5
 63
     7
 74
     0
 91
        0
 64
     7
 65
   257
 75
     1
175
     1
 42
1.0
 92
        8
 66
     7
 43
1.0
 76
     1
 77
     6
 78
     2
 67
     7
 79
     5
170
     0
171
     0
290
     0
174
     0
 93
       13
 44
0.0
173
     0
291
     1
 45
0.0
1001
ACAD
1000
AcDbSavedByObjectVersion
1070
     0
  0
VISUALSTYLE
  5
9B
102
{ACAD_XDICTIONARY
360
B4F
102
}
102
{ACAD_REACTORS
330
99
102
}
330
99
100
AcDbVisualStyle
  2

 70
     1
 71
     2
 72
     1
 73
     1
 90
        2
 40
-0.6
 41
30.0
 62
     5
 63
     7
 74
     1
 91
        0
 64
     7
 65
   257
 75
     1
175
     1
 42
1.0
 92
        0
 66
   257
 43
1.0
 76
     1
 77
     6
 78
     2
 67
     7
 79
     5
170
     0
171
     0
290
     0
174
     0
 93
       13
 44
0.0
173
     0
291
     1
 45
0.0
1001
ACAD
1000
AcDbSavedByObjectVersion
1070
     0
  0
VISUALSTYLE
  5
9C
102
{ACAD_XDICTIONARY
360
B51
102
}
102
{ACAD_REACTORS
330
99
102
}
330
99
100
AcDbVisualStyle
  2

 70
     2
 71
     2
 72
     2
 73
     1
 90
        2
 40
-0.6
 41
30.0
 62
     5
 63
     7
 74
     0
 91
        0
 64
     7
 65
   257
 75
     1
175
     1
 42
1.0
 92
        0
 66
     7
 43
1.0
 76
     1
 77
     6
 78
     2
 67
     7
 79
     5
170
     0
171
     0
290
     0
174
     0
 93
       13
 44
0.0
173
     0
291
     1
 45
0.0
1001
ACAD
1000
AcDbSavedByObjectVersion
1070
     0
  0
VISUALSTYLE
  5
9D
102
{ACAD_XDICTIONARY
360
B53
102
}
102
{ACAD_REACTORS
330
99
102
}
330
99
100
AcDbVisualStyle
  2

 70
     3
 71
     2
 72
     2
 73
     1
 90
        2
 40
-0.6
 41
30.0
 62
     5
 63
     7
 74
     1
 91
        0
 64
     7
 65
   257
 75
     1
175
     1
 42
1.0
 92
        0
 66
   257
 43
1.0
 76
     1
 77
     6
 78
     2
 67
     7
 79
     5
170
     0
171
     0
290
     0
174
     0
 93
       13
 44
0.0
173
     0
291
     1
 45
0.0
1001
ACAD
1000
AcDbSavedByObjectVersion
1070
     0
  0
VISUALSTYLE
  5
A1
102
{ACAD_XDICTIONARY
360
B5B
102
}
102
{ACAD_REACTORS
330
99
102
}
330
99
100
AcDbVisualStyle
  2

 70
     6
 71
     1
 72
     2
 73
     2
 90
        0
 40
-0.6
 41
-30.0
 62
     5
 63
     7
 74
     2
 91
        2
 64
     7
 65
   257
 75
     2
175
     1
 42
40.0
 92
        0
 66
   257
 43
1.0
 76
     1
 77
     6
 78
     2
 67
     7
 79
     3
170
     0
171
     0
290
     0
174
     0
 93
        1
 44
0.0
173
     0
291
     0
 45
0.0
1001
ACAD
1000
AcDbSavedByObjectVersion
1070
     0
  0
VISUALSTYLE
  5
173
102
{ACAD_XDICTIONARY
360
B6D
102
}
102
{ACAD_REACTORS
330
99
102
}
330
99
100
AcDbVisualStyle
  2

 70
    20
 71
     2
 72
     2
 73
     0
 90
        0
 40
-0.6
 41
-30.0
 62
     5
 63
     7
 74
     1
 91
        4
 64
     7
 65
   257
 75
     1
175
     1
 42
1.0
 92
       10
 66
     7
 43
1.0
 76
     1
 77
     6
 78
     2
 67
     7
 79
     5
170
     0
171
     0
290
     0
174
     0
 93
        1
 44
0.0
173
     0
291
     1
 45
0.0
1001
ACAD
1000
AcDbSavedByObjectVersion
1070
     0
  0
VISUALSTYLE
  5
A7
102
{ACAD_XDICTIONARY
360
B67
102
}
102
{ACAD_REACTORS
330
99
102
}
330
99
100
AcDbVisualStyle
  2

 70
    14
 71
     2
 72
     2
 73
     1
 90
        0
 40
-0.6
 41
-30.0
 62
     5
 63
     7
 74
     1
 91
        4
 64
     7
 65
   257
 75
     7
175
     7
 42
1.0
 92
        8
 66
     7
 43
1.0
 76
     1
 77
     6
 78
     2
 67
     7
 79
     5
170
     0
171
     0
290
     0
174
     0
 93
        1
 44
0.0
173
     0
291
     1
 45
0.0
1001
ACAD
1000
AcDbSavedByObjectVersion
1070
     0
  0
VISUALSTYLE
  5
174
102
{ACAD_XDICTIONARY
360
B6F
102
}
102
{ACAD_REACTORS
330
99
102
}
330
99
100
AcDbVisualStyle
  2

 70
    21
 71
     2
 72
     2
 73
     0
 90
        0
 40
-0.6
 41
-30.0
 62
     5
 63
     7
 74
     1
 91
        4
 64
     7
 65
   257
 75
     1
175
     1
 42
1.0
 92
        9
 66
     7
 43
1.0
 76
     1
 77
     6
 78
     2
 67
     7
 79
     5
170
     0
171
     0
290
     0
174
     0
 93
        1
 44
0.0
173
     0
291
     1
 45
0.0
1001
ACAD
1000
AcDbSavedByObjectVersion
1070
     0
  0
VISUALSTYLE
  5
A3
102
{ACAD_XDICTIONARY
360
B5F
102
}
102
{ACAD_REACTORS
330
99
102
}
330
99
100
AcDbVisualStyle
  2

 70
     8
 71
     2
 72
     3
 73
     0
 90
        2
 40
-0.6
 41
30.0
 62
     5
 63
     7
 74
     0
 91
        0
 64
     7
 65
   257
 75
     1
175
     1
 42
1.0
 92
        8
 66
   257
 43
1.0
 76
     1
 77
     6
 78
     2
 67
     7
 79
     3
170
     0
171
     0
290
     0
174
     0
 93
       13
 44
0.0
173
     0
291
     0
 45
0.0
1001
ACAD
1000
AcDbSavedByObjectVersion
1070
     0
  0
VISUALSTYLE
  5
182
102
{ACAD_XDICTIONARY
360
B7B
102
}
102
{ACAD_REACTORS
330
99
102
}
330
99
100
AcDbVisualStyle
  2

 70
    27
 71
     2
 72
     2
 73
     1
 90
        2
 40
-0.6
 41
30.0
 62
     5
 63
     7
 74
     0
 91
        4
 64
     7
 65
   257
 75
     1
175
     1
 42
1.0
 92
        8
 66
   257
 43
1.0
 76
     1
 77
     6
 78
     2
 67
     8
 79
     3
170
     0
171
     0
290
     0
174
     0
 93
        5
 44
0.0
173
     0
291
     0
 45
0.0
1001
ACAD
1000
AcDbSavedByObjectVersion
1070
     0
  0
VISUALSTYLE
  5
181
102
{ACAD_XDICTIONARY
360
B79
102
}
102
{ACAD_REACTORS
330
99
102
}
330
99
100
AcDbVisualStyle
  2

 70
    26
 71
     2
 72
     2
 73
     1
 90
        2
 40
-0.6
 41
30.0
 62
     5
 63
     7
 74
     1
 91
        2
 64
     7
 65
   257
 75
     2
175
     1
 42
1.0
 92
        8
 66
   257
 43
1.0
 76
     1
 77
     6
 78
     2
 67
     7
 79
     3
170
     0
171
     0
290
     0
174
     0
 93
        5
 44
0.0
173
     0
291
     0
 45
0.0
1001
ACAD
1000
AcDbSavedByObjectVersion
1070
     0
  0
VISUALSTYLE
  5
17E
102
{ACAD_XDICTIONARY
360
B73
102
}
102
{ACAD_REACTORS
330
99
102
}
330
99
100
AcDbVisualStyle
  2

 70
    23
 71
     2
 72
     2
 73
     3
 90
        0
 40
-0.6
 41
-30.0
 62
     5
 63
     7
 74
     2
 91
        2
 64
     7
 65
     7
 75
     1
175
     1
 42
40.0
 92
        8
 66
     7
 43
1.0
 76
     1
 77
     6
 78
     2
 67
     7
 79
     3
170
     0
171
     0
290
     0
174
     0
 93
        1
 44
0.0
173
     0
291
     0
 45
0.0
1001
ACAD
1000
AcDbSavedByObjectVersion
1070
     0
  0
VISUALSTYLE
  5
17F
102
{ACAD_XDICTIONARY
360
B75
102
}
102
{ACAD_REACTORS
330
99
102
}
330
99
100
AcDbVisualStyle
  2

 70
    24
 71
     1
 72
     2
 73
     2
 90
        0
 40
-0.6
 41
-30.0
 62
     5
 63
     7
 74
     2
 91
        2
 64
     7
 65
     7
 75
     1
175
     1
 42
40.0
 92
       11
 66
     7
 43
1.0
 76
     1
 77
     6
 78
     2
 67
     7
 79
     6
170
     0
171
     0
290
     0
174
     0
 93
        1
 44
0.0
173
     0
291
     0
 45
0.0
1001
ACAD
1000
AcDbSavedByObjectVersion
1070
     0
  0
VISUALSTYLE
  5
A6
102
{ACAD_XDICTIONARY
360
B65
102
}
102
{ACAD_REACTORS
330
99
102
}
330
99
100
AcDbVisualStyle
  2

 70
    13
 71
     2
 72
     2
 73
     1
 90
        0
 40
-0.6
 41
-30.0
 62
     5
 63
     7
 74
     1
 91
        4
 64
     7
 65
   257
 75
     1
175
     1
 42
1.0
 92
       12
 66
     7
 43
1.0
 76
     1
 77
     6
 78
     2
 67
     7
 79
     5
170
     0
171
     0
290
     0
174
     0
 93
        1
 44
0.0
173
     0
291
     1
 45
0.0
1001
ACAD
1000
AcDbSavedByObjectVersion
1070
     0
  0
VISUALSTYLE
  5
A0
102
{ACAD_XDICTIONARY
360
B59
102
}
102
{ACAD_REACTORS
330
99
102
}
330
99
100
AcDbVisualStyle
  2

 70
     5
 71
     0
 72
     2
 73
     0
 90
        0
 40
-0.6
 41
-30.0
 62
     5
 63
     7
 74
     1
 91
        4
 64
     7
 65
   257
 75
     1
175
     1
 42
1.0
 92
        0
 66
   257
 43
1.0
 76
     1
 77
     6
 78
     2
 67
     7
 79
     3
170
     0
171
     0
290
     0
174
     0
 93
        1
 44
0.0
173
     0
291
     0
 45
0.0
1001
ACAD
1000
AcDbSavedByObjectVersion
1070
     0
  0
VISUALSTYLE
  5
180
102
{ACAD_XDICTIONARY
360
B77
102
}
102
{ACAD_REACTORS
330
99
102
}
330
99
100
AcDbVisualStyle
  2

 70
    25
 71
     2
 72
     2
 73
     1
 90
        1
 40
0.5
 41
-30.0
 62
     5
 63
     7
 74
     1
 91
        0
 64
     7
 65
   257
 75
     1
175
     1
 42
1.0
 92
        8
 66
     7
 43
1.0
 76
     1
 77
     6
 78
     2
 67
     7
 79
     3
170
     0
171
     0
290
     0
174
     0
 93
       13
 44
0.0
173
     0
291
     0
 45
0.0
1001
ACAD
1000
AcDbSavedByObjectVersion
1070
     0
  0
DICTIONARYVAR
  5
F0
102
{ACAD_REACTORS
330
66
102
}
330
66
100
DictionaryVariables
280
     0
  1
1:1
  0
DICTIONARYVAR
  5
EF
102
{ACAD_REACTORS
330
66
102
}
330
66
100
DictionaryVariables
280
     0
  1
STANDARD
  0
DICTIONARYVAR
  5
89
102
{ACAD_REACTORS
330
66
102
}
330
66
100
DictionaryVariables
280
     0
  1
STANDARD
  0
DICTIONARYVAR
  5
1B7
102
{ACAD_REACTORS
330
66
102
}
330
66
100
DictionaryVariables
280
     0
  1
Imperial24
  0
DICTIONARYVAR
  5
1B8
102
{ACAD_REACTORS
330
66
102
}
330
66
100
DictionaryVariables
280
     0
  1
Imperial24
  0
DICTIONARYVAR
  5
67
102
{ACAD_REACTORS
330
66
102
}
330
66
100
DictionaryVariables
280
     0
  1
2
  0
DICTIONARYVAR
  5
6B
102
{ACAD_REACTORS
330
66
102
}
330
66
100
DictionaryVariables
280
     0
  1
1
  0
DICTIONARYVAR
  5
7C8
102
{ACAD_REACTORS
330
66
102
}
330
66
100
DictionaryVariables
280
     0
  1
0
  0
DICTIONARYVAR
  5
14D
102
{ACAD_REACTORS
330
66
102
}
330
66
100
DictionaryVariables
280
     0
  1
0
  0
DICTIONARYVAR
  5
14E
102
{ACAD_REACTORS
330
66
102
}
330
66
100
DictionaryVariables
280
     0
  1
0
  0
DICTIONARYVAR
  5
7C6
102
{ACAD_REACTORS
330
66
102
}
330
66
100
DictionaryVariables
280
     0
  1
2
  0
DICTIONARYVAR
  5
7C5
102
{ACAD_REACTORS
330
66
102
}
330
66
100
DictionaryVariables
280
     0
  1
1
  0
DICTIONARYVAR
  5
7C7
102
{ACAD_REACTORS
330
66
102
}
330
66
100
DictionaryVariables
280
     0
  1
127
  0
DICTIONARYVAR
  5
AFA
102
{ACAD_REACTORS
330
66
102
}
330
66
100
DictionaryVariables
280
     0
  1
2
  0
DICTIONARY
  5
844
102
{ACAD_REACTORS
330
83D
102
}
330
83D
100
AcDbDictionary
281
     1
  0
DICTIONARY
  5
B7F
330
1AC
100
AcDbDictionary
280
     1
281
     1
  3
ACAD_XREC_ROUNDTRIP
360
B80
  0
DICTIONARY
  5
B48
330
59
100
AcDbDictionary
280
     1
281
     1
  3
ACAD_XREC_ROUNDTRIP
360
B49
  0
DICTIONARY
  5
B4A
330
5E
100
AcDbDictionary
280
     1
281
     1
  3
ACAD_XREC_ROUNDTRIP
360
B4B
  0
DICTIONARY
  5
B46
330
22
100
AcDbDictionary
280
     1
281
     1
  3
ACAD_XREC_ROUNDTRIP
360
B47
  0
DICTIONARY
  5
188
330
97
100
AcDbDictionary
280
     1
281
     1
  3
ACAD_XREC_ROUNDTRIP
360
7DC
  3
FBXASSET
360
189
  0
DICTIONARY
  5
186
330
96
100
AcDbDictionary
280
     1
281
     1
  3
ACAD_XREC_ROUNDTRIP
360
7DB
  3
FBXASSET
360
187
  0
DICTIONARY
  5
110
330
98
100
AcDbDictionary
280
     1
281
     1
  3
ACAD_XREC_ROUNDTRIP
360
7DD
  3
BUMPTILE
360
112
  3
DIFFUSETILE
360
111
  3
FBXASSET
360
18A
  3
OPACITYTILE
360
113
  3
REFLECTIONTILE
360
114
  0
DICTIONARY
  5
B7D
330
1AA
100
AcDbDictionary
280
     1
281
     1
  3
ACAD_XREC_ROUNDTRIP
360
B7E
  0
DICTIONARY
  5
104
330
87
100
AcDbDictionary
280
     1
281
     1
  3
ACAD_ROUNDTRIP_2008_TABLESTYLE_CELLSTYLEMAP
360
B3E
  3
ACAD_XREC_ROUNDTRIP
360
B4C
  0
DICTIONARY
  5
B57
330
9F
100
AcDbDictionary
280
     1
281
     1
  3
ACAD_XREC_ROUNDTRIP
360
B58
  0
DICTIONARY
  5
B55
330
9E
100
AcDbDictionary
280
     1
281
     1
  3
ACAD_XREC_ROUNDTRIP
360
B56
  0
DICTIONARY
  5
B63
330
A5
100
AcDbDictionary
280
     1
281
     1
  3
ACAD_XREC_ROUNDTRIP
360
B64
  0
DICTIONARY
  5
B6B
330
A9
100
AcDbDictionary
280
     1
281
     1
  3
ACAD_XREC_ROUNDTRIP
360
B6C
  0
DICTIONARY
  5
B5D
330
A2
100
AcDbDictionary
280
     1
281
     1
  3
ACAD_XREC_ROUNDTRIP
360
B5E
  0
DICTIONARY
  5
B61
330
A4
100
AcDbDictionary
280
     1
281
     1
  3
ACAD_XREC_ROUNDTRIP
360
B62
  0
DICTIONARY
  5
B71
330
175
100
AcDbDictionary
280
     1
281
     1
  3
ACAD_XREC_ROUNDTRIP
360
B72
  0
DICTIONARY
  5
B69
330
A8
100
AcDbDictionary
280
     1
281
     1
  3
ACAD_XREC_ROUNDTRIP
360
B6A
  0
DICTIONARY
  5
B4D
330
9A
100
AcDbDictionary
280
     1
281
     1
  3
ACAD_XREC_ROUNDTRIP
360
B4E
  0
DICTIONARY
  5
B4F
330
9B
100
AcDbDictionary
280
     1
281
     1
  3
ACAD_XREC_ROUNDTRIP
360
B50
  0
DICTIONARY
  5
B51
330
9C
100
AcDbDictionary
280
     1
281
     1
  3
ACAD_XREC_ROUNDTRIP
360
B52
  0
DICTIONARY
  5
B53
330
9D
100
AcDbDictionary
280
     1
281
     1
  3
ACAD_XREC_ROUNDTRIP
360
B54
  0
DICTIONARY
  5
B5B
330
A1
100
AcDbDictionary
280
     1
281
     1
  3
ACAD_XREC_ROUNDTRIP
360
B5C
  0
DICTIONARY
  5
B6D
330
173
100
AcDbDictionary
280
     1
281
     1
  3
ACAD_XREC_ROUNDTRIP
360
B6E
  0
DICTIONARY
  5
B67
330
A7
100
AcDbDictionary
280
     1
281
     1
  3
ACAD_XREC_ROUNDTRIP
360
B68
  0
DICTIONARY
  5
B6F
330
174
100
AcDbDictionary
280
     1
281
     1
  3
ACAD_XREC_ROUNDTRIP
360
B70
  0
DICTIONARY
  5
B5F
330
A3
100
AcDbDictionary
280
     1
281
     1
  3
ACAD_XREC_ROUNDTRIP
360
B60
  0
DICTIONARY
  5
B7B
330
182
100
AcDbDictionary
280
     1
281
     1
  3
ACAD_XREC_ROUNDTRIP
360
B7C
  0
DICTIONARY
  5
B79
330
181
100
AcDbDictionary
280
     1
281
     1
  3
ACAD_XREC_ROUNDTRIP
360
B7A
  0
DICTIONARY
  5
B73
330
17E
100
AcDbDictionary
280
     1
281
     1
  3
ACAD_XREC_ROUNDTRIP
360
B74
  0
DICTIONARY
  5
B75
330
17F
100
AcDbDictionary
280
     1
281
     1
  3
ACAD_XREC_ROUNDTRIP
360
B76
  0
DICTIONARY
  5
B65
330
A6
100
AcDbDictionary
280
     1
281
     1
  3
ACAD_XREC_ROUNDTRIP
360
B66
  0
DICTIONARY
  5
B59
330
A0
100
AcDbDictionary
280
     1
281
     1
  3
ACAD_XREC_ROUNDTRIP
360
B5A
  0
DICTIONARY
  5
B77
330
180
100
AcDbDictionary
280
     1
281
     1
  3
ACAD_XREC_ROUNDTRIP
360
B78
  0
XRECORD
  5
B80
102
{ACAD_REACTORS
330
B7F
102
}
330
B7F
100
AcDbXrecord
280
     1
102
DISPLAYNAME
  1
Imperial24
102
FLAGS
 90
        0
  0
XRECORD
  5
B49
102
{ACAD_REACTORS
330
B48
102
}
330
B48
100
AcDbXrecord
280
     1
102
SHADEPLOT
 70
     0
102
SHADEPLOTRESLEVEL
 70
     2
102
SHADEPLOTCUSTOMDPI
 70
   300
  0
XRECORD
  5
B4B
102
{ACAD_REACTORS
330
B4A
102
}
330
B4A
100
AcDbXrecord
280
     1
102
SHADEPLOT
 70
     0
102
SHADEPLOTRESLEVEL
 70
     2
102
SHADEPLOTCUSTOMDPI
 70
   300
  0
XRECORD
  5
B47
102
{ACAD_REACTORS
330
B46
102
}
330
B46
100
AcDbXrecord
280
     1
102
SHADEPLOT
 70
     0
102
SHADEPLOTRESLEVEL
 70
     2
102
SHADEPLOTCUSTOMDPI
 70
   300
  0
XRECORD
  5
7DC
102
{ACAD_REACTORS
330
188
102
}
330
188
100
AcDbXrecord
280
     1
102
MATERIAL
148
0.0
149
0.0
149
0.0
 93
        0
 94
      127
282
     0
 72
     1
 77
     1
171
     1
175
     1
179
     1
273
     0
  0
XRECORD
  5
189
102
{ACAD_REACTORS
330
188
102
}
330
188
100
AcDbXrecord
280
     1
 70
     1
 90
429727718
  1
508B35C9-AEE7-456F-BE74-D52651303AC6
310
504B03040A0000080000B670623B3DEE336E79000000790000001B0000006175746F6465736B2D64657369676E2D7061636B6167652E786D6C3C3F786D6C2076657273696F6E3D22312E302220656E636F64696E673D227574662D3822203F3E3C666F726D6174733E3C666F726D61743E687474703A2F2F736368656D612E
310
6175746F6465736B2E636F6D2F64657369676E2D7061636B6167652F323030393C2F666F726D61743E3C2F666F726D6174733E504B0304140006080800B670623BD486FD9CA0000000F4000000130000005B436F6E74656E745F54797065735D2E786D6C7D8EC10E82300C865F65E91D8A1E8C310C0EEA1BF002731658846E
310
D98AC1B77784ABF1D8FE5FBFBF75BBCE937A534CCEB38643598122B6FEE978D0B0485F9C41B54DDD7D022595594E1A469170414C76A4D9A4D207E29CF43ECE46F218070CC6BECC4078ACAA135ACF422C856C0E68EA1BF5669944DDD7BCDE7B1F8E415D77AECB980613C2E4AC91FC167A2B244592486606FC29C8FD7F045B9A
310
EF7053A7E60B504B0304140006080800B670623B28ED286BEB0000007C01000008000000636F72652E786D6C8D90416EC3201045AF82665B6183218D6D61A254764FD00B204C5C94182C03558F5F9C3852BBEB6A467FFE9B197D71FA9E6FE8CBACC17AD7012D0820E3B41FAD9B3A48F1826B40272956EFE32F1B20A766D3C1
310
268314D3EAD3B24BDABB685CCCAAF3A3D94515828980F42D371D04FD696655A814B3235C8B45E9AB9A4C419F5D8653B2237A1CB163DE672FD6AC209BF3C08E0D1B30EB19C3FC9D72FCC6EB231EFA33EDE96BDD341517E5064B11EDFCBCAF57A3A2194156843498524CAA0FCA5B7268F9E185D42D21A2DCEC7FA0B48CFF8492
310
759155FBBB0F2C80A4F991FB408A72CB22977B50B96EB9C91F504B0304140006080800B670623B55019EA25F0000007C00000007000000636E782E786D6C4DCB3B0E80201045D1AD90E915ED2CF8AC45050C11660C8261F98AB1B07AC9C97D42D718D865D3E909258CFD00CCE24AC6E326A164D74DC0B4128928FF32603847
310
2BA13128B1252AC747C6BAB984FC68F0B87FE8960A5C09FE86CFB69FBA01504B0304140006080800B670623B7BC41AC871010000D40300000C0000006662782F636F72652E786D6CC553ED6E8320147D15C2DF4501B56B6D90A64BBB27D80B50A5CE54C120983EFEAE1F4DD7A56BBA5FF3879273EEE59E7310BE393735EA95
310
ED2AA333CC428A91D2B9292A5D66D8BB63B0C26823B835C67D2BC348CB46657880B1E0A535BE9DA1DC68A7B403549B42CDA0EC3AE530CA6B5864B8CB3F552343E91D5474A7B095F949962A6421D0502778E72C0840D390E18DC5F170E664C205F7BE2A66B62A605A75AC94C522DDEEE3651AEF837817C741F2CE92E02D592D
310
83FD6ECB76EC7595A651C2C9D02CB8AB9A8BBADC2AE954814544691A3016D0E883256BBA58278B17BA5A53CAC9507ED3E4DBE2C9265F691747B3DCA9ADC382819091F8E1162272A8933DE82182932144F88C09DF060D8140C84E1EEA8B8F1340BDCA9DB1093085F157AA97B557309586747CD0EF0B4EA64E983A6E0EAEEFCE
310
889E9EF17847386AA94B30211D2C0FDE0D3AF9A4610EAD5536E8DD1969631B593F67E381C33F5157F17725E5A636F6BF1491F980C8FC7B90E13E8A2F504B0304140006080800B670623B70102A487D0000009D0000000B0000006662782F636E782E786D6C4DCCD10A83201886E15B91FFDC95A5C30335ACCDFB886521330D
310
A76397BF1A1DECE883878F57749FD5A3B74D2F17830472A901D9F088930B8B849267CC01754AA418F3DF0D5018572BE160506249B16C274D761E8BCFBB7A179E27F65CB39A0F14D396184C9921B81F34C3ACA1B4B99ABB6E6F062A25AA5F69DF23ACBE504B0304140006080800B670623B3610CA3329010000120200003100
310
00006662782F42384135303843342D343331462D343546312D424341352D3532343432364645413344462F636F72652E786D6C8D515B6EC32010BC0AE22B55850D0E446E848992B43E412FE000495162B07854397EA176A4F62F3F2C9A9D991D58BEBB8F37F0AD7D30CE76905418026DA553C65E3A98E219B510EC04F7CEC5
310
3F3408EC30EA0E16180A7EF12E4D0B249D8DDAC68C5AA7F4020E21E80881BCE54B0783FCD2E3500D296646B856D320AFC34557A4CAEDCC133C449F0380794839A138B47B86DB2345744D7A44594FD0E1B867883594369BFE63BF7EEF793D0B054FC9A8456E548E63CE46FB674D8A58F068C6477CE9F510B582A2C1F80D1182
310
70F349E816B32D65AFB8DD62CCEB42FF274A937A52948C8DEB66893BCB021484D7734370E5D2E9F608A3EF93F3119479ABA0E50B14B8C298119A43CCC4FCFCECB8A18B6388CEE7EF5D5D4F994BD86CBBA182D76543B9FCAE2FD7B24DF103504B0304140006080800B670623B1B8617914E0100003303000030000000666278
310
2F42384135303843342D343331462D343546312D424341352D3532343432364645413344462F636E782E786D6CD593C16EC32010447F0571AD6CE3D489D20813A9877E410FBD62D82434182CC055F3F75D1292E692438FBD206B7698593D61BEFD1E2DF982108D773D6D6B460938E5B571FB9ECE6957AD29D90A1EBC4F7736
310
4A9C1CA1A759A682EF839FA72269D8C9D92654AD71C72206887E0E0A22CAF926B15E498B01E0AA19451807D01A34B919F16B070157417138917400F2F6FA41FCF0092A45DEE414C19BDC21783E4BD39D891265658C3D8DEA00A3ACE59CBC8678ACB54CB26EEB6BD7839D7E9348BE70AD9C8321B9BCA7F9A4A26C542347DEE0
310
50F09802D22BA6749A800A394DD62899107273365E3C82CFC6A55557BC06C10774B7ABE7AEC3B0F34CF06446280E154026D0542C187BA9DAB6628BF7B6DBB0E5A65B3EB1F58631DE64BBE083F7B65CC218087E22CABB042E51D1F2268F1FE12B3EA24D40D63E9CFE00120194D60B9D5BC67FE6D39CDF37E20AF817881F504B
310
0304140006080800B670623BBFEF2E3B690500003C100000340000006662782F42384135303843342D343331462D343546312D424341352D3532343432364645413344462F6F626A656374732E786D6CAD575D739B3814FD2B0CFB0C98D84E931D4227B6938EA793B6534F3BFB90198F0099B001899144EAECAFDF231018B0
310
D37A3FFC609090EEE7B94757C1FB7D915B2F54C88CB31BDB7727B64559CC938CA53776A576CE956DBD0F03C1B9EA2DB32D460A7A63EB693B0C52C1ABD24C257447AA5C8D66EF177F5832A68CDA569C13296F6C193FD182B8A4523CA1F2D94D88226EBADBBBBEDB2C1C8A4D05299F46424B222853B014F30C52ACC6287F389C
310
D85E1878FA7B18E87FB36AFAF62AAFF667A83F635211161F291B8999FAB3D5DDC5FCDA99CF6653677679E13B8BFBC5CAF1DF4D27CBCBE5F2FAF6EE1A8AA51290642C117467871F101B91C581D77CEA2C36869F3229E68CD1B8F61F1ED6361B89092D294B90C78C4A68EB793D190E7D1D9BDEE7A91E1B95FDE9F3BCEAEFE809
310
6A6D6F9F7D4B79F4275C90E7A04248AA51D5C4C738DAE06F72885AC4796EBE65D22A88A22223B995679120E2D50EB1542F098381188D4EA111AE3DB043FF20AF6F2B4AE3D7D83D65E5AECA730D4D3BAC91BD05FEA992B565D95F549CD6069B90AB2A63EACA38A45E4B6A87D781574F86817E4C2FCCC72690D62E2729520E37
310
9BAF234797BAF6D62B3BFC781FED37BA1E4F2B2F052FA9501A3E80569BB8F6A9A364D4FA67654E6F803383981F82F21591FF84F23D9882BC896C3FDBCF8C162508933B2E0AE4C69DD43F6BD2BE38DDDBF10BF86CB4FA784D37F3AF16075E67EC9030DECA1FC0A55373F5DFF3378C591FA9BDF485C10B0A8C8BA909E5262639
310
A8E72163488806A595734C81CB77D1DE0ED7604A303B76913CEC0272F412782FF88EFF4636D8AA56DF7B322474C4B767303F625997056C7B032C473C592B36CEBD15F3F9FF5233B7ABCDC74D257624A60F8658567497B14CE1EC3C80B76FD02011038F9EE9EB0F2E12387A9C844D3F09855125116D1D731DF8B43D2CF4E0A0
310
79A020C6BE946BCE0B7EA1E1219331CD73C228AF5A2DDD31A4B1DA918CE91350854D40A71723140BFA92E94E62B0626016CEFA5864A50E5977E8753CEDBEE1CBB7F52780D20E17AF0BA0F5F9B02A3AD07DCC732EB6D1EBB661421BE0C39E21BABF0FE16D22EA6929407C8DE596724C88B749B6DB5512BC7B228ADFD7CB7EA6
310
3A22397E690BA8D5D8D4E40CEC8CDA23C2C0B7D5898640101CEC9C6D331CE328CB93CAFBBAC70A642DF70DF95155945B52F08AA973C23469FD69ADEF84F7BB18F983A8F8C90E37F5D35980B2139A1C523540813E824EF83448CF7C72B598CE97D7CEEDDDDD3B6736BFBC771677EF66CE6A7E7139F7A793E9EDF2B2B3A8B624
310
0CDA13AA5F8388264EC4A0129909F3B7F5A16CEDF08128E97D680ACA4B9BE7B7B58BB638F0B00700EF36AE8B32A705658A68F83EE897FC2B41573190D1CCAF0B92D233A47CFEB019D9809933F67DD1A5467F8CF69AD9A5AE859342D45355448C64F968A371DC2D596ADC6E43D93D1B466F877A64E2893E54F23C4B40388995
310
525E5005DA3983ED45412510D3EFCA13737B3863F74BD30F2A12E5B4B5E489A025CE25500DB855B11ACE5BBFA185D35DD48D8DC3CE7DC69F2944DB42AA6F6CF09BCA622ADD08C7A36E7C6AE18000BAB08E040135C2D21C9D75B3A91B77BB746C403F38018DFE6EC939DD92F16B40BC05294B9CDA035AAD6D330AE27FE4786B
310
8E45145EA34A75BE1C263A676A35A8ACC6297337400BF16C54EF515F3F77CB77EB3583889C754FFA29081AA98E2222ADEF05DA3E63D2EDEA8B8756C05A7FB6CABC4A91CBF325398202CC952E70A008A830324BA200D5E5EF8F5F04C75DB4B0EE3340E071C98B823333B83577596BF3849B69F2085AA0FAFA212F26BEFF5877
310
FDE622B28D88A42E49E43326DA82D31E8CB006401E1DA726059ECEC168F97A6599036306A135688F9AD2E61A6EA178F4CD51974A9F2CCB9F36FE5EBD14601068D9C3BF01504B0304140006080000B670623B000000000000000000000000350000006662782F42384135303843342D343331462D343546312D424341352D35
310
32343432364645413344462F76657274696365732E62696E504B0304140006080800B670623BF270F1330600000004000000360000006662782F42384135303843342D343331462D343546312D424341352D3532343432364645413344462F747269616E676C65732E62696E636660600000504B0304140006080000B67062
310
3B000000000000000000000000370000006662782F42384135303843342D343331462D343546312D424341352D3532343432364645413344462F617474726962757465732E62696E504B0304140006080800B670623B08DA0BD19000000041010000360000006662782F42384135303843342D343331462D343546312D4243
310
41352D3532343432364645413344462F6469726563746F72792E786D6C858F410AC3201045AF22B36F53E9A60B35CBEEBAE80D244E44489C6234F4F835464A48035D0DF398FF9F8AF63D0E6CC63039F212F8F9020C7D47C6792B21C5FE7403D62A1188E2E60C98D7234A5830286103A55745067B9D86B8A3CF9C7F90C11DE6
310
07FB144396D7B6A82D282E9A152AD114D5EF2CB866EEE831B8EEA07A7BB5A8D7D61A2BAAEB7FD5F70921FF497D00504B0304140006080800B670623B3B4606F3FE000000A00100003B0000006662782F42384135303843342D343331462D343546312D424341352D3532343432364645413344462F7265736F75726365732F
310
636F72652E786D6C8D504B6E833010BD0A9A6D65B08134808CA354A427E8052C332156828DFCA97AFC9A40A576D7CDCCE87D344F8F9FBEE647F689CE6B6B7A6039850C8DB2A336530F315C4903D94970676DF82583CCC8197B5861107C72362E3BA4AC096842428D1D7107A5F71820538F74F4E0D50D6799CB1892C2DFF345
310
AABB9C306779A2934E701F5C0A906D4FD609C2A1B7D129F4BCD858C163D4E3AED163FAA9AF1A1D88F67CA98E6D35906AA82A52BFB39ABCD5CD915C86331BD86BD3B665CD8BD52C78D0F34F46E550061C419494B6843142CB0F5677F4D0D58717DA7494F26295FF31C565FCA7296A13AA728FBBD93C0896823C09C18BB5AFB4
310
9E65A6BD762BBE01504B010214000A0000080000B670623B3DEE336E79000000790000001B00000000000000000000000000000000006175746F6465736B2D64657369676E2D7061636B6167652E786D6C504B01021400140006080800B670623BD486FD9CA0000000F40000001300000000000000000000000000B2000000
310
5B436F6E74656E745F54797065735D2E786D6C504B01021400140006080800B670623B28ED286BEB0000007C010000080000000000000000000000000083010000636F72652E786D6C504B01021400140006080800B670623B55019EA25F0000007C000000070000000000000000000000000094020000636E782E786D6C50
310
4B01021400140006080800B670623B7BC41AC871010000D40300000C00000000000000000000000000180300006662782F636F72652E786D6C504B01021400140006080800B670623B70102A487D0000009D0000000B00000000000000000000000000B30400006662782F636E782E786D6C504B01021400140006080800B6
310
70623B3610CA3329010000120200003100000000000000000000000000590500006662782F42384135303843342D343331462D343546312D424341352D3532343432364645413344462F636F72652E786D6C504B01021400140006080800B670623B1B8617914E010000330300003000000000000000000000000000D10600
310
006662782F42384135303843342D343331462D343546312D424341352D3532343432364645413344462F636E782E786D6C504B01021400140006080800B670623BBFEF2E3B690500003C10000034000000000000000000000000006D0800006662782F42384135303843342D343331462D343546312D424341352D35323434
310
32364645413344462F6F626A656374732E786D6C504B01021400140006080000B670623B0000000000000000000000003500000000000000000000000000280E00006662782F42384135303843342D343331462D343546312D424341352D3532343432364645413344462F76657274696365732E62696E504B010214001400
310
06080800B670623BF270F133060000000400000036000000000000000000000000007B0E00006662782F42384135303843342D343331462D343546312D424341352D3532343432364645413344462F747269616E676C65732E62696E504B01021400140006080000B670623B00000000000000000000000037000000000000
310
00000000000000D50E00006662782F42384135303843342D343331462D343546312D424341352D3532343432364645413344462F617474726962757465732E62696E504B01021400140006080800B670623B08DA0BD1900000004101000036000000000000000000000000002A0F00006662782F42384135303843342D3433
310
31462D343546312D424341352D3532343432364645413344462F6469726563746F72792E786D6C504B01021400140006080800B670623B3B4606F3FE000000A00100003B000000000000000000000000000E1000006662782F42384135303843342D343331462D343546312D424341352D3532343432364645413344462F72
310
65736F75726365732F636F72652E786D6C504B0506000000000E000E0080040000651100000000
  0
XRECORD
  5
7DB
102
{ACAD_REACTORS
330
186
102
}
330
186
100
AcDbXrecord
280
     1
102
MATERIAL
148
0.0
149
0.0
149
0.0
 93
        0
 94
      127
282
     0
 72
     1
 77
     1
171
     1
175
     1
179
     1
273
     0
  0
XRECORD
  5
187
102
{ACAD_REACTORS
330
186
102
}
330
186
100
AcDbXrecord
280
     1
 70
     1
 90
429727718
  1
887D55A9-D0DD-414E-B741-A7DCD4DA2B4C
310
504B03040A0000080000B670623B3DEE336E79000000790000001B0000006175746F6465736B2D64657369676E2D7061636B6167652E786D6C3C3F786D6C2076657273696F6E3D22312E302220656E636F64696E673D227574662D3822203F3E3C666F726D6174733E3C666F726D61743E687474703A2F2F736368656D612E
310
6175746F6465736B2E636F6D2F64657369676E2D7061636B6167652F323030393C2F666F726D61743E3C2F666F726D6174733E504B0304140006080800B670623BD486FD9CA0000000F4000000130000005B436F6E74656E745F54797065735D2E786D6C7D8EC10E82300C865F65E91D8A1E8C310C0EEA1BF002731658846E
310
D98AC1B77784ABF1D8FE5FBFBF75BBCE937A534CCEB38643598122B6FEE978D0B0485F9C41B54DDD7D022595594E1A469170414C76A4D9A4D207E29CF43ECE46F218070CC6BECC4078ACAA135ACF422C856C0E68EA1BF5669944DDD7BCDE7B1F8E415D77AECB980613C2E4AC91FC167A2B244592486606FC29C8FD7F045B9A
310
EF7053A7E60B504B0304140006080800B670623BBC1638F5EC0000007C01000008000000636F72652E786D6C8D90416EC3201045AF82665B61836BE2D8C24471DB9CA01740401C94182C03558F5F9C3852BBEB6A467FFE9B197D7EF89E6EE8CB2CC17AD7032D0820E394D7D68D3DA478C67B4007C117EFE32F1B202727D3C3
310
2A83E0E3E2D3BC49CABB685CCCAAF3DA6CA20CC14440EA969B1E82BA98491632C5EC08D76296EA2A4753D06797E194AC468F2356E77DF66CCD02825543D50CACC62D39ED70FDC68EB8FD68F6F8787A6784342D1DDA1D2F5758F068A7E77DB518198D065111D2624A31A93E69DD11D6D5EC85EC3B4278B9DAFF4069D6FF8492
310
75F1B5DADE7D600104CD8FDC0782976B16B9DC83CA75CD4DFC00504B0304140006080800B670623B55019EA25F0000007C00000007000000636E782E786D6C4DCB3B0E80201045D1AD90E915ED2CF8AC45050C11660C8261F98AB1B07AC9C97D42D718D865D3E909258CFD00CCE24AC6E326A164D74DC0B4128928FF326038
310
472BA13128B1252AC747C6BAB984FC68F0B87FE8960A5C09FE86CFB69FBA01504B0304140006080800B670623B3586FFB671010000D40300000C0000006662782F636F72652E786D6CC553ED6E8320147D15C2DF4541A76D6D90A6DDD627D80B50A4CE54C120983EFEAE1F4DD7A55BBA5FF3879273EEE59E7310B6393735EA
310
95ED2AA3731C851423A5A5292A5DE6D8BB63B0C268C39935C67D29C3488B46E578803167A535BE9D2169B453DA01AA4DA16650749D7218C91A1639EEE4876A4428BC838AEE14B6429E44A9C228041AEA38EB9C0501681A32BC313F1ECE8C4C3867DE57C5CC56054CAB8E95B298A7F12E5EEED224C8E87E11242FE936C8DE96
310
AB60BB7F4D295D66D12E5B30323473E6AAE6A24E5A259C2A308F29CD82280A68FC1E256B9AAE93F489AED694323294DF34F9B678B0C957DA3DC7B3DCA9ADC33C022123F1CD2D44E450277AD04338234388F01913BE0D1A0281909D38D4171F27807A259DB1093085F157AA17B557309586747CD0CF0B46A64E983A6E0EAEEF
310
CE881F9EF1FB8E70D44297604238581EBC1B74B249C31C5AAB6CD0BB33D2C636A27ECCC62F0EFF445DC5DF95244D6DEC7F2922F30191F9F720C37DE49F504B0304140006080800B670623B4220A0FF7D0000009D0000000B0000006662782F636E782E786D6C4DCCD10A83201886E15B91FFDCE542CB0335D0EC3E6259C84A
310
C3E9D8E5AF46073BFAE0E1E315DD675BD1DBA5978F41C2FD4600B9F088930F8B849267CC01754AA418F3DF0D50183727E164506249B1EC174D6E1ECB9A0F5D7D785E68DB8151CD286E5A5363CA6B8A39E90D36D40E96B086F55A43A544F52B1D7B86D517504B0304140006080800B670623B2FA3FEDE290100001202000031
310
0000006662782F45374635344235342D363743322D343832342D383044432D4334454645303536354442422F636F72652E786D6C8D515B6EC32010BC0AE22B55850D2E386E848994D7097A0117488A1283C5A3CAF10BB523B57FF961D1ECCCECC0F2ED7DBC816FED8371B687A4C210682B9D32F6D2C314CFA883602BB8772E
310
FEA141608751F7B0C050F08B77695A20E96CD43666D43AA5177008414708E42D5F7A18E4971E876A483133C2B59A06791D2EBA22556E679EE021FA1C00CC43CA09C5717D6274C7286AD7FB06D1AEA1A8C3873DDAD3E3E98859CB0EBB1DAF67A1E02919B5C88DCA71CCD968FFAC49110B1ECDF8882FBD1EA256503418BF2342
310
106E3E08DD60B6A1EC15771B8C795DE8FF4469524F8A92B1F1AD59E2CEB20005E1F5DC105CB9F4797B84D1F7C9F908CABC55D0F2050A5C61CC1AD2F27A26E6E767C7962E8E213A9FBF7775FDCC5CC266DB960A5E970DE5F2BBBE5CCB36C50F504B0304140006080800B670623B1B8617914E01000033030000300000006662
310
782F45374635344235342D363743322D343832342D383044432D4334454645303536354442422F636E782E786D6CD593C16EC32010447F0571AD6CE3D489D20813A9877E410FBD62D82434182CC055F3F75D1292E692438FBD206B7698593D61BEFD1E2DF982108D773D6D6B460938E5B571FB9ECE6957AD29D90A1EBC4F77
310
364A9C1CA1A759A682EF839FA72269D8C9D92654AD71C72206887E0E0A22CAF926B15E498B01E0AA19451807D01A34B919F16B070157417138917400F2F6FA41FCF0092A45DEE414C19BDC21783E4BD39D891265658C3D8DEA00A3ACE59CBC8678ACB54CB26EEB6BD7839D7E9348BE70AD9C8321B9BCA7F9A4A26C542347DE
310
E050F09802D22BA6749A800A394DD62899107273365E3C82CFC6A55557BC06C10774B7ABE7AEC3B0F34CF06446280E154026D0542C187BA9DAB6628BF7B6DBB0E5A65B3EB1F58631DE64BBE083F7B65CC218087E22CABB042E51D1F2268F1FE12B3EA24D40D63E9CFE00120194D60B9D5BC67FE6D39CDF37E20AF817881F50
310
4B0304140006080800B670623B29652116630500003C100000340000006662782F45374635344235342D363743322D343832342D383044432D4334454645303536354442422F6F626A656374732E786D6CAD575D739B3814FD2B0CFB0C989834C90EA1639B24E3E9A6EDD4D3CE3E64C623834CD8006224913AFDF57B040203
310
B65BEF871F0C12D2FD3CF7E8CA7FBFCB33E3957291B2E2D674ED8969D02262715A24B76625B7D6B569BC0F7CCE98EC2D338D82E4F4D654D366E0279C55A59E8AE99654991CCDDECFFF3444440B6A1A514684B83545F44C7362934AB2988A173B2692D8C97667BB76B3702836E1A47C1E092D09A78584A5982F20C5688C7287
310
C389E904BEA3BE07BEFAD7ABA6A75739B53F43FD69212429A20365233153D70BEF2E2E6FAC4BCF9B5ADEBB0BD79ADFCF43CBBD9A4E16EF168B9BD9DD0D140BC921495BC2E9D60C1E101B9E46BED37CEA2CD6861F3329624541A3DA7F7858DBAC25C6B4A4458C3CA654405BCFEBC970E8AAD8F43E4FD558ABEC4F9FE7557F47
310
4F506B7BFBEC5BCA367FC105710E2AB8A00A554D7CB4A30DFE26FBA86D18CBF4B75418399194A72433B274C3097F33032C554B027F2046A1932B842B0FCCC0DDCBEBDB8AD2F835768F59B9ADB24C41D30C6A64AF817F2A456D59FA83F2E3DA60137255A585BCD60EC9B7929AC18DEFD49381AF1ED30BFDB109A4B1CD488294
310
C3CDE6EBC8D185AABD6568061FEE37BB95AAC7E3CA4BCE4ACAA5820FA0D526AE7DAA2869B5EE5999531BE0CC20E6FBA07C41E43FA27CF7A6206F3CDD793B4F6B919C1462CB788EDCD893FA674CDA17AB7B3B7C019F8D561FAEE966FED562DFE98C1D12C6A9FC015C2A35D7FF3D7FC398F591DA4B5FE0BFA2C0189FEA50AE22
310
92817A1ED3020951A03432862970F976B33383259812CC8E5D240BBA801CBCF8CE2BBEE3BF910DB6AAD5F79E05123AE2DB33981FB1ACCB02B69D00CB014FD68AB573A7627EF9BFD4CC2C5C7D58557C4B22FAA88925A4DBB44825CECE3D78FB060D1231F0E885BE7D673C86A3874958F593906B5502D1563157814FDAC3420D
310
F69A070A22EC4B98E23CFF171A1E5311D12C23056555ABA53B8614563B92D17D02AAB009E8F46284624E5F53D5490C560CCCC2591FF1B45421EB0EBD8EA7ED13BE7C5D7E0428CD60FEF60779EB13E6664FF711CB185F6FDED60D139A001FF60CD1FD6D086F1D51474901E26B2CB794A343BC8ED3EDB612E0DD2351FCB65CF4
310
33D511C9E14B5B40ADC6A6263DB0336A8F700DDF56271A024E70B0B3629DE21847591E55DED73D56206AB927E46FAABC5C939C55853C274C93D69FD6FA4E78BF8B11DF898C9ECD60553FAD39283BA6F18984AA23E8884F83F45C5F5F859797B31B2B9C84A1E5B9DE9D35BFF25C6B76152E422F9C5DCC3D847F5801ED09D5AF
310
41441327A25FF15487F9EB725FB666F048A4701E9A827292E6F97569A32DF61DEC01C0BB8DCBBCCC684E0B49147C1FD54BF685A0AB18C868E6973949E819523E3DAC463660E68C7D9F55A9D1EFA3BD7A76A16AE1A810F95CE59B82A4D968A376DC2E8B44BBDD86B27B368CDE0ED548C7137DA860591A83706223A12CA712B4
310
7306DBF39C0A20A6DF95C7FAF670C6EED7A61F946493D1D6926782963813403548A78AE470DEF80D2D9CEAA26E4D1C76F60BFE74219A06527D6B82DF641A51616F703CAAC6A7160E08A00BEB4810A0274592A1B36E3675E36E978A0DE80727A0D6DF2D39A75BD27E0D8837276589537B40ABB56D5A41F48F1C6FCD3188C4EB
310
A6929D2FFB89CE995A4D00AE813BDD032DC48B56BD437DFDDC2DD7AED70C2272D63DE9A72068A45A92F0A4BE17A8A06B9366E16707AD80B1FC649459952097E74BB23805982B55E0401150A165964402AA8BDF9F3E7386BB686EDCA780C0D382E5392BF460A6EFB2C6EA1937D3F809B440D5F5435C4C5CF7A9EEFAF54564BD
310
2182DA24162F98680B4E7930C21A0079709CEAEB99A372305ABE0C0D7D6078105A83F6A0296DAEE1068A47DD1C55A9F4C9B2FC69E3EFD44B81028E963DF81B504B0304140006080000B670623B000000000000000000000000350000006662782F45374635344235342D363743322D343832342D383044432D433445464530
310
3536354442422F76657274696365732E62696E504B0304140006080800B670623BF270F1330600000004000000360000006662782F45374635344235342D363743322D343832342D383044432D4334454645303536354442422F747269616E676C65732E62696E636660600000504B0304140006080000B670623B00000000
310
0000000000000000370000006662782F45374635344235342D363743322D343832342D383044432D4334454645303536354442422F617474726962757465732E62696E504B0304140006080800B670623B08DA0BD19000000041010000360000006662782F45374635344235342D363743322D343832342D383044432D4334
310
454645303536354442422F6469726563746F72792E786D6C858F410AC3201045AF22B36F53E9A60B35CBEEBAE80D244E44489C6234F4F835464A48035D0DF398FF9F8AF63D0E6CC63039F212F8F9020C7D47C6792B21C5FE7403D62A1188E2E60C98D7234A5830286103A55745067B9D86B8A3CF9C7F90C11DE607FB144396
310
D7B6A82D282E9A152AD114D5EF2CB866EEE831B8EEA07A7BB5A8D7D61A2BAAEB7FD5F70921FF497D00504B0304140006080800B670623B6378F24DFF000000A00100003B0000006662782F45374635344235342D363743322D343832342D383044432D4334454645303536354442422F7265736F75726365732F636F72652E
310
786D6C8D504B6E833010BD0A9A6D65B0094E42641C85B639412F6099496225D8C89FAAC7AF09546A77DDCC8CDE47F3F4C4F16B7C149FE88371B603565228D06A37187BED20C50BD9437194C23B177FC9A0B06AC40E6618A4B87A97A615D2CE46B431A3D60DB8822A048C50E8473E3A08FA86A32A558A5911EEE5A4F45D5DB1
310
6465A6B34E8A107D0E502C4FE609D26370C96B0CA25A58295232C3AA3143FE692E063D485EF7F5AEE71BD2D2F39634AFFC44DAF7DD9E9CCE6F9CD25DCBFA762BAAD92C4534E34F46ED51451C40D694B6843142EB0FD61C283F34FC85EE0F948A6A96FF31A569F8A729191B37F51A77B105902C0779125254735F793DCBCC7B
310
EE567E03504B010214000A0000080000B670623B3DEE336E79000000790000001B00000000000000000000000000000000006175746F6465736B2D64657369676E2D7061636B6167652E786D6C504B01021400140006080800B670623BD486FD9CA0000000F40000001300000000000000000000000000B20000005B436F6E
310
74656E745F54797065735D2E786D6C504B01021400140006080800B670623BBC1638F5EC0000007C010000080000000000000000000000000083010000636F72652E786D6C504B01021400140006080800B670623B55019EA25F0000007C000000070000000000000000000000000095020000636E782E786D6C504B010214
310
00140006080800B670623B3586FFB671010000D40300000C00000000000000000000000000190300006662782F636F72652E786D6C504B01021400140006080800B670623B4220A0FF7D0000009D0000000B00000000000000000000000000B40400006662782F636E782E786D6C504B01021400140006080800B670623B2F
310
A3FEDE290100001202000031000000000000000000000000005A0500006662782F45374635344235342D363743322D343832342D383044432D4334454645303536354442422F636F72652E786D6C504B01021400140006080800B670623B1B8617914E010000330300003000000000000000000000000000D2060000666278
310
2F45374635344235342D363743322D343832342D383044432D4334454645303536354442422F636E782E786D6C504B01021400140006080800B670623B29652116630500003C10000034000000000000000000000000006E0800006662782F45374635344235342D363743322D343832342D383044432D4334454645303536
310
354442422F6F626A656374732E786D6C504B01021400140006080000B670623B0000000000000000000000003500000000000000000000000000230E00006662782F45374635344235342D363743322D343832342D383044432D4334454645303536354442422F76657274696365732E62696E504B01021400140006080800
310
B670623BF270F13306000000040000003600000000000000000000000000760E00006662782F45374635344235342D363743322D343832342D383044432D4334454645303536354442422F747269616E676C65732E62696E504B01021400140006080000B670623B0000000000000000000000003700000000000000000000
310
000000D00E00006662782F45374635344235342D363743322D343832342D383044432D4334454645303536354442422F617474726962757465732E62696E504B01021400140006080800B670623B08DA0BD190000000410100003600000000000000000000000000250F00006662782F45374635344235342D363743322D34
310
3832342D383044432D4334454645303536354442422F6469726563746F72792E786D6C504B01021400140006080800B670623B6378F24DFF000000A00100003B00000000000000000000000000091000006662782F45374635344235342D363743322D343832342D383044432D4334454645303536354442422F7265736F75
310
726365732F636F72652E786D6C504B0506000000000E000E0080040000611100000000
  0
XRECORD
  5
7DD
102
{ACAD_REACTORS
330
110
102
}
330
110
100
AcDbXrecord
280
     1
102
MATERIAL
148
0.0
149
0.0
149
0.0
 93
        0
 94
      127
282
     0
 72
     1
 77
     1
171
     1
175
     1
179
     1
273
     0
  0
XRECORD
  5
112
102
{ACAD_REACTORS
330
110
102
}
330
110
100
AcDbXrecord
280
     1
270
     1
271
     1
  0
XRECORD
  5
111
102
{ACAD_REACTORS
330
110
102
}
330
110
100
AcDbXrecord
280
     1
270
     1
271
     1
  0
XRECORD
  5
18A
102
{ACAD_REACTORS
330
110
102
}
330
110
100
AcDbXrecord
280
     1
 70
     0
 90
1778669749
  1
9BF507EE-FAF7-4A99-A33D-4EE51894BC40
310
504B03040A0000080000B670623B3DEE336E79000000790000001B0000006175746F6465736B2D64657369676E2D7061636B6167652E786D6C3C3F786D6C2076657273696F6E3D22312E302220656E636F64696E673D227574662D3822203F3E3C666F726D6174733E3C666F726D61743E687474703A2F2F736368656D612E
310
6175746F6465736B2E636F6D2F64657369676E2D7061636B6167652F323030393C2F666F726D61743E3C2F666F726D6174733E504B0304140006080800B670623BD486FD9CA0000000F4000000130000005B436F6E74656E745F54797065735D2E786D6C7D8EC10E82300C865F65E91D8A1E8C310C0EEA1BF002731658846E
310
D98AC1B77784ABF1D8FE5FBFBF75BBCE937A534CCEB38643598122B6FEE978D0B0485F9C41B54DDD7D022595594E1A469170414C76A4D9A4D207E29CF43ECE46F218070CC6BECC4078ACAA135ACF422C856C0E68EA1BF5669944DDD7BCDE7B1F8E415D77AECB980613C2E4AC91FC167A2B244592486606FC29C8FD7F045B9A
310
EF7053A7E60B504B0304140006080800B670623BCA089DFFEC0000007C01000008000000636F72652E786D6C8D90416E83301045AF62CDB632D8402020E32882F604BD80653BC44AB011B6AB1EBF262152BBEB6A467FFE9B197D76FA9EEFE84BAFDE38DB03CD08206DA553C64E3DC470C1474027CE56E7C22F1B202B66DDC3
310
260367D3EAE2B24BD2D9A06D48AA754AEFA2F05E0740F29E9A1EBCBCEA59642286E4F0B76C11F226269DD15797E0188D42CF2346A57DE662F40ABCAEC77628C6120F654571D50C04B7F5B9C1E3997CD4F550BE3745C3F20DE62C98F9755FAE5A04AD801784B498524C8A4F5A75E4D055873772EC0861F966FF03C545FD138A
310
C686B2D8DF7D621E384D8F3C069CE55B16A93C824A75CB8DFF00504B0304140006080800B670623B55019EA25F0000007C00000007000000636E782E786D6C4DCB3B0E80201045D1AD90E915ED2CF8AC45050C11660C8261F98AB1B07AC9C97D42D718D865D3E909258CFD00CCE24AC6E326A164D74DC0B4128928FF326038
310
472BA13128B1252AC747C6BAB984FC68F0B87FE8960A5C09FE86CFB69FBA01504B0304140006080800B670623B68FC0B7272010000D40300000C0000006662782F636F72652E786D6CC5535B6E833010BC8AE5DF0A6C1E8124328E22D29EA01770C0A128602363A31CBFCB234A53A555FA553EC09AD9F5CE8C31DB5DDA060D
310
D2F4B556190E7C8A9154852E6B5565D8D993B7C668C799D1DA7E29C3488956667884316795D1AE5BA0422B2B950554E9522EA0E87B69312A1A5864B82F3E642B7CE12C54F467BF13C55954D20F7CA0A18EB3DE1A1080E621E31BF3D3F1C2C88C73E65C5D2E6C5DC2B4FA544B8379921C36797888BC3C8A032F4E73EA6D927D
310
EA1DF6F42D49F2E8350D5346C666CE6CDD5ED515460A2B4BCC434A375E1078347C0FE22D5D6DE3D50B5D6F2965642CBF6B725DF96493AB958DC245EEDCD6631E809089F8E61622B2A81703E8219C913144F84C09DF070D8140C8561C9BAB8F3340832CAC363130A576376A108D933095FA747AD0CF0B46E64E983A6D0EAE1F
310
CE089F9EF1FB8E70D44255604258581E9D1D75B259C3125A278D37D80B52DAB4A279CEC62F0EFF44DDC43F9454E8469BFF5244960322CBEF41C6FBC83F01504B0304140006080800B670623B0F71DDB67E0000009D0000000B0000006662782F636E782E786D6C4DCCD10A83201886E15B91FFDCA54DB73F502386BB8F5816
310
32D3703976F9ABD1C18E3E78F87855FB990379BBFCF2296AE02706C4C5471A7C9C349475A408A4352AA7B4FEDD80C47E761A7606A3A69CCA72D0E0C6BE8475D3E0E3F3409428EA6B27A84079A782899AA2EC1A7AE3ECCC2FD858CB2D544655BFD2B67BD87C01504B0304140006080800B670623BE134B4FB28010000120200
310
00310000006662782F38353834323741342D343835462D343034322D383541392D4331303331363839454531452F636F72652E786D6C8D515B6EC32010BC0AE22B55850D0EA424C24451959EA0172086A42831583CAA1CBF503B52FB971F16CDCECC0EACD8DFC71BF836215AEF7A481A0C817183D7D65D7A98D3197108F652
310
04EFD31F1A044E8DA6871586525C82CFD3020DDE25E352419DD76601558C264130DCCAA58771F832A36A544E8511AFCDA486ABBA988634A55D7852C4144A00300FA927949C71DABD1D28A29C7D208A6987383B6CD13BC16BB2E1DBE3911C453B0BA5C8D9EA456E758963CFD684674DAA588A64C747FC2118958C86B2C3788B
310
0841B8FB247487D98EB257CC77188BB6D2FF89F2A49F1465EBD2BA5BE2CEB2082511EDDC9042FB7CBA3DC298FBE4430275DE2A9AE1054ADC60CC08E3A29D89E5F9C5714317C7987C28DFBBBA9E0A97B0D97643A568EB864AF95D5FA9759BF207504B0304140006080800B670623B1B8617914E010000330300003000000066
310
62782F38353834323741342D343835462D343034322D383541392D4331303331363839454531452F636E782E786D6CD593C16EC32010447F0571AD6CE3D489D20813A9877E410FBD62D82434182CC055F3F75D1292E692438FBD206B7698593D61BEFD1E2DF982108D773D6D6B460938E5B571FB9ECE6957AD29D90A1EBC4F
310
77364A9C1CA1A759A682EF839FA72269D8C9D92654AD71C72206887E0E0A22CAF926B15E498B01E0AA19451807D01A34B919F16B070157417138917400F2F6FA41FCF0092A45DEE414C19BDC21783E4BD39D891265658C3D8DEA00A3ACE59CBC8678ACB54CB26EEB6BD7839D7E9348BE70AD9C8321B9BCA7F9A4A26C542347
310
DEE050F09802D22BA6749A800A394DD62899107273365E3C82CFC6A55557BC06C10774B7ABE7AEC3B0F34CF06446280E154026D0542C187BA9DAB6628BF7B6DBB0E5A65B3EB1F58631DE64BBE083F7B65CC218087E22CABB042E51D1F2268F1FE12B3EA24D40D63E9CFE00120194D60B9D5BC67FE6D39CDF37E20AF817881F
310
504B0304140006080800B670623B5933D422630500003B100000340000006662782F38353834323741342D343835462D343034322D383541392D4331303331363839454531452F6F626A656374732E786D6CAD575B6FA33814FE2B887D0642934E9B156594264D158D3A534DD4D13E548A0C38942D60649B4EBABF7E3F8321
310
40924EF6928780CDF1B97EE762EFF32E4B8D37CA45C2F21BD3B547A641F39045491EDF98A5DC5AD7A6F1D9F73863B243661A39C9E88DA9B64DDF8B392B0BBD15D12D295339D85DDEFE618890E6D434C2940871638AF08566C426A5641115AF764424B1E3EDCE76ED9AB0CF36E6A47819302D08A7B984A6D8CFC1C5A89572FB
310
CB91E9F89EA3BEFB9EFAD754E3D3544E654F5F7E920B49F2F040D880CDD89D2CEE2E2EA7D6E56432B6269F2E5CEB7679BBB0DCABF168FE693E9FCEEEA6102C240727AD09A75BD3BF876F78127A4EFDA9D5582B7E4CA590E5390D2BFB6161A5B3E618D182E611E2985001691DAB47FDA5AB7CD3F93C566B2DB2BB7D9E55DD13
310
1D468DEECDB3AB290BFE8409E21C54704115AA6AFF68436BFC8DF65E0B184BF5B74418199194272435D224E084BF9B3E481589EFF5D828747285706581E9BB7B7E5D5D911ABFC6EE312DB7659A2A689A7E85EC0DF04FA5A8344BFEA2FCB834E8845895492EAFB541F2BDA0A63FF59C6AD3F7D4637CA13FD68E34B629891172
310
98597F1D183A57B9B75A98FE9765B05BAB7C3C2EBCE0ACA05C2AF8005A4DE09AA7F29216EB9E15397500C6F47CBE77CA7778FE2BD277AF0AE2C693DD6437D1522427B9D8329E2136F6A8FA19A3E6C56ADF0E5F50CF06D48734EDCEBF22F69C56D97EC138153F804B85E6FABFC7AFEFB32E523BE1F3BD372418E363EDCA7548
310
52949E8724474014288D94610BB57C1BEC4C7F854A89CA8E5324F55B871CBC78CE1BBEE3BFE68D6A5589EF3C730474506FCFA8FCF0659516D0ED04580EEA6425581B77CAE797FF4BCECC16EB2FEB926F49481F746159D06D922712BD730FDEAE42BD40F42C7AA5EF3F198F60E86110D6DD20645A9480B795CF95E3E3A659A8
310
C55E724F408873315335CFFB8584874484344D494E59D94869DB90C26A5B64F49C802CAC1D3ABE18A098D3B7444D123D8A9E5AE8F5214F0AE5B2B6E9B575DA3E61CBD3EA2B4009FA940524DD1305FB6A1FB294F14DF0BEA90BA109ECE1481FDC3FFAE8D60E75141700BE82725371B4873751B2DD960265F788137FACE6DD40
310
B575E4F0A5C99F46629D92131467A41EE11ABD8D4CCC039CA0AFB37C93A08B232B8F0AEFCA1E0A1015DF13FC83322B362463652ECF71D3A8B1A7D1BE65DE1D62C44F22C317D35F574FEB16153BA2D13E543D10A80E74C4A65E78A6B7CBCBD1D5DD9DB59C2DAFACC96C3AB566E3F1C29ADCDD5DBAD7D3C9ED7C822ED74F80A6
310
41755310DE4443F44A9E68373FADF6596BFA0F440AE7BECE2727AE9F4F2B1B53B1E7E00CF0DD1E5C65454A339A4BA2D0FBA05ED2EF0443458F47BDBFCA484CCFE0F2ED7E3DD0013B679C7B5499467F0ECEEADDB9CA85A34CE44B99053949D2C1416DB85DE4B136BB7165FBAC0B7AB3542BED4F8CA182A549847A1319316519
310
95A83A67147B9E5101C47487F2485F1ECE38FD568F839204296D3479219888530154036E6528FBFBC66F98E0D4107563A2D7D9AFF8D389681A08F58D89F22693900A3B407754734FC51C10C010D6D640809EE4718AC1BA3ED4AEDB53CA37283F68805A7E4B72CEB0A4EDEAD5DD8C14059A76AFAA56BA6901E13F32BC51C720
310
12AF41295B5BF61BAD3195181FB506E6B40F4C10AF5AF40EF9F5B159AE5DD1F43C72D635E94310D45C2D49785C5D0B94D3B54AB3C5A38349C0587D338AB48C11CBF339599C02CCA54A70A008A8D03C0B2201D5F9EFCF8F9CE12A9A19CB0410789EB32C63B95ECCF455D658BFE0621A3DA32C5075FB101723D77DAE867E7D0F
310
D90444509B44E2151B4DC2290B065803200FBAA9BE9D392A0603F2D5C2D00D6302A615680F66D2FA166E2079D4C551A54AB758161FCEFD4E450A14704CECFEDF504B0304140006080000B670623B000000000000000000000000350000006662782F38353834323741342D343835462D343034322D383541392D4331303331
310
363839454531452F76657274696365732E62696E504B0304140006080800B670623BF270F1330600000004000000360000006662782F38353834323741342D343835462D343034322D383541392D4331303331363839454531452F747269616E676C65732E62696E636660600000504B0304140006080000B670623B000000
310
000000000000000000370000006662782F38353834323741342D343835462D343034322D383541392D4331303331363839454531452F617474726962757465732E62696E504B0304140006080800B670623B08DA0BD19000000041010000360000006662782F38353834323741342D343835462D343034322D383541392D43
310
31303331363839454531452F6469726563746F72792E786D6C858F410AC3201045AF22B36F53E9A60B35CBEEBAE80D244E44489C6234F4F835464A48035D0DF398FF9F8AF63D0E6CC63039F212F8F9020C7D47C6792B21C5FE7403D62A1188E2E60C98D7234A5830286103A55745067B9D86B8A3CF9C7F90C11DE607FB1443
310
96D7B6A82D282E9A152AD114D5EF2CB866EEE831B8EEA07A7BB5A8D7D61A2BAAEB7FD5F70921FF497D00504B0304140006080800B670623BD9A3B367FE000000A00100003B0000006662782F38353834323741342D343835462D343034322D383541392D4331303331363839454531452F7265736F75726365732F636F7265
310
2E786D6C8D504B6E833010BD0A9A6D65B01D0201194711694FD00B586642AD043BF2A7EAF16B122AB5BB6E6646EFA3797AE2F8B5DC8A4FF4C1383B002B291468B59B8C9D0748F1420E501CA5F0CEC55F3228AC5A708015062966EFD27D83B4B3116DCCA875136EA00A012314FA968F0182FEC045952AC5AC08D7F2AEF455CD
310
58B232D3592745883E07289E4FD609D26370C96B0CA27AB252A464A64D63A6FCD35C0C7A904D73EE467EE664DCD58CD4ED4849D79C5A723ED1B7A61977AF2D6F45B59AA58866F9C9A83DAA8813484E6947182394BFB3BAA7FBBEDEBFD0434FA9A856F91F53BA4FFF342563E38E6F719FB60092E5200F428A6AED2BAF479979
310
AFDDCA6F504B010214000A0000080000B670623B3DEE336E79000000790000001B00000000000000000000000000000000006175746F6465736B2D64657369676E2D7061636B6167652E786D6C504B01021400140006080800B670623BD486FD9CA0000000F40000001300000000000000000000000000B20000005B436F6E
310
74656E745F54797065735D2E786D6C504B01021400140006080800B670623BCA089DFFEC0000007C010000080000000000000000000000000083010000636F72652E786D6C504B01021400140006080800B670623B55019EA25F0000007C000000070000000000000000000000000095020000636E782E786D6C504B010214
310
00140006080800B670623B68FC0B7272010000D40300000C00000000000000000000000000190300006662782F636F72652E786D6C504B01021400140006080800B670623B0F71DDB67E0000009D0000000B00000000000000000000000000B50400006662782F636E782E786D6C504B01021400140006080800B670623BE1
310
34B4FB280100001202000031000000000000000000000000005C0500006662782F38353834323741342D343835462D343034322D383541392D4331303331363839454531452F636F72652E786D6C504B01021400140006080800B670623B1B8617914E010000330300003000000000000000000000000000D3060000666278
310
2F38353834323741342D343835462D343034322D383541392D4331303331363839454531452F636E782E786D6C504B01021400140006080800B670623B5933D422630500003B10000034000000000000000000000000006F0800006662782F38353834323741342D343835462D343034322D383541392D4331303331363839
310
454531452F6F626A656374732E786D6C504B01021400140006080000B670623B0000000000000000000000003500000000000000000000000000240E00006662782F38353834323741342D343835462D343034322D383541392D4331303331363839454531452F76657274696365732E62696E504B01021400140006080800
310
B670623BF270F13306000000040000003600000000000000000000000000770E00006662782F38353834323741342D343835462D343034322D383541392D4331303331363839454531452F747269616E676C65732E62696E504B01021400140006080000B670623B0000000000000000000000003700000000000000000000
310
000000D10E00006662782F38353834323741342D343835462D343034322D383541392D4331303331363839454531452F617474726962757465732E62696E504B01021400140006080800B670623B08DA0BD190000000410100003600000000000000000000000000260F00006662782F38353834323741342D343835462D34
310
3034322D383541392D4331303331363839454531452F6469726563746F72792E786D6C504B01021400140006080800B670623BD9A3B367FE000000A00100003B000000000000000000000000000A1000006662782F38353834323741342D343835462D343034322D383541392D4331303331363839454531452F7265736F75
310
726365732F636F72652E786D6C504B0506000000000E000E0080040000611100000000
  0
XRECORD
  5
113
102
{ACAD_REACTORS
330
110
102
}
330
110
100
AcDbXrecord
280
     1
270
     1
271
     1
  0
XRECORD
  5
114
102
{ACAD_REACTORS
330
110
102
}
330
110
100
AcDbXrecord
280
     1
270
     1
271
     1
  0
XRECORD
  5
B7E
102
{ACAD_REACTORS
330
B7D
102
}
330
B7D
100
AcDbXrecord
280
     1
102
DISPLAYNAME
  1
Imperial24
102
FLAGS
 90
        0
  0
CELLSTYLEMAP
  5
B3E
102
{ACAD_REACTORS
330
104
102
}
330
104
100
AcDbCellStyleMap
 90
        3
300
CELLSTYLE
  1
TABLEFORMAT_BEGIN
 90
        5
170
     1
 91
        0
 92
    32768
 62
   257
 93
        1
300
CONTENTFORMAT
  1
CONTENTFORMAT_BEGIN
 90
        0
 91
        0
 92
      512
 93
        0
300

 40
0.0
140
1.0
 94
        5
 62
     0
340
11
144
0.25
309
CONTENTFORMAT_END
171
     1
301
MARGIN
  1
CELLMARGIN_BEGIN
 40
0.06
 40
0.06
 40
0.06
 40
0.06
 40
0.18
 40
0.18
309
CELLMARGIN_END
 94
        6
 95
        1
302
GRIDFORMAT
  1
GRIDFORMAT_BEGIN
 90
        0
 91
        1
 62
     0
 92
       -2
340
0
 93
        0
 40
0.045
309
GRIDFORMAT_END
 95
        2
302
GRIDFORMAT
  1
GRIDFORMAT_BEGIN
 90
        0
 91
        1
 62
     0
 92
       -2
340
0
 93
        0
 40
0.045
309
GRIDFORMAT_END
 95
        4
302
GRIDFORMAT
  1
GRIDFORMAT_BEGIN
 90
        0
 91
        1
 62
     0
 92
       -2
340
0
 93
        0
 40
0.045
309
GRIDFORMAT_END
 95
        8
302
GRIDFORMAT
  1
GRIDFORMAT_BEGIN
 90
        0
 91
        1
 62
     0
 92
       -2
340
0
 93
        0
 40
0.045
309
GRIDFORMAT_END
 95
       16
302
GRIDFORMAT
  1
GRIDFORMAT_BEGIN
 90
        0
 91
        1
 62
     0
 92
       -2
340
0
 93
        0
 40
0.045
309
GRIDFORMAT_END
 95
       32
302
GRIDFORMAT
  1
GRIDFORMAT_BEGIN
 90
        0
 91
        1
 62
     0
 92
       -2
340
0
 93
        0
 40
0.045
309
GRIDFORMAT_END
309
TABLEFORMAT_END
  1
CELLSTYLE_BEGIN
 90
        1
 91
        1
300
_TITLE
309
CELLSTYLE_END
300
CELLSTYLE
  1
TABLEFORMAT_BEGIN
 90
        5
170
     1
 91
        0
 92
        0
 62
   257
 93
        1
300
CONTENTFORMAT
  1
CONTENTFORMAT_BEGIN
 90
        0
 91
        0
 92
      512
 93
        0
300

 40
0.0
140
1.0
 94
        5
 62
     0
340
11
144
0.18
309
CONTENTFORMAT_END
171
     1
301
MARGIN
  1
CELLMARGIN_BEGIN
 40
0.06
 40
0.06
 40
0.06
 40
0.06
 40
0.18
 40
0.18
309
CELLMARGIN_END
 94
        6
 95
        1
302
GRIDFORMAT
  1
GRIDFORMAT_BEGIN
 90
        0
 91
        1
 62
     0
 92
       -2
340
0
 93
        0
 40
0.045
309
GRIDFORMAT_END
 95
        2
302
GRIDFORMAT
  1
GRIDFORMAT_BEGIN
 90
        0
 91
        1
 62
     0
 92
       -2
340
0
 93
        0
 40
0.045
309
GRIDFORMAT_END
 95
        4
302
GRIDFORMAT
  1
GRIDFORMAT_BEGIN
 90
        0
 91
        1
 62
     0
 92
       -2
340
0
 93
        0
 40
0.045
309
GRIDFORMAT_END
 95
        8
302
GRIDFORMAT
  1
GRIDFORMAT_BEGIN
 90
        0
 91
        1
 62
     0
 92
       -2
340
0
 93
        0
 40
0.045
309
GRIDFORMAT_END
 95
       16
302
GRIDFORMAT
  1
GRIDFORMAT_BEGIN
 90
        0
 91
        1
 62
     0
 92
       -2
340
0
 93
        0
 40
0.045
309
GRIDFORMAT_END
 95
       32
302
GRIDFORMAT
  1
GRIDFORMAT_BEGIN
 90
        0
 91
        1
 62
     0
 92
       -2
340
0
 93
        0
 40
0.045
309
GRIDFORMAT_END
309
TABLEFORMAT_END
  1
CELLSTYLE_BEGIN
 90
        2
 91
        1
300
_HEADER
309
CELLSTYLE_END
300
CELLSTYLE
  1
TABLEFORMAT_BEGIN
 90
        5
170
     1
 91
        0
 92
        0
 62
   257
 93
        1
300
CONTENTFORMAT
  1
CONTENTFORMAT_BEGIN
 90
        0
 91
        0
 92
      512
 93
        0
300

 40
0.0
140
1.0
 94
        2
 62
     0
340
11
144
0.18
309
CONTENTFORMAT_END
171
     1
301
MARGIN
  1
CELLMARGIN_BEGIN
 40
0.06
 40
0.06
 40
0.06
 40
0.06
 40
0.18
 40
0.18
309
CELLMARGIN_END
 94
        6
 95
        1
302
GRIDFORMAT
  1
GRIDFORMAT_BEGIN
 90
        0
 91
        1
 62
     0
 92
       -2
340
0
 93
        0
 40
0.045
309
GRIDFORMAT_END
 95
        2
302
GRIDFORMAT
  1
GRIDFORMAT_BEGIN
 90
        0
 91
        1
 62
     0
 92
       -2
340
0
 93
        0
 40
0.045
309
GRIDFORMAT_END
 95
        4
302
GRIDFORMAT
  1
GRIDFORMAT_BEGIN
 90
        0
 91
        1
 62
     0
 92
       -2
340
0
 93
        0
 40
0.045
309
GRIDFORMAT_END
 95
        8
302
GRIDFORMAT
  1
GRIDFORMAT_BEGIN
 90
        0
 91
        1
 62
     0
 92
       -2
340
0
 93
        0
 40
0.045
309
GRIDFORMAT_END
 95
       16
302
GRIDFORMAT
  1
GRIDFORMAT_BEGIN
 90
        0
 91
        1
 62
     0
 92
       -2
340
0
 93
        0
 40
0.045
309
GRIDFORMAT_END
 95
       32
302
GRIDFORMAT
  1
GRIDFORMAT_BEGIN
 90
        0
 91
        1
 62
     0
 92
       -2
340
0
 93
        0
 40
0.045
309
GRIDFORMAT_END
309
TABLEFORMAT_END
  1
CELLSTYLE_BEGIN
 90
        3
 91
        2
300
_DATA
309
CELLSTYLE_END
  0
XRECORD
  5
B4C
102
{ACAD_REACTORS
330
104
102
}
330
104
100
AcDbXrecord
280
     1
102
ACAD_ROUNDTRIP_PRE2007_TABLESTYLE
 90
      512
 91
        0
  1

 92
      512
 93
        0
  2

 94
      512
 95
        0
  3

  0
XRECORD
  5
B58
102
{ACAD_REACTORS
330
B57
102
}
330
B57
100
AcDbXrecord
280
     1
102
RTVSPost2010Prop28
280
     1
102
RTVSPost2010PropOp28
 70
     1
102
RTVSPost2010Prop29
280
     1
102
RTVSPost2010PropOp29
 70
     1
102
RTVSPost2010Prop30
280
     0
102
RTVSPost2010PropOp30
 70
     1
102
RTVSPost2010Prop31
280
     0
102
RTVSPost2010PropOp31
 70
     1
102
RTVSPost2010Prop32
280
     0
102
RTVSPost2010PropOp32
 70
     1
102
RTVSPost2010Prop33
280
     0
102
RTVSPost2010PropOp33
 70
     1
102
RTVSPost2010Prop34
280
     0
102
RTVSPost2010PropOp34
 70
     1
102
RTVSPost2010Prop35
280
     0
102
RTVSPost2010PropOp35
 70
     1
102
RTVSPost2010Prop36
280
     0
102
RTVSPost2010PropOp36
 70
     1
102
RTVSPost2010Prop37
 90
       50
102
RTVSPost2010PropOp37
 70
     1
102
RTVSPost2010Prop38
140
0.0
102
RTVSPost2010PropOp38
 70
     1
102
RTVSPost2010Prop39
140
1.0
102
RTVSPost2010PropOp39
 70
     1
102
RTVSPost2010Prop40
 90
        0
102
RTVSPost2010PropOp40
 70
     1
102
RTVSPost2010Prop41ColorIndex
 90
       18
102
RTVSPost2010Prop41ColorRGB
 90
        0
102
RTVSPost2010PropOp41
 70
     1
102
RTVSPost2010Prop42
 90
       50
102
RTVSPost2010PropOp42
 70
     1
102
RTVSPost2010Prop43
 90
        3
102
RTVSPost2010PropOp43
 70
     1
102
RTVSPost2010Prop44ColorIndex
 90
        5
102
RTVSPost2010Prop44ColorRGB
 90
      255
102
RTVSPost2010PropOp44
 70
     1
102
RTVSPost2010Prop45
280
     0
102
RTVSPost2010PropOp45
 70
     1
102
RTVSPost2010Prop46
 90
       50
102
RTVSPost2010PropOp46
 70
     1
102
RTVSPost2010Prop47
 90
       50
102
RTVSPost2010PropOp47
 70
     1
102
RTVSPost2010Prop48
 90
       50
102
RTVSPost2010PropOp48
 70
     1
102
RTVSPost2010Prop49
280
     0
102
RTVSPost2010PropOp49
 70
     1
102
RTVSPost2010Prop50
 90
       50
102
RTVSPost2010PropOp50
 70
     1
102
RTVSPost2010Prop51ColorIndex
 90
      256
102
RTVSPost2010Prop51ColorRGB
 90
-16777216
102
RTVSPost2010PropOp51
 70
     0
102
RTVSPost2010Prop52
140
1.0
102
RTVSPost2010PropOp52
 70
     0
102
RTVSPost2010Prop53
 90
        2
102
RTVSPost2010PropOp53
 70
     1
102
RTVSPost2010Prop54
  1
strokes_ogs.tif
102
RTVSPost2010PropOp54
 70
     1
102
RTVSPost2010Prop55
280
     0
102
RTVSPost2010PropOp55
 70
     1
102
RTVSPost2010Prop56
140
1.0
102
RTVSPost2010PropOp56
 70
     1
102
RTVSPost2010Prop57
140
1.0
102
RTVSPost2010PropOp57
 70
     1
102
RTVSPropertyOp0
 70
     1
102
RTVSPropertyOp1
 70
     1
102
RTVSPropertyOp2
 70
     1
102
RTVSPropertyOp3
 70
     1
102
RTVSPropertyOp4
 70
     1
102
RTVSPropertyOp5
 70
     1
102
RTVSPropertyOp6
 70
     1
102
RTVSPropertyOp7
 70
     1
102
RTVSPropertyOp8
 70
     1
102
RTVSPropertyOp9
 70
     1
102
RTVSPropertyOp10
 70
     1
102
RTVSPropertyOp11
 70
     1
102
RTVSPropertyOp12
 70
     1
102
RTVSPropertyOp13
 70
     1
102
RTVSPropertyOp14
 70
     1
102
RTVSPropertyOp15
 70
     1
102
RTVSPropertyOp16
 70
     1
102
RTVSPropertyOp17
 70
     1
102
RTVSPropertyOp18
 70
     1
102
RTVSPropertyOp19
 70
     1
102
RTVSPropertyOp20
 70
     1
102
RTVSPropertyOp21
 70
     1
102
RTVSPropertyOp22
 70
     1
102
RTVSPropertyOp23
 70
     1
102
RTVSPropertyOp24
 70
     1
102
RTVSPropertyOp25
 70
     1
102
RTVSPropertyOp26
 70
     1
102
RTVSPropertyOp27
 70
     1
102
RTVSPropertyOp28
 70
     1
102
RTVSPropertyOp29
 70
     1
102
RTVSPropertyOp30
 70
     1
102
RTVSPropertyOp31
 70
     1
102
RTVSPropertyOp32
 70
     1
102
RTVSPropertyOp33
 70
     1
102
RTVSPropertyOp34
 70
     1
102
RTVSPropertyOp35
 70
     1
102
RTVSPropertyOp36
 70
     1
102
RTVSPropertyOp37
 70
     1
102
RTVSPropertyOp38
 70
     1
102
RTVSPropertyOp39
 70
     1
102
RTVSPropertyOp40
 70
     1
102
RTVSPropertyOp41
 70
     1
102
RTVSPropertyOp42
 70
     1
102
RTVSPropertyOp43
 70
     1
102
RTVSPropertyOp44
 70
     1
102
RTVSPropertyOp45
 70
     1
102
RTVSPropertyOp46
 70
     1
102
RTVSPropertyOp47
 70
     1
102
RTVSPropertyOp48
 70
     1
102
RTVSPropertyOp49
 70
     1
102
RTVSPropertyOp50
 70
     1
102
RTVSPropertyOp51
 70
     0
102
RTVSPropertyOp52
 70
     0
102
RTVSPropertyOp53
 70
     1
102
RTVSPropertyOp54
 70
     1
102
RTVSPropertyOp55
 70
     1
102
RTVSPropertyOp56
 70
     1
102
RTVSPropertyOp57
 70
     1
102
RTVSPropertyOp58
 70
     1
102
RTVSPropertyOp59
 70
     1
102
RTVSPropertyOp60
 70
     1
102
RTVSPropertyOp61
 70
     1
102
RTVSPropertyOp62
 70
     1
  0
XRECORD
  5
B56
102
{ACAD_REACTORS
330
B55
102
}
330
B55
100
AcDbXrecord
280
     1
102
RTVSPost2010Prop28
280
     0
102
RTVSPost2010PropOp28
 70
     1
102
RTVSPost2010Prop29
280
     1
102
RTVSPost2010PropOp29
 70
     1
102
RTVSPost2010Prop30
280
     1
102
RTVSPost2010PropOp30
 70
     1
102
RTVSPost2010Prop31
280
     0
102
RTVSPost2010PropOp31
 70
     1
102
RTVSPost2010Prop32
280
     0
102
RTVSPost2010PropOp32
 70
     1
102
RTVSPost2010Prop33
280
     0
102
RTVSPost2010PropOp33
 70
     1
102
RTVSPost2010Prop34
280
     0
102
RTVSPost2010PropOp34
 70
     1
102
RTVSPost2010Prop35
280
     0
102
RTVSPost2010PropOp35
 70
     1
102
RTVSPost2010Prop36
280
     0
102
RTVSPost2010PropOp36
 70
     1
102
RTVSPost2010Prop37
 90
       50
102
RTVSPost2010PropOp37
 70
     1
102
RTVSPost2010Prop38
140
0.0
102
RTVSPost2010PropOp38
 70
     1
102
RTVSPost2010Prop39
140
1.0
102
RTVSPost2010PropOp39
 70
     1
102
RTVSPost2010Prop40
 90
        0
102
RTVSPost2010PropOp40
 70
     1
102
RTVSPost2010Prop41ColorIndex
 90
       18
102
RTVSPost2010Prop41ColorRGB
 90
        0
102
RTVSPost2010PropOp41
 70
     1
102
RTVSPost2010Prop42
 90
       50
102
RTVSPost2010PropOp42
 70
     1
102
RTVSPost2010Prop43
 90
        3
102
RTVSPost2010PropOp43
 70
     1
102
RTVSPost2010Prop44ColorIndex
 90
        5
102
RTVSPost2010Prop44ColorRGB
 90
      255
102
RTVSPost2010PropOp44
 70
     1
102
RTVSPost2010Prop45
280
     0
102
RTVSPost2010PropOp45
 70
     1
102
RTVSPost2010Prop46
 90
       50
102
RTVSPost2010PropOp46
 70
     1
102
RTVSPost2010Prop47
 90
       50
102
RTVSPost2010PropOp47
 70
     1
102
RTVSPost2010Prop48
 90
       50
102
RTVSPost2010PropOp48
 70
     1
102
RTVSPost2010Prop49
280
     0
102
RTVSPost2010PropOp49
 70
     1
102
RTVSPost2010Prop50
 90
       50
102
RTVSPost2010PropOp50
 70
     1
102
RTVSPost2010Prop51ColorIndex
 90
      256
102
RTVSPost2010Prop51ColorRGB
 90
-16777216
102
RTVSPost2010PropOp51
 70
     0
102
RTVSPost2010Prop52
140
1.0
102
RTVSPost2010PropOp52
 70
     0
102
RTVSPost2010Prop53
 90
        2
102
RTVSPost2010PropOp53
 70
     1
102
RTVSPost2010Prop54
  1
strokes_ogs.tif
102
RTVSPost2010PropOp54
 70
     1
102
RTVSPost2010Prop55
280
     0
102
RTVSPost2010PropOp55
 70
     1
102
RTVSPost2010Prop56
140
1.0
102
RTVSPost2010PropOp56
 70
     1
102
RTVSPost2010Prop57
140
1.0
102
RTVSPost2010PropOp57
 70
     1
102
RTVSPropertyOp0
 70
     1
102
RTVSPropertyOp1
 70
     1
102
RTVSPropertyOp2
 70
     1
102
RTVSPropertyOp3
 70
     1
102
RTVSPropertyOp4
 70
     1
102
RTVSPropertyOp5
 70
     1
102
RTVSPropertyOp6
 70
     1
102
RTVSPropertyOp7
 70
     1
102
RTVSPropertyOp8
 70
     1
102
RTVSPropertyOp9
 70
     1
102
RTVSPropertyOp10
 70
     1
102
RTVSPropertyOp11
 70
     1
102
RTVSPropertyOp12
 70
     1
102
RTVSPropertyOp13
 70
     1
102
RTVSPropertyOp14
 70
     1
102
RTVSPropertyOp15
 70
     1
102
RTVSPropertyOp16
 70
     1
102
RTVSPropertyOp17
 70
     1
102
RTVSPropertyOp18
 70
     1
102
RTVSPropertyOp19
 70
     1
102
RTVSPropertyOp20
 70
     1
102
RTVSPropertyOp21
 70
     1
102
RTVSPropertyOp22
 70
     1
102
RTVSPropertyOp23
 70
     1
102
RTVSPropertyOp24
 70
     1
102
RTVSPropertyOp25
 70
     1
102
RTVSPropertyOp26
 70
     1
102
RTVSPropertyOp27
 70
     1
102
RTVSPropertyOp28
 70
     1
102
RTVSPropertyOp29
 70
     1
102
RTVSPropertyOp30
 70
     1
102
RTVSPropertyOp31
 70
     1
102
RTVSPropertyOp32
 70
     1
102
RTVSPropertyOp33
 70
     1
102
RTVSPropertyOp34
 70
     1
102
RTVSPropertyOp35
 70
     1
102
RTVSPropertyOp36
 70
     1
102
RTVSPropertyOp37
 70
     1
102
RTVSPropertyOp38
 70
     1
102
RTVSPropertyOp39
 70
     1
102
RTVSPropertyOp40
 70
     1
102
RTVSPropertyOp41
 70
     1
102
RTVSPropertyOp42
 70
     1
102
RTVSPropertyOp43
 70
     1
102
RTVSPropertyOp44
 70
     1
102
RTVSPropertyOp45
 70
     1
102
RTVSPropertyOp46
 70
     1
102
RTVSPropertyOp47
 70
     1
102
RTVSPropertyOp48
 70
     1
102
RTVSPropertyOp49
 70
     1
102
RTVSPropertyOp50
 70
     1
102
RTVSPropertyOp51
 70
     0
102
RTVSPropertyOp52
 70
     0
102
RTVSPropertyOp53
 70
     1
102
RTVSPropertyOp54
 70
     1
102
RTVSPropertyOp55
 70
     1
102
RTVSPropertyOp56
 70
     1
102
RTVSPropertyOp57
 70
     1
102
RTVSPropertyOp58
 70
     1
102
RTVSPropertyOp59
 70
     1
102
RTVSPropertyOp60
 70
     1
102
RTVSPropertyOp61
 70
     1
102
RTVSPropertyOp62
 70
     1
  0
XRECORD
  5
B64
102
{ACAD_REACTORS
330
B63
102
}
330
B63
100
AcDbXrecord
280
     1
102
RTVSPost2010Prop28
280
     0
102
RTVSPost2010PropOp28
 70
     1
102
RTVSPost2010Prop29
280
     1
102
RTVSPost2010PropOp29
 70
     1
102
RTVSPost2010Prop30
280
     1
102
RTVSPost2010PropOp30
 70
     1
102
RTVSPost2010Prop31
280
     0
102
RTVSPost2010PropOp31
 70
     1
102
RTVSPost2010Prop32
280
     0
102
RTVSPost2010PropOp32
 70
     1
102
RTVSPost2010Prop33
280
     0
102
RTVSPost2010PropOp33
 70
     1
102
RTVSPost2010Prop34
280
     0
102
RTVSPost2010PropOp34
 70
     1
102
RTVSPost2010Prop35
280
     0
102
RTVSPost2010PropOp35
 70
     1
102
RTVSPost2010Prop36
280
     0
102
RTVSPost2010PropOp36
 70
     1
102
RTVSPost2010Prop37
 90
       50
102
RTVSPost2010PropOp37
 70
     1
102
RTVSPost2010Prop38
140
0.0
102
RTVSPost2010PropOp38
 70
     1
102
RTVSPost2010Prop39
140
1.0
102
RTVSPost2010PropOp39
 70
     1
102
RTVSPost2010Prop40
 90
        0
102
RTVSPost2010PropOp40
 70
     1
102
RTVSPost2010Prop41ColorIndex
 90
       18
102
RTVSPost2010Prop41ColorRGB
 90
        0
102
RTVSPost2010PropOp41
 70
     1
102
RTVSPost2010Prop42
 90
       50
102
RTVSPost2010PropOp42
 70
     1
102
RTVSPost2010Prop43
 90
        3
102
RTVSPost2010PropOp43
 70
     1
102
RTVSPost2010Prop44ColorIndex
 90
        5
102
RTVSPost2010Prop44ColorRGB
 90
      255
102
RTVSPost2010PropOp44
 70
     1
102
RTVSPost2010Prop45
280
     0
102
RTVSPost2010PropOp45
 70
     1
102
RTVSPost2010Prop46
 90
       50
102
RTVSPost2010PropOp46
 70
     1
102
RTVSPost2010Prop47
 90
       50
102
RTVSPost2010PropOp47
 70
     1
102
RTVSPost2010Prop48
 90
       50
102
RTVSPost2010PropOp48
 70
     1
102
RTVSPost2010Prop49
280
     0
102
RTVSPost2010PropOp49
 70
     1
102
RTVSPost2010Prop50
 90
       50
102
RTVSPost2010PropOp50
 70
     1
102
RTVSPost2010Prop51ColorIndex
 90
      256
102
RTVSPost2010Prop51ColorRGB
 90
-16777216
102
RTVSPost2010PropOp51
 70
     0
102
RTVSPost2010Prop52
140
1.0
102
RTVSPost2010PropOp52
 70
     0
102
RTVSPost2010Prop53
 90
        2
102
RTVSPost2010PropOp53
 70
     1
102
RTVSPost2010Prop54
  1
strokes_ogs.tif
102
RTVSPost2010PropOp54
 70
     1
102
RTVSPost2010Prop55
280
     0
102
RTVSPost2010PropOp55
 70
     1
102
RTVSPost2010Prop56
140
1.0
102
RTVSPost2010PropOp56
 70
     1
102
RTVSPost2010Prop57
140
1.0
102
RTVSPost2010PropOp57
 70
     1
102
RTVSPropertyOp0
 70
     1
102
RTVSPropertyOp1
 70
     1
102
RTVSPropertyOp2
 70
     1
102
RTVSPropertyOp3
 70
     1
102
RTVSPropertyOp4
 70
     1
102
RTVSPropertyOp5
 70
     1
102
RTVSPropertyOp6
 70
     1
102
RTVSPropertyOp7
 70
     1
102
RTVSPropertyOp8
 70
     1
102
RTVSPropertyOp9
 70
     1
102
RTVSPropertyOp10
 70
     1
102
RTVSPropertyOp11
 70
     1
102
RTVSPropertyOp12
 70
     1
102
RTVSPropertyOp13
 70
     1
102
RTVSPropertyOp14
 70
     1
102
RTVSPropertyOp15
 70
     1
102
RTVSPropertyOp16
 70
     1
102
RTVSPropertyOp17
 70
     1
102
RTVSPropertyOp18
 70
     1
102
RTVSPropertyOp19
 70
     1
102
RTVSPropertyOp20
 70
     1
102
RTVSPropertyOp21
 70
     1
102
RTVSPropertyOp22
 70
     1
102
RTVSPropertyOp23
 70
     1
102
RTVSPropertyOp24
 70
     1
102
RTVSPropertyOp25
 70
     1
102
RTVSPropertyOp26
 70
     1
102
RTVSPropertyOp27
 70
     1
102
RTVSPropertyOp28
 70
     1
102
RTVSPropertyOp29
 70
     1
102
RTVSPropertyOp30
 70
     1
102
RTVSPropertyOp31
 70
     1
102
RTVSPropertyOp32
 70
     1
102
RTVSPropertyOp33
 70
     1
102
RTVSPropertyOp34
 70
     1
102
RTVSPropertyOp35
 70
     1
102
RTVSPropertyOp36
 70
     1
102
RTVSPropertyOp37
 70
     1
102
RTVSPropertyOp38
 70
     1
102
RTVSPropertyOp39
 70
     1
102
RTVSPropertyOp40
 70
     1
102
RTVSPropertyOp41
 70
     1
102
RTVSPropertyOp42
 70
     1
102
RTVSPropertyOp43
 70
     1
102
RTVSPropertyOp44
 70
     1
102
RTVSPropertyOp45
 70
     1
102
RTVSPropertyOp46
 70
     1
102
RTVSPropertyOp47
 70
     1
102
RTVSPropertyOp48
 70
     1
102
RTVSPropertyOp49
 70
     1
102
RTVSPropertyOp50
 70
     1
102
RTVSPropertyOp51
 70
     0
102
RTVSPropertyOp52
 70
     0
102
RTVSPropertyOp53
 70
     1
102
RTVSPropertyOp54
 70
     1
102
RTVSPropertyOp55
 70
     1
102
RTVSPropertyOp56
 70
     1
102
RTVSPropertyOp57
 70
     1
102
RTVSPropertyOp58
 70
     1
102
RTVSPropertyOp59
 70
     1
102
RTVSPropertyOp60
 70
     1
102
RTVSPropertyOp61
 70
     1
102
RTVSPropertyOp62
 70
     1
  0
XRECORD
  5
B6C
102
{ACAD_REACTORS
330
B6B
102
}
330
B6B
100
AcDbXrecord
280
     1
102
RTVSPost2010Prop28
280
     0
102
RTVSPost2010PropOp28
 70
     1
102
RTVSPost2010Prop29
280
     1
102
RTVSPost2010PropOp29
 70
     1
102
RTVSPost2010Prop30
280
     1
102
RTVSPost2010PropOp30
 70
     1
102
RTVSPost2010Prop31
280
     0
102
RTVSPost2010PropOp31
 70
     1
102
RTVSPost2010Prop32
280
     0
102
RTVSPost2010PropOp32
 70
     1
102
RTVSPost2010Prop33
280
     0
102
RTVSPost2010PropOp33
 70
     1
102
RTVSPost2010Prop34
280
     0
102
RTVSPost2010PropOp34
 70
     1
102
RTVSPost2010Prop35
280
     0
102
RTVSPost2010PropOp35
 70
     1
102
RTVSPost2010Prop36
280
     0
102
RTVSPost2010PropOp36
 70
     1
102
RTVSPost2010Prop37
 90
       50
102
RTVSPost2010PropOp37
 70
     1
102
RTVSPost2010Prop38
140
0.0
102
RTVSPost2010PropOp38
 70
     1
102
RTVSPost2010Prop39
140
1.0
102
RTVSPost2010PropOp39
 70
     1
102
RTVSPost2010Prop40
 90
        0
102
RTVSPost2010PropOp40
 70
     1
102
RTVSPost2010Prop41ColorIndex
 90
       18
102
RTVSPost2010Prop41ColorRGB
 90
        0
102
RTVSPost2010PropOp41
 70
     1
102
RTVSPost2010Prop42
 90
       50
102
RTVSPost2010PropOp42
 70
     1
102
RTVSPost2010Prop43
 90
        3
102
RTVSPost2010PropOp43
 70
     1
102
RTVSPost2010Prop44ColorIndex
 90
        5
102
RTVSPost2010Prop44ColorRGB
 90
      255
102
RTVSPost2010PropOp44
 70
     1
102
RTVSPost2010Prop45
280
     0
102
RTVSPost2010PropOp45
 70
     1
102
RTVSPost2010Prop46
 90
       50
102
RTVSPost2010PropOp46
 70
     1
102
RTVSPost2010Prop47
 90
       50
102
RTVSPost2010PropOp47
 70
     1
102
RTVSPost2010Prop48
 90
       50
102
RTVSPost2010PropOp48
 70
     1
102
RTVSPost2010Prop49
280
     0
102
RTVSPost2010PropOp49
 70
     1
102
RTVSPost2010Prop50
 90
       50
102
RTVSPost2010PropOp50
 70
     1
102
RTVSPost2010Prop51ColorIndex
 90
      256
102
RTVSPost2010Prop51ColorRGB
 90
-16777216
102
RTVSPost2010PropOp51
 70
     0
102
RTVSPost2010Prop52
140
1.0
102
RTVSPost2010PropOp52
 70
     0
102
RTVSPost2010Prop53
 90
        2
102
RTVSPost2010PropOp53
 70
     1
102
RTVSPost2010Prop54
  1
strokes_ogs.tif
102
RTVSPost2010PropOp54
 70
     1
102
RTVSPost2010Prop55
280
     0
102
RTVSPost2010PropOp55
 70
     1
102
RTVSPost2010Prop56
140
1.0
102
RTVSPost2010PropOp56
 70
     1
102
RTVSPost2010Prop57
140
1.0
102
RTVSPost2010PropOp57
 70
     1
102
RTVSPropertyOp0
 70
     1
102
RTVSPropertyOp1
 70
     1
102
RTVSPropertyOp2
 70
     1
102
RTVSPropertyOp3
 70
     1
102
RTVSPropertyOp4
 70
     1
102
RTVSPropertyOp5
 70
     1
102
RTVSPropertyOp6
 70
     1
102
RTVSPropertyOp7
 70
     1
102
RTVSPropertyOp8
 70
     1
102
RTVSPropertyOp9
 70
     1
102
RTVSPropertyOp10
 70
     1
102
RTVSPropertyOp11
 70
     1
102
RTVSPropertyOp12
 70
     1
102
RTVSPropertyOp13
 70
     1
102
RTVSPropertyOp14
 70
     1
102
RTVSPropertyOp15
 70
     1
102
RTVSPropertyOp16
 70
     1
102
RTVSPropertyOp17
 70
     1
102
RTVSPropertyOp18
 70
     1
102
RTVSPropertyOp19
 70
     1
102
RTVSPropertyOp20
 70
     1
102
RTVSPropertyOp21
 70
     1
102
RTVSPropertyOp22
 70
     1
102
RTVSPropertyOp23
 70
     1
102
RTVSPropertyOp24
 70
     1
102
RTVSPropertyOp25
 70
     1
102
RTVSPropertyOp26
 70
     1
102
RTVSPropertyOp27
 70
     1
102
RTVSPropertyOp28
 70
     1
102
RTVSPropertyOp29
 70
     1
102
RTVSPropertyOp30
 70
     1
102
RTVSPropertyOp31
 70
     1
102
RTVSPropertyOp32
 70
     1
102
RTVSPropertyOp33
 70
     1
102
RTVSPropertyOp34
 70
     1
102
RTVSPropertyOp35
 70
     1
102
RTVSPropertyOp36
 70
     1
102
RTVSPropertyOp37
 70
     1
102
RTVSPropertyOp38
 70
     1
102
RTVSPropertyOp39
 70
     1
102
RTVSPropertyOp40
 70
     1
102
RTVSPropertyOp41
 70
     1
102
RTVSPropertyOp42
 70
     1
102
RTVSPropertyOp43
 70
     1
102
RTVSPropertyOp44
 70
     1
102
RTVSPropertyOp45
 70
     1
102
RTVSPropertyOp46
 70
     1
102
RTVSPropertyOp47
 70
     1
102
RTVSPropertyOp48
 70
     1
102
RTVSPropertyOp49
 70
     1
102
RTVSPropertyOp50
 70
     1
102
RTVSPropertyOp51
 70
     0
102
RTVSPropertyOp52
 70
     0
102
RTVSPropertyOp53
 70
     1
102
RTVSPropertyOp54
 70
     1
102
RTVSPropertyOp55
 70
     1
102
RTVSPropertyOp56
 70
     1
102
RTVSPropertyOp57
 70
     1
102
RTVSPropertyOp58
 70
     1
102
RTVSPropertyOp59
 70
     1
102
RTVSPropertyOp60
 70
     1
102
RTVSPropertyOp61
 70
     1
102
RTVSPropertyOp62
 70
     1
  0
XRECORD
  5
B5E
102
{ACAD_REACTORS
330
B5D
102
}
330
B5D
100
AcDbXrecord
280
     1
102
RTVSPost2010Prop28
280
     0
102
RTVSPost2010PropOp28
 70
     1
102
RTVSPost2010Prop29
280
     1
102
RTVSPost2010PropOp29
 70
     1
102
RTVSPost2010Prop30
280
     1
102
RTVSPost2010PropOp30
 70
     1
102
RTVSPost2010Prop31
280
     0
102
RTVSPost2010PropOp31
 70
     1
102
RTVSPost2010Prop32
280
     0
102
RTVSPost2010PropOp32
 70
     1
102
RTVSPost2010Prop33
280
     0
102
RTVSPost2010PropOp33
 70
     1
102
RTVSPost2010Prop34
280
     0
102
RTVSPost2010PropOp34
 70
     1
102
RTVSPost2010Prop35
280
     0
102
RTVSPost2010PropOp35
 70
     1
102
RTVSPost2010Prop36
280
     0
102
RTVSPost2010PropOp36
 70
     1
102
RTVSPost2010Prop37
 90
       50
102
RTVSPost2010PropOp37
 70
     1
102
RTVSPost2010Prop38
140
0.0
102
RTVSPost2010PropOp38
 70
     1
102
RTVSPost2010Prop39
140
1.0
102
RTVSPost2010PropOp39
 70
     1
102
RTVSPost2010Prop40
 90
        0
102
RTVSPost2010PropOp40
 70
     1
102
RTVSPost2010Prop41ColorIndex
 90
       18
102
RTVSPost2010Prop41ColorRGB
 90
        0
102
RTVSPost2010PropOp41
 70
     1
102
RTVSPost2010Prop42
 90
       50
102
RTVSPost2010PropOp42
 70
     1
102
RTVSPost2010Prop43
 90
        3
102
RTVSPost2010PropOp43
 70
     1
102
RTVSPost2010Prop44ColorIndex
 90
        5
102
RTVSPost2010Prop44ColorRGB
 90
      255
102
RTVSPost2010PropOp44
 70
     1
102
RTVSPost2010Prop45
280
     0
102
RTVSPost2010PropOp45
 70
     1
102
RTVSPost2010Prop46
 90
       50
102
RTVSPost2010PropOp46
 70
     1
102
RTVSPost2010Prop47
 90
       50
102
RTVSPost2010PropOp47
 70
     1
102
RTVSPost2010Prop48
 90
       50
102
RTVSPost2010PropOp48
 70
     1
102
RTVSPost2010Prop49
280
     0
102
RTVSPost2010PropOp49
 70
     1
102
RTVSPost2010Prop50
 90
       50
102
RTVSPost2010PropOp50
 70
     1
102
RTVSPost2010Prop51ColorIndex
 90
      256
102
RTVSPost2010Prop51ColorRGB
 90
-16777216
102
RTVSPost2010PropOp51
 70
     0
102
RTVSPost2010Prop52
140
1.0
102
RTVSPost2010PropOp52
 70
     0
102
RTVSPost2010Prop53
 90
        2
102
RTVSPost2010PropOp53
 70
     1
102
RTVSPost2010Prop54
  1
strokes_ogs.tif
102
RTVSPost2010PropOp54
 70
     1
102
RTVSPost2010Prop55
280
     0
102
RTVSPost2010PropOp55
 70
     1
102
RTVSPost2010Prop56
140
1.0
102
RTVSPost2010PropOp56
 70
     1
102
RTVSPost2010Prop57
140
1.0
102
RTVSPost2010PropOp57
 70
     1
102
RTVSPropertyOp0
 70
     1
102
RTVSPropertyOp1
 70
     1
102
RTVSPropertyOp2
 70
     1
102
RTVSPropertyOp3
 70
     1
102
RTVSPropertyOp4
 70
     1
102
RTVSPropertyOp5
 70
     1
102
RTVSPropertyOp6
 70
     1
102
RTVSPropertyOp7
 70
     1
102
RTVSPropertyOp8
 70
     1
102
RTVSPropertyOp9
 70
     1
102
RTVSPropertyOp10
 70
     1
102
RTVSPropertyOp11
 70
     1
102
RTVSPropertyOp12
 70
     1
102
RTVSPropertyOp13
 70
     1
102
RTVSPropertyOp14
 70
     1
102
RTVSPropertyOp15
 70
     1
102
RTVSPropertyOp16
 70
     1
102
RTVSPropertyOp17
 70
     1
102
RTVSPropertyOp18
 70
     1
102
RTVSPropertyOp19
 70
     1
102
RTVSPropertyOp20
 70
     1
102
RTVSPropertyOp21
 70
     1
102
RTVSPropertyOp22
 70
     1
102
RTVSPropertyOp23
 70
     1
102
RTVSPropertyOp24
 70
     1
102
RTVSPropertyOp25
 70
     1
102
RTVSPropertyOp26
 70
     1
102
RTVSPropertyOp27
 70
     1
102
RTVSPropertyOp28
 70
     1
102
RTVSPropertyOp29
 70
     1
102
RTVSPropertyOp30
 70
     1
102
RTVSPropertyOp31
 70
     1
102
RTVSPropertyOp32
 70
     1
102
RTVSPropertyOp33
 70
     1
102
RTVSPropertyOp34
 70
     1
102
RTVSPropertyOp35
 70
     1
102
RTVSPropertyOp36
 70
     1
102
RTVSPropertyOp37
 70
     1
102
RTVSPropertyOp38
 70
     1
102
RTVSPropertyOp39
 70
     1
102
RTVSPropertyOp40
 70
     1
102
RTVSPropertyOp41
 70
     1
102
RTVSPropertyOp42
 70
     1
102
RTVSPropertyOp43
 70
     1
102
RTVSPropertyOp44
 70
     1
102
RTVSPropertyOp45
 70
     1
102
RTVSPropertyOp46
 70
     1
102
RTVSPropertyOp47
 70
     1
102
RTVSPropertyOp48
 70
     1
102
RTVSPropertyOp49
 70
     1
102
RTVSPropertyOp50
 70
     1
102
RTVSPropertyOp51
 70
     0
102
RTVSPropertyOp52
 70
     0
102
RTVSPropertyOp53
 70
     1
102
RTVSPropertyOp54
 70
     1
102
RTVSPropertyOp55
 70
     1
102
RTVSPropertyOp56
 70
     1
102
RTVSPropertyOp57
 70
     1
102
RTVSPropertyOp58
 70
     1
102
RTVSPropertyOp59
 70
     1
102
RTVSPropertyOp60
 70
     1
102
RTVSPropertyOp61
 70
     1
102
RTVSPropertyOp62
 70
     1
  0
XRECORD
  5
B62
102
{ACAD_REACTORS
330
B61
102
}
330
B61
100
AcDbXrecord
280
     1
102
RTVSPost2010Prop28
280
     0
102
RTVSPost2010PropOp28
 70
     1
102
RTVSPost2010Prop29
280
     1
102
RTVSPost2010PropOp29
 70
     1
102
RTVSPost2010Prop30
280
     1
102
RTVSPost2010PropOp30
 70
     1
102
RTVSPost2010Prop31
280
     0
102
RTVSPost2010PropOp31
 70
     1
102
RTVSPost2010Prop32
280
     0
102
RTVSPost2010PropOp32
 70
     1
102
RTVSPost2010Prop33
280
     0
102
RTVSPost2010PropOp33
 70
     1
102
RTVSPost2010Prop34
280
     0
102
RTVSPost2010PropOp34
 70
     1
102
RTVSPost2010Prop35
280
     0
102
RTVSPost2010PropOp35
 70
     1
102
RTVSPost2010Prop36
280
     0
102
RTVSPost2010PropOp36
 70
     1
102
RTVSPost2010Prop37
 90
       50
102
RTVSPost2010PropOp37
 70
     1
102
RTVSPost2010Prop38
140
0.0
102
RTVSPost2010PropOp38
 70
     1
102
RTVSPost2010Prop39
140
1.0
102
RTVSPost2010PropOp39
 70
     1
102
RTVSPost2010Prop40
 90
        0
102
RTVSPost2010PropOp40
 70
     1
102
RTVSPost2010Prop41ColorIndex
 90
       18
102
RTVSPost2010Prop41ColorRGB
 90
        0
102
RTVSPost2010PropOp41
 70
     1
102
RTVSPost2010Prop42
 90
       50
102
RTVSPost2010PropOp42
 70
     1
102
RTVSPost2010Prop43
 90
        3
102
RTVSPost2010PropOp43
 70
     1
102
RTVSPost2010Prop44ColorIndex
 90
        5
102
RTVSPost2010Prop44ColorRGB
 90
      255
102
RTVSPost2010PropOp44
 70
     1
102
RTVSPost2010Prop45
280
     0
102
RTVSPost2010PropOp45
 70
     1
102
RTVSPost2010Prop46
 90
       50
102
RTVSPost2010PropOp46
 70
     1
102
RTVSPost2010Prop47
 90
       50
102
RTVSPost2010PropOp47
 70
     1
102
RTVSPost2010Prop48
 90
       50
102
RTVSPost2010PropOp48
 70
     1
102
RTVSPost2010Prop49
280
     0
102
RTVSPost2010PropOp49
 70
     1
102
RTVSPost2010Prop50
 90
       50
102
RTVSPost2010PropOp50
 70
     1
102
RTVSPost2010Prop51ColorIndex
 90
      256
102
RTVSPost2010Prop51ColorRGB
 90
-16777216
102
RTVSPost2010PropOp51
 70
     0
102
RTVSPost2010Prop52
140
1.0
102
RTVSPost2010PropOp52
 70
     0
102
RTVSPost2010Prop53
 90
        2
102
RTVSPost2010PropOp53
 70
     1
102
RTVSPost2010Prop54
  1
strokes_ogs.tif
102
RTVSPost2010PropOp54
 70
     1
102
RTVSPost2010Prop55
280
     0
102
RTVSPost2010PropOp55
 70
     1
102
RTVSPost2010Prop56
140
1.0
102
RTVSPost2010PropOp56
 70
     1
102
RTVSPost2010Prop57
140
1.0
102
RTVSPost2010PropOp57
 70
     1
102
RTVSPropertyOp0
 70
     1
102
RTVSPropertyOp1
 70
     1
102
RTVSPropertyOp2
 70
     1
102
RTVSPropertyOp3
 70
     1
102
RTVSPropertyOp4
 70
     1
102
RTVSPropertyOp5
 70
     1
102
RTVSPropertyOp6
 70
     1
102
RTVSPropertyOp7
 70
     1
102
RTVSPropertyOp8
 70
     1
102
RTVSPropertyOp9
 70
     1
102
RTVSPropertyOp10
 70
     1
102
RTVSPropertyOp11
 70
     1
102
RTVSPropertyOp12
 70
     1
102
RTVSPropertyOp13
 70
     1
102
RTVSPropertyOp14
 70
     1
102
RTVSPropertyOp15
 70
     1
102
RTVSPropertyOp16
 70
     1
102
RTVSPropertyOp17
 70
     1
102
RTVSPropertyOp18
 70
     1
102
RTVSPropertyOp19
 70
     1
102
RTVSPropertyOp20
 70
     1
102
RTVSPropertyOp21
 70
     1
102
RTVSPropertyOp22
 70
     1
102
RTVSPropertyOp23
 70
     1
102
RTVSPropertyOp24
 70
     1
102
RTVSPropertyOp25
 70
     1
102
RTVSPropertyOp26
 70
     1
102
RTVSPropertyOp27
 70
     1
102
RTVSPropertyOp28
 70
     1
102
RTVSPropertyOp29
 70
     1
102
RTVSPropertyOp30
 70
     1
102
RTVSPropertyOp31
 70
     1
102
RTVSPropertyOp32
 70
     1
102
RTVSPropertyOp33
 70
     1
102
RTVSPropertyOp34
 70
     1
102
RTVSPropertyOp35
 70
     1
102
RTVSPropertyOp36
 70
     1
102
RTVSPropertyOp37
 70
     1
102
RTVSPropertyOp38
 70
     1
102
RTVSPropertyOp39
 70
     1
102
RTVSPropertyOp40
 70
     1
102
RTVSPropertyOp41
 70
     1
102
RTVSPropertyOp42
 70
     1
102
RTVSPropertyOp43
 70
     1
102
RTVSPropertyOp44
 70
     1
102
RTVSPropertyOp45
 70
     1
102
RTVSPropertyOp46
 70
     1
102
RTVSPropertyOp47
 70
     1
102
RTVSPropertyOp48
 70
     1
102
RTVSPropertyOp49
 70
     1
102
RTVSPropertyOp50
 70
     1
102
RTVSPropertyOp51
 70
     0
102
RTVSPropertyOp52
 70
     0
102
RTVSPropertyOp53
 70
     1
102
RTVSPropertyOp54
 70
     1
102
RTVSPropertyOp55
 70
     1
102
RTVSPropertyOp56
 70
     1
102
RTVSPropertyOp57
 70
     1
102
RTVSPropertyOp58
 70
     1
102
RTVSPropertyOp59
 70
     1
102
RTVSPropertyOp60
 70
     1
102
RTVSPropertyOp61
 70
     1
102
RTVSPropertyOp62
 70
     1
  0
XRECORD
  5
B72
102
{ACAD_REACTORS
330
B71
102
}
330
B71
100
AcDbXrecord
280
     1
102
RTVSPost2010Prop28
280
     0
102
RTVSPost2010PropOp28
 70
     1
102
RTVSPost2010Prop29
280
     1
102
RTVSPost2010PropOp29
 70
     1
102
RTVSPost2010Prop30
280
     1
102
RTVSPost2010PropOp30
 70
     1
102
RTVSPost2010Prop31
280
     0
102
RTVSPost2010PropOp31
 70
     1
102
RTVSPost2010Prop32
280
     0
102
RTVSPost2010PropOp32
 70
     1
102
RTVSPost2010Prop33
280
     0
102
RTVSPost2010PropOp33
 70
     1
102
RTVSPost2010Prop34
280
     0
102
RTVSPost2010PropOp34
 70
     1
102
RTVSPost2010Prop35
280
     0
102
RTVSPost2010PropOp35
 70
     1
102
RTVSPost2010Prop36
280
     0
102
RTVSPost2010PropOp36
 70
     1
102
RTVSPost2010Prop37
 90
       50
102
RTVSPost2010PropOp37
 70
     1
102
RTVSPost2010Prop38
140
0.0
102
RTVSPost2010PropOp38
 70
     1
102
RTVSPost2010Prop39
140
1.0
102
RTVSPost2010PropOp39
 70
     1
102
RTVSPost2010Prop40
 90
        0
102
RTVSPost2010PropOp40
 70
     1
102
RTVSPost2010Prop41ColorIndex
 90
       18
102
RTVSPost2010Prop41ColorRGB
 90
        0
102
RTVSPost2010PropOp41
 70
     1
102
RTVSPost2010Prop42
 90
       50
102
RTVSPost2010PropOp42
 70
     1
102
RTVSPost2010Prop43
 90
        3
102
RTVSPost2010PropOp43
 70
     1
102
RTVSPost2010Prop44ColorIndex
 90
        5
102
RTVSPost2010Prop44ColorRGB
 90
      255
102
RTVSPost2010PropOp44
 70
     1
102
RTVSPost2010Prop45
280
     0
102
RTVSPost2010PropOp45
 70
     1
102
RTVSPost2010Prop46
 90
       50
102
RTVSPost2010PropOp46
 70
     1
102
RTVSPost2010Prop47
 90
       50
102
RTVSPost2010PropOp47
 70
     1
102
RTVSPost2010Prop48
 90
       50
102
RTVSPost2010PropOp48
 70
     1
102
RTVSPost2010Prop49
280
     0
102
RTVSPost2010PropOp49
 70
     1
102
RTVSPost2010Prop50
 90
       50
102
RTVSPost2010PropOp50
 70
     1
102
RTVSPost2010Prop51ColorIndex
 90
      256
102
RTVSPost2010Prop51ColorRGB
 90
-16777216
102
RTVSPost2010PropOp51
 70
     0
102
RTVSPost2010Prop52
140
1.0
102
RTVSPost2010PropOp52
 70
     0
102
RTVSPost2010Prop53
 90
        2
102
RTVSPost2010PropOp53
 70
     1
102
RTVSPost2010Prop54
  1
strokes_ogs.tif
102
RTVSPost2010PropOp54
 70
     1
102
RTVSPost2010Prop55
280
     0
102
RTVSPost2010PropOp55
 70
     1
102
RTVSPost2010Prop56
140
1.0
102
RTVSPost2010PropOp56
 70
     1
102
RTVSPost2010Prop57
140
1.0
102
RTVSPost2010PropOp57
 70
     1
102
RTVSPropertyOp0
 70
     0
102
RTVSPropertyOp1
 70
     0
102
RTVSPropertyOp2
 70
     0
102
RTVSPropertyOp3
 70
     0
102
RTVSPropertyOp4
 70
     0
102
RTVSPropertyOp5
 70
     0
102
RTVSPropertyOp6
 70
     0
102
RTVSPropertyOp7
 70
     0
102
RTVSPropertyOp8
 70
     0
102
RTVSPropertyOp9
 70
     0
102
RTVSPropertyOp10
 70
     0
102
RTVSPropertyOp11
 70
     0
102
RTVSPropertyOp12
 70
     0
102
RTVSPropertyOp13
 70
     0
102
RTVSPropertyOp14
 70
     2
102
RTVSPropertyOp15
 70
     0
102
RTVSPropertyOp16
 70
     0
102
RTVSPropertyOp17
 70
     0
102
RTVSPropertyOp18
 70
     0
102
RTVSPropertyOp19
 70
     0
102
RTVSPropertyOp20
 70
     0
102
RTVSPropertyOp21
 70
     0
102
RTVSPropertyOp22
 70
     0
102
RTVSPropertyOp23
 70
     0
102
RTVSPropertyOp24
 70
     0
102
RTVSPropertyOp25
 70
     0
102
RTVSPropertyOp26
 70
     0
102
RTVSPropertyOp27
 70
     0
102
RTVSPropertyOp28
 70
     1
102
RTVSPropertyOp29
 70
     1
102
RTVSPropertyOp30
 70
     1
102
RTVSPropertyOp31
 70
     1
102
RTVSPropertyOp32
 70
     1
102
RTVSPropertyOp33
 70
     1
102
RTVSPropertyOp34
 70
     1
102
RTVSPropertyOp35
 70
     1
102
RTVSPropertyOp36
 70
     1
102
RTVSPropertyOp37
 70
     1
102
RTVSPropertyOp38
 70
     1
102
RTVSPropertyOp39
 70
     1
102
RTVSPropertyOp40
 70
     1
102
RTVSPropertyOp41
 70
     1
102
RTVSPropertyOp42
 70
     1
102
RTVSPropertyOp43
 70
     1
102
RTVSPropertyOp44
 70
     1
102
RTVSPropertyOp45
 70
     1
102
RTVSPropertyOp46
 70
     1
102
RTVSPropertyOp47
 70
     1
102
RTVSPropertyOp48
 70
     1
102
RTVSPropertyOp49
 70
     1
102
RTVSPropertyOp50
 70
     1
102
RTVSPropertyOp51
 70
     0
102
RTVSPropertyOp52
 70
     0
102
RTVSPropertyOp53
 70
     1
102
RTVSPropertyOp54
 70
     1
102
RTVSPropertyOp55
 70
     1
102
RTVSPropertyOp56
 70
     1
102
RTVSPropertyOp57
 70
     1
102
RTVSPropertyOp58
 70
     1
102
RTVSPropertyOp59
 70
     1
102
RTVSPropertyOp60
 70
     1
102
RTVSPropertyOp61
 70
     1
102
RTVSPropertyOp62
 70
     1
  0
XRECORD
  5
B6A
102
{ACAD_REACTORS
330
B69
102
}
330
B69
100
AcDbXrecord
280
     1
102
RTVSPost2010Prop28
280
     0
102
RTVSPost2010PropOp28
 70
     1
102
RTVSPost2010Prop29
280
     1
102
RTVSPost2010PropOp29
 70
     1
102
RTVSPost2010Prop30
280
     1
102
RTVSPost2010PropOp30
 70
     1
102
RTVSPost2010Prop31
280
     0
102
RTVSPost2010PropOp31
 70
     1
102
RTVSPost2010Prop32
280
     0
102
RTVSPost2010PropOp32
 70
     1
102
RTVSPost2010Prop33
280
     0
102
RTVSPost2010PropOp33
 70
     1
102
RTVSPost2010Prop34
280
     0
102
RTVSPost2010PropOp34
 70
     1
102
RTVSPost2010Prop35
280
     0
102
RTVSPost2010PropOp35
 70
     1
102
RTVSPost2010Prop36
280
     0
102
RTVSPost2010PropOp36
 70
     1
102
RTVSPost2010Prop37
 90
       50
102
RTVSPost2010PropOp37
 70
     1
102
RTVSPost2010Prop38
140
0.0
102
RTVSPost2010PropOp38
 70
     1
102
RTVSPost2010Prop39
140
1.0
102
RTVSPost2010PropOp39
 70
     1
102
RTVSPost2010Prop40
 90
        0
102
RTVSPost2010PropOp40
 70
     1
102
RTVSPost2010Prop41ColorIndex
 90
       18
102
RTVSPost2010Prop41ColorRGB
 90
        0
102
RTVSPost2010PropOp41
 70
     1
102
RTVSPost2010Prop42
 90
       50
102
RTVSPost2010PropOp42
 70
     1
102
RTVSPost2010Prop43
 90
        3
102
RTVSPost2010PropOp43
 70
     1
102
RTVSPost2010Prop44ColorIndex
 90
        5
102
RTVSPost2010Prop44ColorRGB
 90
      255
102
RTVSPost2010PropOp44
 70
     1
102
RTVSPost2010Prop45
280
     0
102
RTVSPost2010PropOp45
 70
     1
102
RTVSPost2010Prop46
 90
       50
102
RTVSPost2010PropOp46
 70
     1
102
RTVSPost2010Prop47
 90
       50
102
RTVSPost2010PropOp47
 70
     1
102
RTVSPost2010Prop48
 90
       50
102
RTVSPost2010PropOp48
 70
     1
102
RTVSPost2010Prop49
280
     0
102
RTVSPost2010PropOp49
 70
     1
102
RTVSPost2010Prop50
 90
       50
102
RTVSPost2010PropOp50
 70
     1
102
RTVSPost2010Prop51ColorIndex
 90
      256
102
RTVSPost2010Prop51ColorRGB
 90
-16777216
102
RTVSPost2010PropOp51
 70
     0
102
RTVSPost2010Prop52
140
1.0
102
RTVSPost2010PropOp52
 70
     0
102
RTVSPost2010Prop53
 90
        2
102
RTVSPost2010PropOp53
 70
     1
102
RTVSPost2010Prop54
  1
strokes_ogs.tif
102
RTVSPost2010PropOp54
 70
     1
102
RTVSPost2010Prop55
280
     0
102
RTVSPost2010PropOp55
 70
     1
102
RTVSPost2010Prop56
140
1.0
102
RTVSPost2010PropOp56
 70
     1
102
RTVSPost2010Prop57
140
1.0
102
RTVSPost2010PropOp57
 70
     1
102
RTVSPropertyOp0
 70
     1
102
RTVSPropertyOp1
 70
     1
102
RTVSPropertyOp2
 70
     1
102
RTVSPropertyOp3
 70
     1
102
RTVSPropertyOp4
 70
     1
102
RTVSPropertyOp5
 70
     1
102
RTVSPropertyOp6
 70
     1
102
RTVSPropertyOp7
 70
     1
102
RTVSPropertyOp8
 70
     1
102
RTVSPropertyOp9
 70
     1
102
RTVSPropertyOp10
 70
     1
102
RTVSPropertyOp11
 70
     1
102
RTVSPropertyOp12
 70
     1
102
RTVSPropertyOp13
 70
     1
102
RTVSPropertyOp14
 70
     1
102
RTVSPropertyOp15
 70
     1
102
RTVSPropertyOp16
 70
     1
102
RTVSPropertyOp17
 70
     1
102
RTVSPropertyOp18
 70
     1
102
RTVSPropertyOp19
 70
     1
102
RTVSPropertyOp20
 70
     1
102
RTVSPropertyOp21
 70
     1
102
RTVSPropertyOp22
 70
     1
102
RTVSPropertyOp23
 70
     1
102
RTVSPropertyOp24
 70
     1
102
RTVSPropertyOp25
 70
     1
102
RTVSPropertyOp26
 70
     1
102
RTVSPropertyOp27
 70
     1
102
RTVSPropertyOp28
 70
     1
102
RTVSPropertyOp29
 70
     1
102
RTVSPropertyOp30
 70
     1
102
RTVSPropertyOp31
 70
     1
102
RTVSPropertyOp32
 70
     1
102
RTVSPropertyOp33
 70
     1
102
RTVSPropertyOp34
 70
     1
102
RTVSPropertyOp35
 70
     1
102
RTVSPropertyOp36
 70
     1
102
RTVSPropertyOp37
 70
     1
102
RTVSPropertyOp38
 70
     1
102
RTVSPropertyOp39
 70
     1
102
RTVSPropertyOp40
 70
     1
102
RTVSPropertyOp41
 70
     1
102
RTVSPropertyOp42
 70
     1
102
RTVSPropertyOp43
 70
     1
102
RTVSPropertyOp44
 70
     1
102
RTVSPropertyOp45
 70
     1
102
RTVSPropertyOp46
 70
     1
102
RTVSPropertyOp47
 70
     1
102
RTVSPropertyOp48
 70
     1
102
RTVSPropertyOp49
 70
     1
102
RTVSPropertyOp50
 70
     1
102
RTVSPropertyOp51
 70
     0
102
RTVSPropertyOp52
 70
     0
102
RTVSPropertyOp53
 70
     1
102
RTVSPropertyOp54
 70
     1
102
RTVSPropertyOp55
 70
     1
102
RTVSPropertyOp56
 70
     1
102
RTVSPropertyOp57
 70
     1
102
RTVSPropertyOp58
 70
     1
102
RTVSPropertyOp59
 70
     1
102
RTVSPropertyOp60
 70
     1
102
RTVSPropertyOp61
 70
     1
102
RTVSPropertyOp62
 70
     1
  0
XRECORD
  5
B4E
102
{ACAD_REACTORS
330
B4D
102
}
330
B4D
100
AcDbXrecord
280
     1
102
RTVSPost2010Prop28
280
     0
102
RTVSPost2010PropOp28
 70
     1
102
RTVSPost2010Prop29
280
     1
102
RTVSPost2010PropOp29
 70
     1
102
RTVSPost2010Prop30
280
     1
102
RTVSPost2010PropOp30
 70
     1
102
RTVSPost2010Prop31
280
     0
102
RTVSPost2010PropOp31
 70
     1
102
RTVSPost2010Prop32
280
     0
102
RTVSPost2010PropOp32
 70
     1
102
RTVSPost2010Prop33
280
     0
102
RTVSPost2010PropOp33
 70
     1
102
RTVSPost2010Prop34
280
     0
102
RTVSPost2010PropOp34
 70
     1
102
RTVSPost2010Prop35
280
     0
102
RTVSPost2010PropOp35
 70
     1
102
RTVSPost2010Prop36
280
     0
102
RTVSPost2010PropOp36
 70
     1
102
RTVSPost2010Prop37
 90
       50
102
RTVSPost2010PropOp37
 70
     1
102
RTVSPost2010Prop38
140
0.0
102
RTVSPost2010PropOp38
 70
     1
102
RTVSPost2010Prop39
140
1.0
102
RTVSPost2010PropOp39
 70
     1
102
RTVSPost2010Prop40
 90
        0
102
RTVSPost2010PropOp40
 70
     1
102
RTVSPost2010Prop41ColorIndex
 90
       18
102
RTVSPost2010Prop41ColorRGB
 90
        0
102
RTVSPost2010PropOp41
 70
     1
102
RTVSPost2010Prop42
 90
       50
102
RTVSPost2010PropOp42
 70
     1
102
RTVSPost2010Prop43
 90
        3
102
RTVSPost2010PropOp43
 70
     1
102
RTVSPost2010Prop44ColorIndex
 90
        5
102
RTVSPost2010Prop44ColorRGB
 90
      255
102
RTVSPost2010PropOp44
 70
     1
102
RTVSPost2010Prop45
280
     0
102
RTVSPost2010PropOp45
 70
     1
102
RTVSPost2010Prop46
 90
       50
102
RTVSPost2010PropOp46
 70
     1
102
RTVSPost2010Prop47
 90
       50
102
RTVSPost2010PropOp47
 70
     1
102
RTVSPost2010Prop48
 90
       50
102
RTVSPost2010PropOp48
 70
     1
102
RTVSPost2010Prop49
280
     0
102
RTVSPost2010PropOp49
 70
     1
102
RTVSPost2010Prop50
 90
       50
102
RTVSPost2010PropOp50
 70
     1
102
RTVSPost2010Prop51ColorIndex
 90
      256
102
RTVSPost2010Prop51ColorRGB
 90
-16777216
102
RTVSPost2010PropOp51
 70
     0
102
RTVSPost2010Prop52
140
1.0
102
RTVSPost2010PropOp52
 70
     0
102
RTVSPost2010Prop53
 90
        2
102
RTVSPost2010PropOp53
 70
     1
102
RTVSPost2010Prop54
  1
strokes_ogs.tif
102
RTVSPost2010PropOp54
 70
     1
102
RTVSPost2010Prop55
280
     0
102
RTVSPost2010PropOp55
 70
     1
102
RTVSPost2010Prop56
140
1.0
102
RTVSPost2010PropOp56
 70
     1
102
RTVSPost2010Prop57
140
1.0
102
RTVSPost2010PropOp57
 70
     1
102
RTVSPropertyOp0
 70
     1
102
RTVSPropertyOp1
 70
     1
102
RTVSPropertyOp2
 70
     1
102
RTVSPropertyOp3
 70
     1
102
RTVSPropertyOp4
 70
     1
102
RTVSPropertyOp5
 70
     1
102
RTVSPropertyOp6
 70
     1
102
RTVSPropertyOp7
 70
     1
102
RTVSPropertyOp8
 70
     1
102
RTVSPropertyOp9
 70
     1
102
RTVSPropertyOp10
 70
     1
102
RTVSPropertyOp11
 70
     1
102
RTVSPropertyOp12
 70
     1
102
RTVSPropertyOp13
 70
     1
102
RTVSPropertyOp14
 70
     1
102
RTVSPropertyOp15
 70
     1
102
RTVSPropertyOp16
 70
     1
102
RTVSPropertyOp17
 70
     1
102
RTVSPropertyOp18
 70
     1
102
RTVSPropertyOp19
 70
     1
102
RTVSPropertyOp20
 70
     1
102
RTVSPropertyOp21
 70
     1
102
RTVSPropertyOp22
 70
     1
102
RTVSPropertyOp23
 70
     1
102
RTVSPropertyOp24
 70
     1
102
RTVSPropertyOp25
 70
     1
102
RTVSPropertyOp26
 70
     1
102
RTVSPropertyOp27
 70
     1
102
RTVSPropertyOp28
 70
     1
102
RTVSPropertyOp29
 70
     1
102
RTVSPropertyOp30
 70
     1
102
RTVSPropertyOp31
 70
     1
102
RTVSPropertyOp32
 70
     1
102
RTVSPropertyOp33
 70
     1
102
RTVSPropertyOp34
 70
     1
102
RTVSPropertyOp35
 70
     1
102
RTVSPropertyOp36
 70
     1
102
RTVSPropertyOp37
 70
     1
102
RTVSPropertyOp38
 70
     1
102
RTVSPropertyOp39
 70
     1
102
RTVSPropertyOp40
 70
     1
102
RTVSPropertyOp41
 70
     1
102
RTVSPropertyOp42
 70
     1
102
RTVSPropertyOp43
 70
     1
102
RTVSPropertyOp44
 70
     1
102
RTVSPropertyOp45
 70
     1
102
RTVSPropertyOp46
 70
     1
102
RTVSPropertyOp47
 70
     1
102
RTVSPropertyOp48
 70
     1
102
RTVSPropertyOp49
 70
     1
102
RTVSPropertyOp50
 70
     1
102
RTVSPropertyOp51
 70
     0
102
RTVSPropertyOp52
 70
     0
102
RTVSPropertyOp53
 70
     1
102
RTVSPropertyOp54
 70
     1
102
RTVSPropertyOp55
 70
     1
102
RTVSPropertyOp56
 70
     1
102
RTVSPropertyOp57
 70
     1
102
RTVSPropertyOp58
 70
     1
102
RTVSPropertyOp59
 70
     1
102
RTVSPropertyOp60
 70
     1
102
RTVSPropertyOp61
 70
     1
102
RTVSPropertyOp62
 70
     1
  0
XRECORD
  5
B50
102
{ACAD_REACTORS
330
B4F
102
}
330
B4F
100
AcDbXrecord
280
     1
102
RTVSPost2010Prop28
280
     0
102
RTVSPost2010PropOp28
 70
     1
102
RTVSPost2010Prop29
280
     1
102
RTVSPost2010PropOp29
 70
     1
102
RTVSPost2010Prop30
280
     1
102
RTVSPost2010PropOp30
 70
     1
102
RTVSPost2010Prop31
280
     0
102
RTVSPost2010PropOp31
 70
     1
102
RTVSPost2010Prop32
280
     0
102
RTVSPost2010PropOp32
 70
     1
102
RTVSPost2010Prop33
280
     0
102
RTVSPost2010PropOp33
 70
     1
102
RTVSPost2010Prop34
280
     0
102
RTVSPost2010PropOp34
 70
     1
102
RTVSPost2010Prop35
280
     0
102
RTVSPost2010PropOp35
 70
     1
102
RTVSPost2010Prop36
280
     0
102
RTVSPost2010PropOp36
 70
     1
102
RTVSPost2010Prop37
 90
       50
102
RTVSPost2010PropOp37
 70
     1
102
RTVSPost2010Prop38
140
0.0
102
RTVSPost2010PropOp38
 70
     1
102
RTVSPost2010Prop39
140
1.0
102
RTVSPost2010PropOp39
 70
     1
102
RTVSPost2010Prop40
 90
        0
102
RTVSPost2010PropOp40
 70
     1
102
RTVSPost2010Prop41ColorIndex
 90
       18
102
RTVSPost2010Prop41ColorRGB
 90
        0
102
RTVSPost2010PropOp41
 70
     1
102
RTVSPost2010Prop42
 90
       50
102
RTVSPost2010PropOp42
 70
     1
102
RTVSPost2010Prop43
 90
        3
102
RTVSPost2010PropOp43
 70
     1
102
RTVSPost2010Prop44ColorIndex
 90
        5
102
RTVSPost2010Prop44ColorRGB
 90
      255
102
RTVSPost2010PropOp44
 70
     1
102
RTVSPost2010Prop45
280
     0
102
RTVSPost2010PropOp45
 70
     1
102
RTVSPost2010Prop46
 90
       50
102
RTVSPost2010PropOp46
 70
     1
102
RTVSPost2010Prop47
 90
       50
102
RTVSPost2010PropOp47
 70
     1
102
RTVSPost2010Prop48
 90
       50
102
RTVSPost2010PropOp48
 70
     1
102
RTVSPost2010Prop49
280
     0
102
RTVSPost2010PropOp49
 70
     1
102
RTVSPost2010Prop50
 90
       50
102
RTVSPost2010PropOp50
 70
     1
102
RTVSPost2010Prop51ColorIndex
 90
      256
102
RTVSPost2010Prop51ColorRGB
 90
-16777216
102
RTVSPost2010PropOp51
 70
     0
102
RTVSPost2010Prop52
140
1.0
102
RTVSPost2010PropOp52
 70
     0
102
RTVSPost2010Prop53
 90
        2
102
RTVSPost2010PropOp53
 70
     1
102
RTVSPost2010Prop54
  1
strokes_ogs.tif
102
RTVSPost2010PropOp54
 70
     1
102
RTVSPost2010Prop55
280
     0
102
RTVSPost2010PropOp55
 70
     1
102
RTVSPost2010Prop56
140
1.0
102
RTVSPost2010PropOp56
 70
     1
102
RTVSPost2010Prop57
140
1.0
102
RTVSPost2010PropOp57
 70
     1
102
RTVSPropertyOp0
 70
     1
102
RTVSPropertyOp1
 70
     1
102
RTVSPropertyOp2
 70
     1
102
RTVSPropertyOp3
 70
     1
102
RTVSPropertyOp4
 70
     1
102
RTVSPropertyOp5
 70
     1
102
RTVSPropertyOp6
 70
     1
102
RTVSPropertyOp7
 70
     1
102
RTVSPropertyOp8
 70
     1
102
RTVSPropertyOp9
 70
     1
102
RTVSPropertyOp10
 70
     1
102
RTVSPropertyOp11
 70
     1
102
RTVSPropertyOp12
 70
     1
102
RTVSPropertyOp13
 70
     1
102
RTVSPropertyOp14
 70
     1
102
RTVSPropertyOp15
 70
     1
102
RTVSPropertyOp16
 70
     1
102
RTVSPropertyOp17
 70
     1
102
RTVSPropertyOp18
 70
     1
102
RTVSPropertyOp19
 70
     1
102
RTVSPropertyOp20
 70
     1
102
RTVSPropertyOp21
 70
     1
102
RTVSPropertyOp22
 70
     1
102
RTVSPropertyOp23
 70
     1
102
RTVSPropertyOp24
 70
     1
102
RTVSPropertyOp25
 70
     1
102
RTVSPropertyOp26
 70
     1
102
RTVSPropertyOp27
 70
     1
102
RTVSPropertyOp28
 70
     1
102
RTVSPropertyOp29
 70
     1
102
RTVSPropertyOp30
 70
     1
102
RTVSPropertyOp31
 70
     1
102
RTVSPropertyOp32
 70
     1
102
RTVSPropertyOp33
 70
     1
102
RTVSPropertyOp34
 70
     1
102
RTVSPropertyOp35
 70
     1
102
RTVSPropertyOp36
 70
     1
102
RTVSPropertyOp37
 70
     1
102
RTVSPropertyOp38
 70
     1
102
RTVSPropertyOp39
 70
     1
102
RTVSPropertyOp40
 70
     1
102
RTVSPropertyOp41
 70
     1
102
RTVSPropertyOp42
 70
     1
102
RTVSPropertyOp43
 70
     1
102
RTVSPropertyOp44
 70
     1
102
RTVSPropertyOp45
 70
     1
102
RTVSPropertyOp46
 70
     1
102
RTVSPropertyOp47
 70
     1
102
RTVSPropertyOp48
 70
     1
102
RTVSPropertyOp49
 70
     1
102
RTVSPropertyOp50
 70
     1
102
RTVSPropertyOp51
 70
     0
102
RTVSPropertyOp52
 70
     0
102
RTVSPropertyOp53
 70
     1
102
RTVSPropertyOp54
 70
     1
102
RTVSPropertyOp55
 70
     1
102
RTVSPropertyOp56
 70
     1
102
RTVSPropertyOp57
 70
     1
102
RTVSPropertyOp58
 70
     1
102
RTVSPropertyOp59
 70
     1
102
RTVSPropertyOp60
 70
     1
102
RTVSPropertyOp61
 70
     1
102
RTVSPropertyOp62
 70
     1
  0
XRECORD
  5
B52
102
{ACAD_REACTORS
330
B51
102
}
330
B51
100
AcDbXrecord
280
     1
102
RTVSPost2010Prop28
280
     0
102
RTVSPost2010PropOp28
 70
     1
102
RTVSPost2010Prop29
280
     1
102
RTVSPost2010PropOp29
 70
     1
102
RTVSPost2010Prop30
280
     1
102
RTVSPost2010PropOp30
 70
     1
102
RTVSPost2010Prop31
280
     0
102
RTVSPost2010PropOp31
 70
     1
102
RTVSPost2010Prop32
280
     0
102
RTVSPost2010PropOp32
 70
     1
102
RTVSPost2010Prop33
280
     0
102
RTVSPost2010PropOp33
 70
     1
102
RTVSPost2010Prop34
280
     0
102
RTVSPost2010PropOp34
 70
     1
102
RTVSPost2010Prop35
280
     0
102
RTVSPost2010PropOp35
 70
     1
102
RTVSPost2010Prop36
280
     0
102
RTVSPost2010PropOp36
 70
     1
102
RTVSPost2010Prop37
 90
       50
102
RTVSPost2010PropOp37
 70
     1
102
RTVSPost2010Prop38
140
0.0
102
RTVSPost2010PropOp38
 70
     1
102
RTVSPost2010Prop39
140
1.0
102
RTVSPost2010PropOp39
 70
     1
102
RTVSPost2010Prop40
 90
        0
102
RTVSPost2010PropOp40
 70
     1
102
RTVSPost2010Prop41ColorIndex
 90
       18
102
RTVSPost2010Prop41ColorRGB
 90
        0
102
RTVSPost2010PropOp41
 70
     1
102
RTVSPost2010Prop42
 90
       50
102
RTVSPost2010PropOp42
 70
     1
102
RTVSPost2010Prop43
 90
        3
102
RTVSPost2010PropOp43
 70
     1
102
RTVSPost2010Prop44ColorIndex
 90
        5
102
RTVSPost2010Prop44ColorRGB
 90
      255
102
RTVSPost2010PropOp44
 70
     1
102
RTVSPost2010Prop45
280
     0
102
RTVSPost2010PropOp45
 70
     1
102
RTVSPost2010Prop46
 90
       50
102
RTVSPost2010PropOp46
 70
     1
102
RTVSPost2010Prop47
 90
       50
102
RTVSPost2010PropOp47
 70
     1
102
RTVSPost2010Prop48
 90
       50
102
RTVSPost2010PropOp48
 70
     1
102
RTVSPost2010Prop49
280
     0
102
RTVSPost2010PropOp49
 70
     1
102
RTVSPost2010Prop50
 90
       50
102
RTVSPost2010PropOp50
 70
     1
102
RTVSPost2010Prop51ColorIndex
 90
      256
102
RTVSPost2010Prop51ColorRGB
 90
-16777216
102
RTVSPost2010PropOp51
 70
     0
102
RTVSPost2010Prop52
140
1.0
102
RTVSPost2010PropOp52
 70
     0
102
RTVSPost2010Prop53
 90
        2
102
RTVSPost2010PropOp53
 70
     1
102
RTVSPost2010Prop54
  1
strokes_ogs.tif
102
RTVSPost2010PropOp54
 70
     1
102
RTVSPost2010Prop55
280
     0
102
RTVSPost2010PropOp55
 70
     1
102
RTVSPost2010Prop56
140
1.0
102
RTVSPost2010PropOp56
 70
     1
102
RTVSPost2010Prop57
140
1.0
102
RTVSPost2010PropOp57
 70
     1
102
RTVSPropertyOp0
 70
     1
102
RTVSPropertyOp1
 70
     1
102
RTVSPropertyOp2
 70
     1
102
RTVSPropertyOp3
 70
     1
102
RTVSPropertyOp4
 70
     1
102
RTVSPropertyOp5
 70
     1
102
RTVSPropertyOp6
 70
     1
102
RTVSPropertyOp7
 70
     1
102
RTVSPropertyOp8
 70
     1
102
RTVSPropertyOp9
 70
     1
102
RTVSPropertyOp10
 70
     1
102
RTVSPropertyOp11
 70
     1
102
RTVSPropertyOp12
 70
     1
102
RTVSPropertyOp13
 70
     1
102
RTVSPropertyOp14
 70
     1
102
RTVSPropertyOp15
 70
     1
102
RTVSPropertyOp16
 70
     1
102
RTVSPropertyOp17
 70
     1
102
RTVSPropertyOp18
 70
     1
102
RTVSPropertyOp19
 70
     1
102
RTVSPropertyOp20
 70
     1
102
RTVSPropertyOp21
 70
     1
102
RTVSPropertyOp22
 70
     1
102
RTVSPropertyOp23
 70
     1
102
RTVSPropertyOp24
 70
     1
102
RTVSPropertyOp25
 70
     1
102
RTVSPropertyOp26
 70
     1
102
RTVSPropertyOp27
 70
     1
102
RTVSPropertyOp28
 70
     1
102
RTVSPropertyOp29
 70
     1
102
RTVSPropertyOp30
 70
     1
102
RTVSPropertyOp31
 70
     1
102
RTVSPropertyOp32
 70
     1
102
RTVSPropertyOp33
 70
     1
102
RTVSPropertyOp34
 70
     1
102
RTVSPropertyOp35
 70
     1
102
RTVSPropertyOp36
 70
     1
102
RTVSPropertyOp37
 70
     1
102
RTVSPropertyOp38
 70
     1
102
RTVSPropertyOp39
 70
     1
102
RTVSPropertyOp40
 70
     1
102
RTVSPropertyOp41
 70
     1
102
RTVSPropertyOp42
 70
     1
102
RTVSPropertyOp43
 70
     1
102
RTVSPropertyOp44
 70
     1
102
RTVSPropertyOp45
 70
     1
102
RTVSPropertyOp46
 70
     1
102
RTVSPropertyOp47
 70
     1
102
RTVSPropertyOp48
 70
     1
102
RTVSPropertyOp49
 70
     1
102
RTVSPropertyOp50
 70
     1
102
RTVSPropertyOp51
 70
     0
102
RTVSPropertyOp52
 70
     0
102
RTVSPropertyOp53
 70
     1
102
RTVSPropertyOp54
 70
     1
102
RTVSPropertyOp55
 70
     1
102
RTVSPropertyOp56
 70
     1
102
RTVSPropertyOp57
 70
     1
102
RTVSPropertyOp58
 70
     1
102
RTVSPropertyOp59
 70
     1
102
RTVSPropertyOp60
 70
     1
102
RTVSPropertyOp61
 70
     1
102
RTVSPropertyOp62
 70
     1
  0
XRECORD
  5
B54
102
{ACAD_REACTORS
330
B53
102
}
330
B53
100
AcDbXrecord
280
     1
102
RTVSPost2010Prop28
280
     0
102
RTVSPost2010PropOp28
 70
     1
102
RTVSPost2010Prop29
280
     1
102
RTVSPost2010PropOp29
 70
     1
102
RTVSPost2010Prop30
280
     1
102
RTVSPost2010PropOp30
 70
     1
102
RTVSPost2010Prop31
280
     0
102
RTVSPost2010PropOp31
 70
     1
102
RTVSPost2010Prop32
280
     0
102
RTVSPost2010PropOp32
 70
     1
102
RTVSPost2010Prop33
280
     0
102
RTVSPost2010PropOp33
 70
     1
102
RTVSPost2010Prop34
280
     0
102
RTVSPost2010PropOp34
 70
     1
102
RTVSPost2010Prop35
280
     0
102
RTVSPost2010PropOp35
 70
     1
102
RTVSPost2010Prop36
280
     0
102
RTVSPost2010PropOp36
 70
     1
102
RTVSPost2010Prop37
 90
       50
102
RTVSPost2010PropOp37
 70
     1
102
RTVSPost2010Prop38
140
0.0
102
RTVSPost2010PropOp38
 70
     1
102
RTVSPost2010Prop39
140
1.0
102
RTVSPost2010PropOp39
 70
     1
102
RTVSPost2010Prop40
 90
        0
102
RTVSPost2010PropOp40
 70
     1
102
RTVSPost2010Prop41ColorIndex
 90
       18
102
RTVSPost2010Prop41ColorRGB
 90
        0
102
RTVSPost2010PropOp41
 70
     1
102
RTVSPost2010Prop42
 90
       50
102
RTVSPost2010PropOp42
 70
     1
102
RTVSPost2010Prop43
 90
        3
102
RTVSPost2010PropOp43
 70
     1
102
RTVSPost2010Prop44ColorIndex
 90
        5
102
RTVSPost2010Prop44ColorRGB
 90
      255
102
RTVSPost2010PropOp44
 70
     1
102
RTVSPost2010Prop45
280
     0
102
RTVSPost2010PropOp45
 70
     1
102
RTVSPost2010Prop46
 90
       50
102
RTVSPost2010PropOp46
 70
     1
102
RTVSPost2010Prop47
 90
       50
102
RTVSPost2010PropOp47
 70
     1
102
RTVSPost2010Prop48
 90
       50
102
RTVSPost2010PropOp48
 70
     1
102
RTVSPost2010Prop49
280
     0
102
RTVSPost2010PropOp49
 70
     1
102
RTVSPost2010Prop50
 90
       50
102
RTVSPost2010PropOp50
 70
     1
102
RTVSPost2010Prop51ColorIndex
 90
      256
102
RTVSPost2010Prop51ColorRGB
 90
-16777216
102
RTVSPost2010PropOp51
 70
     0
102
RTVSPost2010Prop52
140
1.0
102
RTVSPost2010PropOp52
 70
     0
102
RTVSPost2010Prop53
 90
        2
102
RTVSPost2010PropOp53
 70
     1
102
RTVSPost2010Prop54
  1
strokes_ogs.tif
102
RTVSPost2010PropOp54
 70
     1
102
RTVSPost2010Prop55
280
     0
102
RTVSPost2010PropOp55
 70
     1
102
RTVSPost2010Prop56
140
1.0
102
RTVSPost2010PropOp56
 70
     1
102
RTVSPost2010Prop57
140
1.0
102
RTVSPost2010PropOp57
 70
     1
102
RTVSPropertyOp0
 70
     1
102
RTVSPropertyOp1
 70
     1
102
RTVSPropertyOp2
 70
     1
102
RTVSPropertyOp3
 70
     1
102
RTVSPropertyOp4
 70
     1
102
RTVSPropertyOp5
 70
     1
102
RTVSPropertyOp6
 70
     1
102
RTVSPropertyOp7
 70
     1
102
RTVSPropertyOp8
 70
     1
102
RTVSPropertyOp9
 70
     1
102
RTVSPropertyOp10
 70
     1
102
RTVSPropertyOp11
 70
     1
102
RTVSPropertyOp12
 70
     1
102
RTVSPropertyOp13
 70
     1
102
RTVSPropertyOp14
 70
     1
102
RTVSPropertyOp15
 70
     1
102
RTVSPropertyOp16
 70
     1
102
RTVSPropertyOp17
 70
     1
102
RTVSPropertyOp18
 70
     1
102
RTVSPropertyOp19
 70
     1
102
RTVSPropertyOp20
 70
     1
102
RTVSPropertyOp21
 70
     1
102
RTVSPropertyOp22
 70
     1
102
RTVSPropertyOp23
 70
     1
102
RTVSPropertyOp24
 70
     1
102
RTVSPropertyOp25
 70
     1
102
RTVSPropertyOp26
 70
     1
102
RTVSPropertyOp27
 70
     1
102
RTVSPropertyOp28
 70
     1
102
RTVSPropertyOp29
 70
     1
102
RTVSPropertyOp30
 70
     1
102
RTVSPropertyOp31
 70
     1
102
RTVSPropertyOp32
 70
     1
102
RTVSPropertyOp33
 70
     1
102
RTVSPropertyOp34
 70
     1
102
RTVSPropertyOp35
 70
     1
102
RTVSPropertyOp36
 70
     1
102
RTVSPropertyOp37
 70
     1
102
RTVSPropertyOp38
 70
     1
102
RTVSPropertyOp39
 70
     1
102
RTVSPropertyOp40
 70
     1
102
RTVSPropertyOp41
 70
     1
102
RTVSPropertyOp42
 70
     1
102
RTVSPropertyOp43
 70
     1
102
RTVSPropertyOp44
 70
     1
102
RTVSPropertyOp45
 70
     1
102
RTVSPropertyOp46
 70
     1
102
RTVSPropertyOp47
 70
     1
102
RTVSPropertyOp48
 70
     1
102
RTVSPropertyOp49
 70
     1
102
RTVSPropertyOp50
 70
     1
102
RTVSPropertyOp51
 70
     0
102
RTVSPropertyOp52
 70
     0
102
RTVSPropertyOp53
 70
     1
102
RTVSPropertyOp54
 70
     1
102
RTVSPropertyOp55
 70
     1
102
RTVSPropertyOp56
 70
     1
102
RTVSPropertyOp57
 70
     1
102
RTVSPropertyOp58
 70
     1
102
RTVSPropertyOp59
 70
     1
102
RTVSPropertyOp60
 70
     1
102
RTVSPropertyOp61
 70
     1
102
RTVSPropertyOp62
 70
     1
  0
XRECORD
  5
B5C
102
{ACAD_REACTORS
330
B5B
102
}
330
B5B
100
AcDbXrecord
280
     1
102
RTVSPost2010Prop28
280
     0
102
RTVSPost2010PropOp28
 70
     1
102
RTVSPost2010Prop29
280
     1
102
RTVSPost2010PropOp29
 70
     1
102
RTVSPost2010Prop30
280
     1
102
RTVSPost2010PropOp30
 70
     1
102
RTVSPost2010Prop31
280
     0
102
RTVSPost2010PropOp31
 70
     1
102
RTVSPost2010Prop32
280
     0
102
RTVSPost2010PropOp32
 70
     1
102
RTVSPost2010Prop33
280
     0
102
RTVSPost2010PropOp33
 70
     1
102
RTVSPost2010Prop34
280
     0
102
RTVSPost2010PropOp34
 70
     1
102
RTVSPost2010Prop35
280
     0
102
RTVSPost2010PropOp35
 70
     1
102
RTVSPost2010Prop36
280
     0
102
RTVSPost2010PropOp36
 70
     1
102
RTVSPost2010Prop37
 90
       50
102
RTVSPost2010PropOp37
 70
     1
102
RTVSPost2010Prop38
140
0.0
102
RTVSPost2010PropOp38
 70
     1
102
RTVSPost2010Prop39
140
1.0
102
RTVSPost2010PropOp39
 70
     1
102
RTVSPost2010Prop40
 90
        0
102
RTVSPost2010PropOp40
 70
     1
102
RTVSPost2010Prop41ColorIndex
 90
       18
102
RTVSPost2010Prop41ColorRGB
 90
        0
102
RTVSPost2010PropOp41
 70
     1
102
RTVSPost2010Prop42
 90
       50
102
RTVSPost2010PropOp42
 70
     1
102
RTVSPost2010Prop43
 90
        3
102
RTVSPost2010PropOp43
 70
     1
102
RTVSPost2010Prop44ColorIndex
 90
        5
102
RTVSPost2010Prop44ColorRGB
 90
      255
102
RTVSPost2010PropOp44
 70
     1
102
RTVSPost2010Prop45
280
     0
102
RTVSPost2010PropOp45
 70
     1
102
RTVSPost2010Prop46
 90
       50
102
RTVSPost2010PropOp46
 70
     1
102
RTVSPost2010Prop47
 90
       50
102
RTVSPost2010PropOp47
 70
     1
102
RTVSPost2010Prop48
 90
       50
102
RTVSPost2010PropOp48
 70
     1
102
RTVSPost2010Prop49
280
     0
102
RTVSPost2010PropOp49
 70
     1
102
RTVSPost2010Prop50
 90
       50
102
RTVSPost2010PropOp50
 70
     1
102
RTVSPost2010Prop51ColorIndex
 90
      256
102
RTVSPost2010Prop51ColorRGB
 90
-16777216
102
RTVSPost2010PropOp51
 70
     0
102
RTVSPost2010Prop52
140
1.0
102
RTVSPost2010PropOp52
 70
     0
102
RTVSPost2010Prop53
 90
        2
102
RTVSPost2010PropOp53
 70
     1
102
RTVSPost2010Prop54
  1
strokes_ogs.tif
102
RTVSPost2010PropOp54
 70
     1
102
RTVSPost2010Prop55
280
     0
102
RTVSPost2010PropOp55
 70
     1
102
RTVSPost2010Prop56
140
1.0
102
RTVSPost2010PropOp56
 70
     1
102
RTVSPost2010Prop57
140
1.0
102
RTVSPost2010PropOp57
 70
     1
102
RTVSPropertyOp0
 70
     1
102
RTVSPropertyOp1
 70
     1
102
RTVSPropertyOp2
 70
     1
102
RTVSPropertyOp3
 70
     1
102
RTVSPropertyOp4
 70
     1
102
RTVSPropertyOp5
 70
     1
102
RTVSPropertyOp6
 70
     1
102
RTVSPropertyOp7
 70
     1
102
RTVSPropertyOp8
 70
     1
102
RTVSPropertyOp9
 70
     1
102
RTVSPropertyOp10
 70
     1
102
RTVSPropertyOp11
 70
     1
102
RTVSPropertyOp12
 70
     1
102
RTVSPropertyOp13
 70
     1
102
RTVSPropertyOp14
 70
     1
102
RTVSPropertyOp15
 70
     1
102
RTVSPropertyOp16
 70
     1
102
RTVSPropertyOp17
 70
     1
102
RTVSPropertyOp18
 70
     1
102
RTVSPropertyOp19
 70
     1
102
RTVSPropertyOp20
 70
     1
102
RTVSPropertyOp21
 70
     1
102
RTVSPropertyOp22
 70
     1
102
RTVSPropertyOp23
 70
     1
102
RTVSPropertyOp24
 70
     1
102
RTVSPropertyOp25
 70
     1
102
RTVSPropertyOp26
 70
     1
102
RTVSPropertyOp27
 70
     1
102
RTVSPropertyOp28
 70
     1
102
RTVSPropertyOp29
 70
     1
102
RTVSPropertyOp30
 70
     1
102
RTVSPropertyOp31
 70
     1
102
RTVSPropertyOp32
 70
     1
102
RTVSPropertyOp33
 70
     1
102
RTVSPropertyOp34
 70
     1
102
RTVSPropertyOp35
 70
     1
102
RTVSPropertyOp36
 70
     1
102
RTVSPropertyOp37
 70
     1
102
RTVSPropertyOp38
 70
     1
102
RTVSPropertyOp39
 70
     1
102
RTVSPropertyOp40
 70
     1
102
RTVSPropertyOp41
 70
     1
102
RTVSPropertyOp42
 70
     1
102
RTVSPropertyOp43
 70
     1
102
RTVSPropertyOp44
 70
     1
102
RTVSPropertyOp45
 70
     1
102
RTVSPropertyOp46
 70
     1
102
RTVSPropertyOp47
 70
     1
102
RTVSPropertyOp48
 70
     1
102
RTVSPropertyOp49
 70
     1
102
RTVSPropertyOp50
 70
     1
102
RTVSPropertyOp51
 70
     0
102
RTVSPropertyOp52
 70
     0
102
RTVSPropertyOp53
 70
     1
102
RTVSPropertyOp54
 70
     1
102
RTVSPropertyOp55
 70
     1
102
RTVSPropertyOp56
 70
     1
102
RTVSPropertyOp57
 70
     1
102
RTVSPropertyOp58
 70
     1
102
RTVSPropertyOp59
 70
     1
102
RTVSPropertyOp60
 70
     1
102
RTVSPropertyOp61
 70
     1
102
RTVSPropertyOp62
 70
     1
  0
XRECORD
  5
B6E
102
{ACAD_REACTORS
330
B6D
102
}
330
B6D
100
AcDbXrecord
280
     1
102
RTVSPost2010Prop28
280
     0
102
RTVSPost2010PropOp28
 70
     1
102
RTVSPost2010Prop29
280
     1
102
RTVSPost2010PropOp29
 70
     1
102
RTVSPost2010Prop30
280
     1
102
RTVSPost2010PropOp30
 70
     1
102
RTVSPost2010Prop31
280
     0
102
RTVSPost2010PropOp31
 70
     1
102
RTVSPost2010Prop32
280
     0
102
RTVSPost2010PropOp32
 70
     1
102
RTVSPost2010Prop33
280
     0
102
RTVSPost2010PropOp33
 70
     1
102
RTVSPost2010Prop34
280
     0
102
RTVSPost2010PropOp34
 70
     1
102
RTVSPost2010Prop35
280
     0
102
RTVSPost2010PropOp35
 70
     1
102
RTVSPost2010Prop36
280
     0
102
RTVSPost2010PropOp36
 70
     1
102
RTVSPost2010Prop37
 90
       50
102
RTVSPost2010PropOp37
 70
     1
102
RTVSPost2010Prop38
140
0.0
102
RTVSPost2010PropOp38
 70
     1
102
RTVSPost2010Prop39
140
1.0
102
RTVSPost2010PropOp39
 70
     1
102
RTVSPost2010Prop40
 90
        0
102
RTVSPost2010PropOp40
 70
     1
102
RTVSPost2010Prop41ColorIndex
 90
       18
102
RTVSPost2010Prop41ColorRGB
 90
        0
102
RTVSPost2010PropOp41
 70
     1
102
RTVSPost2010Prop42
 90
       50
102
RTVSPost2010PropOp42
 70
     1
102
RTVSPost2010Prop43
 90
        3
102
RTVSPost2010PropOp43
 70
     1
102
RTVSPost2010Prop44ColorIndex
 90
        5
102
RTVSPost2010Prop44ColorRGB
 90
      255
102
RTVSPost2010PropOp44
 70
     1
102
RTVSPost2010Prop45
280
     0
102
RTVSPost2010PropOp45
 70
     1
102
RTVSPost2010Prop46
 90
       50
102
RTVSPost2010PropOp46
 70
     1
102
RTVSPost2010Prop47
 90
       50
102
RTVSPost2010PropOp47
 70
     1
102
RTVSPost2010Prop48
 90
       50
102
RTVSPost2010PropOp48
 70
     1
102
RTVSPost2010Prop49
280
     0
102
RTVSPost2010PropOp49
 70
     1
102
RTVSPost2010Prop50
 90
       50
102
RTVSPost2010PropOp50
 70
     1
102
RTVSPost2010Prop51ColorIndex
 90
      256
102
RTVSPost2010Prop51ColorRGB
 90
-16777216
102
RTVSPost2010PropOp51
 70
     0
102
RTVSPost2010Prop52
140
1.0
102
RTVSPost2010PropOp52
 70
     0
102
RTVSPost2010Prop53
 90
        2
102
RTVSPost2010PropOp53
 70
     1
102
RTVSPost2010Prop54
  1
strokes_ogs.tif
102
RTVSPost2010PropOp54
 70
     1
102
RTVSPost2010Prop55
280
     0
102
RTVSPost2010PropOp55
 70
     1
102
RTVSPost2010Prop56
140
1.0
102
RTVSPost2010PropOp56
 70
     1
102
RTVSPost2010Prop57
140
1.0
102
RTVSPost2010PropOp57
 70
     1
102
RTVSPropertyOp0
 70
     0
102
RTVSPropertyOp1
 70
     0
102
RTVSPropertyOp2
 70
     0
102
RTVSPropertyOp3
 70
     0
102
RTVSPropertyOp4
 70
     0
102
RTVSPropertyOp5
 70
     0
102
RTVSPropertyOp6
 70
     0
102
RTVSPropertyOp7
 70
     0
102
RTVSPropertyOp8
 70
     0
102
RTVSPropertyOp9
 70
     0
102
RTVSPropertyOp10
 70
     0
102
RTVSPropertyOp11
 70
     0
102
RTVSPropertyOp12
 70
     0
102
RTVSPropertyOp13
 70
     0
102
RTVSPropertyOp14
 70
     2
102
RTVSPropertyOp15
 70
     0
102
RTVSPropertyOp16
 70
     0
102
RTVSPropertyOp17
 70
     0
102
RTVSPropertyOp18
 70
     0
102
RTVSPropertyOp19
 70
     0
102
RTVSPropertyOp20
 70
     0
102
RTVSPropertyOp21
 70
     0
102
RTVSPropertyOp22
 70
     0
102
RTVSPropertyOp23
 70
     0
102
RTVSPropertyOp24
 70
     0
102
RTVSPropertyOp25
 70
     0
102
RTVSPropertyOp26
 70
     0
102
RTVSPropertyOp27
 70
     0
102
RTVSPropertyOp28
 70
     1
102
RTVSPropertyOp29
 70
     1
102
RTVSPropertyOp30
 70
     1
102
RTVSPropertyOp31
 70
     1
102
RTVSPropertyOp32
 70
     1
102
RTVSPropertyOp33
 70
     1
102
RTVSPropertyOp34
 70
     1
102
RTVSPropertyOp35
 70
     1
102
RTVSPropertyOp36
 70
     1
102
RTVSPropertyOp37
 70
     1
102
RTVSPropertyOp38
 70
     1
102
RTVSPropertyOp39
 70
     1
102
RTVSPropertyOp40
 70
     1
102
RTVSPropertyOp41
 70
     1
102
RTVSPropertyOp42
 70
     1
102
RTVSPropertyOp43
 70
     1
102
RTVSPropertyOp44
 70
     1
102
RTVSPropertyOp45
 70
     1
102
RTVSPropertyOp46
 70
     1
102
RTVSPropertyOp47
 70
     1
102
RTVSPropertyOp48
 70
     1
102
RTVSPropertyOp49
 70
     1
102
RTVSPropertyOp50
 70
     1
102
RTVSPropertyOp51
 70
     0
102
RTVSPropertyOp52
 70
     0
102
RTVSPropertyOp53
 70
     1
102
RTVSPropertyOp54
 70
     1
102
RTVSPropertyOp55
 70
     1
102
RTVSPropertyOp56
 70
     1
102
RTVSPropertyOp57
 70
     1
102
RTVSPropertyOp58
 70
     1
102
RTVSPropertyOp59
 70
     1
102
RTVSPropertyOp60
 70
     1
102
RTVSPropertyOp61
 70
     1
102
RTVSPropertyOp62
 70
     1
  0
XRECORD
  5
B68
102
{ACAD_REACTORS
330
B67
102
}
330
B67
100
AcDbXrecord
280
     1
102
RTVSPost2010Prop28
280
     0
102
RTVSPost2010PropOp28
 70
     1
102
RTVSPost2010Prop29
280
     1
102
RTVSPost2010PropOp29
 70
     1
102
RTVSPost2010Prop30
280
     1
102
RTVSPost2010PropOp30
 70
     1
102
RTVSPost2010Prop31
280
     0
102
RTVSPost2010PropOp31
 70
     1
102
RTVSPost2010Prop32
280
     0
102
RTVSPost2010PropOp32
 70
     1
102
RTVSPost2010Prop33
280
     0
102
RTVSPost2010PropOp33
 70
     1
102
RTVSPost2010Prop34
280
     0
102
RTVSPost2010PropOp34
 70
     1
102
RTVSPost2010Prop35
280
     0
102
RTVSPost2010PropOp35
 70
     1
102
RTVSPost2010Prop36
280
     0
102
RTVSPost2010PropOp36
 70
     1
102
RTVSPost2010Prop37
 90
       50
102
RTVSPost2010PropOp37
 70
     1
102
RTVSPost2010Prop38
140
0.0
102
RTVSPost2010PropOp38
 70
     1
102
RTVSPost2010Prop39
140
1.0
102
RTVSPost2010PropOp39
 70
     1
102
RTVSPost2010Prop40
 90
        0
102
RTVSPost2010PropOp40
 70
     1
102
RTVSPost2010Prop41ColorIndex
 90
       18
102
RTVSPost2010Prop41ColorRGB
 90
        0
102
RTVSPost2010PropOp41
 70
     1
102
RTVSPost2010Prop42
 90
       50
102
RTVSPost2010PropOp42
 70
     1
102
RTVSPost2010Prop43
 90
        3
102
RTVSPost2010PropOp43
 70
     1
102
RTVSPost2010Prop44ColorIndex
 90
        5
102
RTVSPost2010Prop44ColorRGB
 90
      255
102
RTVSPost2010PropOp44
 70
     1
102
RTVSPost2010Prop45
280
     0
102
RTVSPost2010PropOp45
 70
     1
102
RTVSPost2010Prop46
 90
       50
102
RTVSPost2010PropOp46
 70
     1
102
RTVSPost2010Prop47
 90
       50
102
RTVSPost2010PropOp47
 70
     1
102
RTVSPost2010Prop48
 90
       50
102
RTVSPost2010PropOp48
 70
     1
102
RTVSPost2010Prop49
280
     0
102
RTVSPost2010PropOp49
 70
     1
102
RTVSPost2010Prop50
 90
       50
102
RTVSPost2010PropOp50
 70
     1
102
RTVSPost2010Prop51ColorIndex
 90
      256
102
RTVSPost2010Prop51ColorRGB
 90
-16777216
102
RTVSPost2010PropOp51
 70
     0
102
RTVSPost2010Prop52
140
1.0
102
RTVSPost2010PropOp52
 70
     0
102
RTVSPost2010Prop53
 90
        2
102
RTVSPost2010PropOp53
 70
     1
102
RTVSPost2010Prop54
  1
strokes_ogs.tif
102
RTVSPost2010PropOp54
 70
     1
102
RTVSPost2010Prop55
280
     0
102
RTVSPost2010PropOp55
 70
     1
102
RTVSPost2010Prop56
140
1.0
102
RTVSPost2010PropOp56
 70
     1
102
RTVSPost2010Prop57
140
1.0
102
RTVSPost2010PropOp57
 70
     1
102
RTVSPropertyOp0
 70
     1
102
RTVSPropertyOp1
 70
     1
102
RTVSPropertyOp2
 70
     1
102
RTVSPropertyOp3
 70
     1
102
RTVSPropertyOp4
 70
     1
102
RTVSPropertyOp5
 70
     1
102
RTVSPropertyOp6
 70
     1
102
RTVSPropertyOp7
 70
     1
102
RTVSPropertyOp8
 70
     1
102
RTVSPropertyOp9
 70
     1
102
RTVSPropertyOp10
 70
     1
102
RTVSPropertyOp11
 70
     1
102
RTVSPropertyOp12
 70
     1
102
RTVSPropertyOp13
 70
     1
102
RTVSPropertyOp14
 70
     1
102
RTVSPropertyOp15
 70
     1
102
RTVSPropertyOp16
 70
     1
102
RTVSPropertyOp17
 70
     1
102
RTVSPropertyOp18
 70
     1
102
RTVSPropertyOp19
 70
     1
102
RTVSPropertyOp20
 70
     1
102
RTVSPropertyOp21
 70
     1
102
RTVSPropertyOp22
 70
     1
102
RTVSPropertyOp23
 70
     1
102
RTVSPropertyOp24
 70
     1
102
RTVSPropertyOp25
 70
     1
102
RTVSPropertyOp26
 70
     1
102
RTVSPropertyOp27
 70
     1
102
RTVSPropertyOp28
 70
     1
102
RTVSPropertyOp29
 70
     1
102
RTVSPropertyOp30
 70
     1
102
RTVSPropertyOp31
 70
     1
102
RTVSPropertyOp32
 70
     1
102
RTVSPropertyOp33
 70
     1
102
RTVSPropertyOp34
 70
     1
102
RTVSPropertyOp35
 70
     1
102
RTVSPropertyOp36
 70
     1
102
RTVSPropertyOp37
 70
     1
102
RTVSPropertyOp38
 70
     1
102
RTVSPropertyOp39
 70
     1
102
RTVSPropertyOp40
 70
     1
102
RTVSPropertyOp41
 70
     1
102
RTVSPropertyOp42
 70
     1
102
RTVSPropertyOp43
 70
     1
102
RTVSPropertyOp44
 70
     1
102
RTVSPropertyOp45
 70
     1
102
RTVSPropertyOp46
 70
     1
102
RTVSPropertyOp47
 70
     1
102
RTVSPropertyOp48
 70
     1
102
RTVSPropertyOp49
 70
     1
102
RTVSPropertyOp50
 70
     1
102
RTVSPropertyOp51
 70
     0
102
RTVSPropertyOp52
 70
     0
102
RTVSPropertyOp53
 70
     1
102
RTVSPropertyOp54
 70
     1
102
RTVSPropertyOp55
 70
     1
102
RTVSPropertyOp56
 70
     1
102
RTVSPropertyOp57
 70
     1
102
RTVSPropertyOp58
 70
     1
102
RTVSPropertyOp59
 70
     1
102
RTVSPropertyOp60
 70
     1
102
RTVSPropertyOp61
 70
     1
102
RTVSPropertyOp62
 70
     1
  0
XRECORD
  5
B70
102
{ACAD_REACTORS
330
B6F
102
}
330
B6F
100
AcDbXrecord
280
     1
102
RTVSPost2010Prop28
280
     0
102
RTVSPost2010PropOp28
 70
     1
102
RTVSPost2010Prop29
280
     1
102
RTVSPost2010PropOp29
 70
     1
102
RTVSPost2010Prop30
280
     1
102
RTVSPost2010PropOp30
 70
     1
102
RTVSPost2010Prop31
280
     0
102
RTVSPost2010PropOp31
 70
     1
102
RTVSPost2010Prop32
280
     0
102
RTVSPost2010PropOp32
 70
     1
102
RTVSPost2010Prop33
280
     0
102
RTVSPost2010PropOp33
 70
     1
102
RTVSPost2010Prop34
280
     0
102
RTVSPost2010PropOp34
 70
     1
102
RTVSPost2010Prop35
280
     0
102
RTVSPost2010PropOp35
 70
     1
102
RTVSPost2010Prop36
280
     0
102
RTVSPost2010PropOp36
 70
     1
102
RTVSPost2010Prop37
 90
       50
102
RTVSPost2010PropOp37
 70
     1
102
RTVSPost2010Prop38
140
0.0
102
RTVSPost2010PropOp38
 70
     1
102
RTVSPost2010Prop39
140
1.0
102
RTVSPost2010PropOp39
 70
     1
102
RTVSPost2010Prop40
 90
        0
102
RTVSPost2010PropOp40
 70
     1
102
RTVSPost2010Prop41ColorIndex
 90
       18
102
RTVSPost2010Prop41ColorRGB
 90
        0
102
RTVSPost2010PropOp41
 70
     1
102
RTVSPost2010Prop42
 90
       50
102
RTVSPost2010PropOp42
 70
     1
102
RTVSPost2010Prop43
 90
        3
102
RTVSPost2010PropOp43
 70
     1
102
RTVSPost2010Prop44ColorIndex
 90
        5
102
RTVSPost2010Prop44ColorRGB
 90
      255
102
RTVSPost2010PropOp44
 70
     1
102
RTVSPost2010Prop45
280
     0
102
RTVSPost2010PropOp45
 70
     1
102
RTVSPost2010Prop46
 90
       50
102
RTVSPost2010PropOp46
 70
     1
102
RTVSPost2010Prop47
 90
       50
102
RTVSPost2010PropOp47
 70
     1
102
RTVSPost2010Prop48
 90
       50
102
RTVSPost2010PropOp48
 70
     1
102
RTVSPost2010Prop49
280
     0
102
RTVSPost2010PropOp49
 70
     1
102
RTVSPost2010Prop50
 90
       50
102
RTVSPost2010PropOp50
 70
     1
102
RTVSPost2010Prop51ColorIndex
 90
      256
102
RTVSPost2010Prop51ColorRGB
 90
-16777216
102
RTVSPost2010PropOp51
 70
     0
102
RTVSPost2010Prop52
140
1.0
102
RTVSPost2010PropOp52
 70
     0
102
RTVSPost2010Prop53
 90
        2
102
RTVSPost2010PropOp53
 70
     1
102
RTVSPost2010Prop54
  1
strokes_ogs.tif
102
RTVSPost2010PropOp54
 70
     1
102
RTVSPost2010Prop55
280
     0
102
RTVSPost2010PropOp55
 70
     1
102
RTVSPost2010Prop56
140
1.0
102
RTVSPost2010PropOp56
 70
     1
102
RTVSPost2010Prop57
140
1.0
102
RTVSPost2010PropOp57
 70
     1
102
RTVSPropertyOp0
 70
     0
102
RTVSPropertyOp1
 70
     0
102
RTVSPropertyOp2
 70
     0
102
RTVSPropertyOp3
 70
     0
102
RTVSPropertyOp4
 70
     0
102
RTVSPropertyOp5
 70
     0
102
RTVSPropertyOp6
 70
     0
102
RTVSPropertyOp7
 70
     0
102
RTVSPropertyOp8
 70
     0
102
RTVSPropertyOp9
 70
     0
102
RTVSPropertyOp10
 70
     0
102
RTVSPropertyOp11
 70
     0
102
RTVSPropertyOp12
 70
     0
102
RTVSPropertyOp13
 70
     0
102
RTVSPropertyOp14
 70
     2
102
RTVSPropertyOp15
 70
     0
102
RTVSPropertyOp16
 70
     0
102
RTVSPropertyOp17
 70
     0
102
RTVSPropertyOp18
 70
     0
102
RTVSPropertyOp19
 70
     0
102
RTVSPropertyOp20
 70
     0
102
RTVSPropertyOp21
 70
     0
102
RTVSPropertyOp22
 70
     0
102
RTVSPropertyOp23
 70
     0
102
RTVSPropertyOp24
 70
     0
102
RTVSPropertyOp25
 70
     0
102
RTVSPropertyOp26
 70
     0
102
RTVSPropertyOp27
 70
     0
102
RTVSPropertyOp28
 70
     1
102
RTVSPropertyOp29
 70
     1
102
RTVSPropertyOp30
 70
     1
102
RTVSPropertyOp31
 70
     1
102
RTVSPropertyOp32
 70
     1
102
RTVSPropertyOp33
 70
     1
102
RTVSPropertyOp34
 70
     1
102
RTVSPropertyOp35
 70
     1
102
RTVSPropertyOp36
 70
     1
102
RTVSPropertyOp37
 70
     1
102
RTVSPropertyOp38
 70
     1
102
RTVSPropertyOp39
 70
     1
102
RTVSPropertyOp40
 70
     1
102
RTVSPropertyOp41
 70
     1
102
RTVSPropertyOp42
 70
     1
102
RTVSPropertyOp43
 70
     1
102
RTVSPropertyOp44
 70
     1
102
RTVSPropertyOp45
 70
     1
102
RTVSPropertyOp46
 70
     1
102
RTVSPropertyOp47
 70
     1
102
RTVSPropertyOp48
 70
     1
102
RTVSPropertyOp49
 70
     1
102
RTVSPropertyOp50
 70
     1
102
RTVSPropertyOp51
 70
     0
102
RTVSPropertyOp52
 70
     0
102
RTVSPropertyOp53
 70
     1
102
RTVSPropertyOp54
 70
     1
102
RTVSPropertyOp55
 70
     1
102
RTVSPropertyOp56
 70
     1
102
RTVSPropertyOp57
 70
     1
102
RTVSPropertyOp58
 70
     1
102
RTVSPropertyOp59
 70
     1
102
RTVSPropertyOp60
 70
     1
102
RTVSPropertyOp61
 70
     1
102
RTVSPropertyOp62
 70
     1
  0
XRECORD
  5
B60
102
{ACAD_REACTORS
330
B5F
102
}
330
B5F
100
AcDbXrecord
280
     1
102
RTVSPost2010Prop28
280
     0
102
RTVSPost2010PropOp28
 70
     1
102
RTVSPost2010Prop29
280
     1
102
RTVSPost2010PropOp29
 70
     1
102
RTVSPost2010Prop30
280
     1
102
RTVSPost2010PropOp30
 70
     1
102
RTVSPost2010Prop31
280
     0
102
RTVSPost2010PropOp31
 70
     1
102
RTVSPost2010Prop32
280
     0
102
RTVSPost2010PropOp32
 70
     1
102
RTVSPost2010Prop33
280
     0
102
RTVSPost2010PropOp33
 70
     1
102
RTVSPost2010Prop34
280
     0
102
RTVSPost2010PropOp34
 70
     1
102
RTVSPost2010Prop35
280
     0
102
RTVSPost2010PropOp35
 70
     1
102
RTVSPost2010Prop36
280
     0
102
RTVSPost2010PropOp36
 70
     1
102
RTVSPost2010Prop37
 90
       50
102
RTVSPost2010PropOp37
 70
     1
102
RTVSPost2010Prop38
140
0.0
102
RTVSPost2010PropOp38
 70
     1
102
RTVSPost2010Prop39
140
1.0
102
RTVSPost2010PropOp39
 70
     1
102
RTVSPost2010Prop40
 90
        0
102
RTVSPost2010PropOp40
 70
     1
102
RTVSPost2010Prop41ColorIndex
 90
       18
102
RTVSPost2010Prop41ColorRGB
 90
        0
102
RTVSPost2010PropOp41
 70
     1
102
RTVSPost2010Prop42
 90
       50
102
RTVSPost2010PropOp42
 70
     1
102
RTVSPost2010Prop43
 90
        3
102
RTVSPost2010PropOp43
 70
     1
102
RTVSPost2010Prop44ColorIndex
 90
        5
102
RTVSPost2010Prop44ColorRGB
 90
      255
102
RTVSPost2010PropOp44
 70
     1
102
RTVSPost2010Prop45
280
     0
102
RTVSPost2010PropOp45
 70
     1
102
RTVSPost2010Prop46
 90
       50
102
RTVSPost2010PropOp46
 70
     1
102
RTVSPost2010Prop47
 90
       50
102
RTVSPost2010PropOp47
 70
     1
102
RTVSPost2010Prop48
 90
       50
102
RTVSPost2010PropOp48
 70
     1
102
RTVSPost2010Prop49
280
     0
102
RTVSPost2010PropOp49
 70
     1
102
RTVSPost2010Prop50
 90
       50
102
RTVSPost2010PropOp50
 70
     1
102
RTVSPost2010Prop51ColorIndex
 90
      256
102
RTVSPost2010Prop51ColorRGB
 90
-16777216
102
RTVSPost2010PropOp51
 70
     0
102
RTVSPost2010Prop52
140
1.0
102
RTVSPost2010PropOp52
 70
     0
102
RTVSPost2010Prop53
 90
        2
102
RTVSPost2010PropOp53
 70
     1
102
RTVSPost2010Prop54
  1
strokes_ogs.tif
102
RTVSPost2010PropOp54
 70
     1
102
RTVSPost2010Prop55
280
     0
102
RTVSPost2010PropOp55
 70
     1
102
RTVSPost2010Prop56
140
1.0
102
RTVSPost2010PropOp56
 70
     1
102
RTVSPost2010Prop57
140
1.0
102
RTVSPost2010PropOp57
 70
     1
102
RTVSPropertyOp0
 70
     1
102
RTVSPropertyOp1
 70
     1
102
RTVSPropertyOp2
 70
     1
102
RTVSPropertyOp3
 70
     1
102
RTVSPropertyOp4
 70
     1
102
RTVSPropertyOp5
 70
     1
102
RTVSPropertyOp6
 70
     1
102
RTVSPropertyOp7
 70
     1
102
RTVSPropertyOp8
 70
     1
102
RTVSPropertyOp9
 70
     1
102
RTVSPropertyOp10
 70
     1
102
RTVSPropertyOp11
 70
     1
102
RTVSPropertyOp12
 70
     1
102
RTVSPropertyOp13
 70
     1
102
RTVSPropertyOp14
 70
     1
102
RTVSPropertyOp15
 70
     1
102
RTVSPropertyOp16
 70
     1
102
RTVSPropertyOp17
 70
     1
102
RTVSPropertyOp18
 70
     1
102
RTVSPropertyOp19
 70
     1
102
RTVSPropertyOp20
 70
     1
102
RTVSPropertyOp21
 70
     1
102
RTVSPropertyOp22
 70
     1
102
RTVSPropertyOp23
 70
     1
102
RTVSPropertyOp24
 70
     1
102
RTVSPropertyOp25
 70
     1
102
RTVSPropertyOp26
 70
     1
102
RTVSPropertyOp27
 70
     1
102
RTVSPropertyOp28
 70
     1
102
RTVSPropertyOp29
 70
     1
102
RTVSPropertyOp30
 70
     1
102
RTVSPropertyOp31
 70
     1
102
RTVSPropertyOp32
 70
     1
102
RTVSPropertyOp33
 70
     1
102
RTVSPropertyOp34
 70
     1
102
RTVSPropertyOp35
 70
     1
102
RTVSPropertyOp36
 70
     1
102
RTVSPropertyOp37
 70
     1
102
RTVSPropertyOp38
 70
     1
102
RTVSPropertyOp39
 70
     1
102
RTVSPropertyOp40
 70
     1
102
RTVSPropertyOp41
 70
     1
102
RTVSPropertyOp42
 70
     1
102
RTVSPropertyOp43
 70
     1
102
RTVSPropertyOp44
 70
     1
102
RTVSPropertyOp45
 70
     1
102
RTVSPropertyOp46
 70
     1
102
RTVSPropertyOp47
 70
     1
102
RTVSPropertyOp48
 70
     1
102
RTVSPropertyOp49
 70
     1
102
RTVSPropertyOp50
 70
     1
102
RTVSPropertyOp51
 70
     0
102
RTVSPropertyOp52
 70
     0
102
RTVSPropertyOp53
 70
     1
102
RTVSPropertyOp54
 70
     1
102
RTVSPropertyOp55
 70
     1
102
RTVSPropertyOp56
 70
     1
102
RTVSPropertyOp57
 70
     1
102
RTVSPropertyOp58
 70
     1
102
RTVSPropertyOp59
 70
     1
102
RTVSPropertyOp60
 70
     1
102
RTVSPropertyOp61
 70
     1
102
RTVSPropertyOp62
 70
     1
  0
XRECORD
  5
B7C
102
{ACAD_REACTORS
330
B7B
102
}
330
B7B
100
AcDbXrecord
280
     1
102
RTVSPost2010Prop28
280
     0
102
RTVSPost2010PropOp28
 70
     1
102
RTVSPost2010Prop29
280
     1
102
RTVSPost2010PropOp29
 70
     1
102
RTVSPost2010Prop30
280
     1
102
RTVSPost2010PropOp30
 70
     1
102
RTVSPost2010Prop31
280
     0
102
RTVSPost2010PropOp31
 70
     1
102
RTVSPost2010Prop32
280
     0
102
RTVSPost2010PropOp32
 70
     1
102
RTVSPost2010Prop33
280
     0
102
RTVSPost2010PropOp33
 70
     1
102
RTVSPost2010Prop34
280
     0
102
RTVSPost2010PropOp34
 70
     1
102
RTVSPost2010Prop35
280
     0
102
RTVSPost2010PropOp35
 70
     1
102
RTVSPost2010Prop36
280
     0
102
RTVSPost2010PropOp36
 70
     1
102
RTVSPost2010Prop37
 90
       50
102
RTVSPost2010PropOp37
 70
     1
102
RTVSPost2010Prop38
140
0.0
102
RTVSPost2010PropOp38
 70
     1
102
RTVSPost2010Prop39
140
1.0
102
RTVSPost2010PropOp39
 70
     1
102
RTVSPost2010Prop40
 90
        0
102
RTVSPost2010PropOp40
 70
     1
102
RTVSPost2010Prop41ColorIndex
 90
       18
102
RTVSPost2010Prop41ColorRGB
 90
        0
102
RTVSPost2010PropOp41
 70
     1
102
RTVSPost2010Prop42
 90
       50
102
RTVSPost2010PropOp42
 70
     1
102
RTVSPost2010Prop43
 90
        3
102
RTVSPost2010PropOp43
 70
     1
102
RTVSPost2010Prop44ColorIndex
 90
        5
102
RTVSPost2010Prop44ColorRGB
 90
      255
102
RTVSPost2010PropOp44
 70
     1
102
RTVSPost2010Prop45
280
     0
102
RTVSPost2010PropOp45
 70
     1
102
RTVSPost2010Prop46
 90
       50
102
RTVSPost2010PropOp46
 70
     1
102
RTVSPost2010Prop47
 90
       50
102
RTVSPost2010PropOp47
 70
     1
102
RTVSPost2010Prop48
 90
       50
102
RTVSPost2010PropOp48
 70
     1
102
RTVSPost2010Prop49
280
     0
102
RTVSPost2010PropOp49
 70
     1
102
RTVSPost2010Prop50
 90
       50
102
RTVSPost2010PropOp50
 70
     1
102
RTVSPost2010Prop51ColorIndex
 90
      256
102
RTVSPost2010Prop51ColorRGB
 90
-16777216
102
RTVSPost2010PropOp51
 70
     0
102
RTVSPost2010Prop52
140
1.0
102
RTVSPost2010PropOp52
 70
     0
102
RTVSPost2010Prop53
 90
        2
102
RTVSPost2010PropOp53
 70
     1
102
RTVSPost2010Prop54
  1
strokes_ogs.tif
102
RTVSPost2010PropOp54
 70
     1
102
RTVSPost2010Prop55
280
     0
102
RTVSPost2010PropOp55
 70
     1
102
RTVSPost2010Prop56
140
1.0
102
RTVSPost2010PropOp56
 70
     1
102
RTVSPost2010Prop57
140
1.0
102
RTVSPost2010PropOp57
 70
     1
102
RTVSPropertyOp0
 70
     1
102
RTVSPropertyOp1
 70
     1
102
RTVSPropertyOp2
 70
     1
102
RTVSPropertyOp3
 70
     1
102
RTVSPropertyOp4
 70
     1
102
RTVSPropertyOp5
 70
     1
102
RTVSPropertyOp6
 70
     1
102
RTVSPropertyOp7
 70
     1
102
RTVSPropertyOp8
 70
     1
102
RTVSPropertyOp9
 70
     1
102
RTVSPropertyOp10
 70
     1
102
RTVSPropertyOp11
 70
     1
102
RTVSPropertyOp12
 70
     1
102
RTVSPropertyOp13
 70
     1
102
RTVSPropertyOp14
 70
     1
102
RTVSPropertyOp15
 70
     1
102
RTVSPropertyOp16
 70
     1
102
RTVSPropertyOp17
 70
     1
102
RTVSPropertyOp18
 70
     1
102
RTVSPropertyOp19
 70
     1
102
RTVSPropertyOp20
 70
     1
102
RTVSPropertyOp21
 70
     1
102
RTVSPropertyOp22
 70
     1
102
RTVSPropertyOp23
 70
     1
102
RTVSPropertyOp24
 70
     1
102
RTVSPropertyOp25
 70
     1
102
RTVSPropertyOp26
 70
     1
102
RTVSPropertyOp27
 70
     1
102
RTVSPropertyOp28
 70
     1
102
RTVSPropertyOp29
 70
     1
102
RTVSPropertyOp30
 70
     1
102
RTVSPropertyOp31
 70
     1
102
RTVSPropertyOp32
 70
     1
102
RTVSPropertyOp33
 70
     1
102
RTVSPropertyOp34
 70
     1
102
RTVSPropertyOp35
 70
     1
102
RTVSPropertyOp36
 70
     1
102
RTVSPropertyOp37
 70
     1
102
RTVSPropertyOp38
 70
     1
102
RTVSPropertyOp39
 70
     1
102
RTVSPropertyOp40
 70
     1
102
RTVSPropertyOp41
 70
     1
102
RTVSPropertyOp42
 70
     1
102
RTVSPropertyOp43
 70
     1
102
RTVSPropertyOp44
 70
     1
102
RTVSPropertyOp45
 70
     1
102
RTVSPropertyOp46
 70
     1
102
RTVSPropertyOp47
 70
     1
102
RTVSPropertyOp48
 70
     1
102
RTVSPropertyOp49
 70
     1
102
RTVSPropertyOp50
 70
     1
102
RTVSPropertyOp51
 70
     0
102
RTVSPropertyOp52
 70
     0
102
RTVSPropertyOp53
 70
     1
102
RTVSPropertyOp54
 70
     1
102
RTVSPropertyOp55
 70
     1
102
RTVSPropertyOp56
 70
     1
102
RTVSPropertyOp57
 70
     1
102
RTVSPropertyOp58
 70
     1
102
RTVSPropertyOp59
 70
     1
102
RTVSPropertyOp60
 70
     1
102
RTVSPropertyOp61
 70
     1
102
RTVSPropertyOp62
 70
     1
  0
XRECORD
  5
B7A
102
{ACAD_REACTORS
330
B79
102
}
330
B79
100
AcDbXrecord
280
     1
102
RTVSPost2010Prop28
280
     0
102
RTVSPost2010PropOp28
 70
     1
102
RTVSPost2010Prop29
280
     1
102
RTVSPost2010PropOp29
 70
     1
102
RTVSPost2010Prop30
280
     1
102
RTVSPost2010PropOp30
 70
     1
102
RTVSPost2010Prop31
280
     0
102
RTVSPost2010PropOp31
 70
     1
102
RTVSPost2010Prop32
280
     0
102
RTVSPost2010PropOp32
 70
     1
102
RTVSPost2010Prop33
280
     0
102
RTVSPost2010PropOp33
 70
     1
102
RTVSPost2010Prop34
280
     0
102
RTVSPost2010PropOp34
 70
     1
102
RTVSPost2010Prop35
280
     0
102
RTVSPost2010PropOp35
 70
     1
102
RTVSPost2010Prop36
280
     0
102
RTVSPost2010PropOp36
 70
     1
102
RTVSPost2010Prop37
 90
       50
102
RTVSPost2010PropOp37
 70
     1
102
RTVSPost2010Prop38
140
0.0
102
RTVSPost2010PropOp38
 70
     1
102
RTVSPost2010Prop39
140
1.0
102
RTVSPost2010PropOp39
 70
     1
102
RTVSPost2010Prop40
 90
        0
102
RTVSPost2010PropOp40
 70
     1
102
RTVSPost2010Prop41ColorIndex
 90
       18
102
RTVSPost2010Prop41ColorRGB
 90
        0
102
RTVSPost2010PropOp41
 70
     1
102
RTVSPost2010Prop42
 90
       50
102
RTVSPost2010PropOp42
 70
     1
102
RTVSPost2010Prop43
 90
        3
102
RTVSPost2010PropOp43
 70
     1
102
RTVSPost2010Prop44ColorIndex
 90
        5
102
RTVSPost2010Prop44ColorRGB
 90
      255
102
RTVSPost2010PropOp44
 70
     1
102
RTVSPost2010Prop45
280
     0
102
RTVSPost2010PropOp45
 70
     1
102
RTVSPost2010Prop46
 90
       50
102
RTVSPost2010PropOp46
 70
     1
102
RTVSPost2010Prop47
 90
       50
102
RTVSPost2010PropOp47
 70
     1
102
RTVSPost2010Prop48
 90
       50
102
RTVSPost2010PropOp48
 70
     1
102
RTVSPost2010Prop49
280
     0
102
RTVSPost2010PropOp49
 70
     1
102
RTVSPost2010Prop50
 90
       50
102
RTVSPost2010PropOp50
 70
     1
102
RTVSPost2010Prop51ColorIndex
 90
      256
102
RTVSPost2010Prop51ColorRGB
 90
-16777216
102
RTVSPost2010PropOp51
 70
     0
102
RTVSPost2010Prop52
140
1.0
102
RTVSPost2010PropOp52
 70
     0
102
RTVSPost2010Prop53
 90
        2
102
RTVSPost2010PropOp53
 70
     1
102
RTVSPost2010Prop54
  1
strokes_ogs.tif
102
RTVSPost2010PropOp54
 70
     1
102
RTVSPost2010Prop55
280
     0
102
RTVSPost2010PropOp55
 70
     1
102
RTVSPost2010Prop56
140
1.0
102
RTVSPost2010PropOp56
 70
     1
102
RTVSPost2010Prop57
140
1.0
102
RTVSPost2010PropOp57
 70
     1
102
RTVSPropertyOp0
 70
     1
102
RTVSPropertyOp1
 70
     1
102
RTVSPropertyOp2
 70
     1
102
RTVSPropertyOp3
 70
     1
102
RTVSPropertyOp4
 70
     1
102
RTVSPropertyOp5
 70
     1
102
RTVSPropertyOp6
 70
     1
102
RTVSPropertyOp7
 70
     1
102
RTVSPropertyOp8
 70
     1
102
RTVSPropertyOp9
 70
     1
102
RTVSPropertyOp10
 70
     1
102
RTVSPropertyOp11
 70
     1
102
RTVSPropertyOp12
 70
     1
102
RTVSPropertyOp13
 70
     1
102
RTVSPropertyOp14
 70
     1
102
RTVSPropertyOp15
 70
     1
102
RTVSPropertyOp16
 70
     1
102
RTVSPropertyOp17
 70
     1
102
RTVSPropertyOp18
 70
     1
102
RTVSPropertyOp19
 70
     1
102
RTVSPropertyOp20
 70
     1
102
RTVSPropertyOp21
 70
     1
102
RTVSPropertyOp22
 70
     1
102
RTVSPropertyOp23
 70
     1
102
RTVSPropertyOp24
 70
     1
102
RTVSPropertyOp25
 70
     1
102
RTVSPropertyOp26
 70
     1
102
RTVSPropertyOp27
 70
     1
102
RTVSPropertyOp28
 70
     1
102
RTVSPropertyOp29
 70
     1
102
RTVSPropertyOp30
 70
     1
102
RTVSPropertyOp31
 70
     1
102
RTVSPropertyOp32
 70
     1
102
RTVSPropertyOp33
 70
     1
102
RTVSPropertyOp34
 70
     1
102
RTVSPropertyOp35
 70
     1
102
RTVSPropertyOp36
 70
     1
102
RTVSPropertyOp37
 70
     1
102
RTVSPropertyOp38
 70
     1
102
RTVSPropertyOp39
 70
     1
102
RTVSPropertyOp40
 70
     1
102
RTVSPropertyOp41
 70
     1
102
RTVSPropertyOp42
 70
     1
102
RTVSPropertyOp43
 70
     1
102
RTVSPropertyOp44
 70
     1
102
RTVSPropertyOp45
 70
     1
102
RTVSPropertyOp46
 70
     1
102
RTVSPropertyOp47
 70
     1
102
RTVSPropertyOp48
 70
     1
102
RTVSPropertyOp49
 70
     1
102
RTVSPropertyOp50
 70
     1
102
RTVSPropertyOp51
 70
     0
102
RTVSPropertyOp52
 70
     0
102
RTVSPropertyOp53
 70
     1
102
RTVSPropertyOp54
 70
     1
102
RTVSPropertyOp55
 70
     1
102
RTVSPropertyOp56
 70
     1
102
RTVSPropertyOp57
 70
     1
102
RTVSPropertyOp58
 70
     1
102
RTVSPropertyOp59
 70
     1
102
RTVSPropertyOp60
 70
     1
102
RTVSPropertyOp61
 70
     1
102
RTVSPropertyOp62
 70
     1
  0
XRECORD
  5
B74
102
{ACAD_REACTORS
330
B73
102
}
330
B73
100
AcDbXrecord
280
     1
102
RTVSPost2010Prop28
280
     0
102
RTVSPost2010PropOp28
 70
     1
102
RTVSPost2010Prop29
280
     1
102
RTVSPost2010PropOp29
 70
     1
102
RTVSPost2010Prop30
280
     1
102
RTVSPost2010PropOp30
 70
     1
102
RTVSPost2010Prop31
280
     0
102
RTVSPost2010PropOp31
 70
     1
102
RTVSPost2010Prop32
280
     0
102
RTVSPost2010PropOp32
 70
     1
102
RTVSPost2010Prop33
280
     0
102
RTVSPost2010PropOp33
 70
     1
102
RTVSPost2010Prop34
280
     0
102
RTVSPost2010PropOp34
 70
     1
102
RTVSPost2010Prop35
280
     0
102
RTVSPost2010PropOp35
 70
     1
102
RTVSPost2010Prop36
280
     0
102
RTVSPost2010PropOp36
 70
     1
102
RTVSPost2010Prop37
 90
       50
102
RTVSPost2010PropOp37
 70
     1
102
RTVSPost2010Prop38
140
0.0
102
RTVSPost2010PropOp38
 70
     1
102
RTVSPost2010Prop39
140
1.0
102
RTVSPost2010PropOp39
 70
     1
102
RTVSPost2010Prop40
 90
        0
102
RTVSPost2010PropOp40
 70
     1
102
RTVSPost2010Prop41ColorIndex
 90
       18
102
RTVSPost2010Prop41ColorRGB
 90
        0
102
RTVSPost2010PropOp41
 70
     1
102
RTVSPost2010Prop42
 90
       50
102
RTVSPost2010PropOp42
 70
     1
102
RTVSPost2010Prop43
 90
        3
102
RTVSPost2010PropOp43
 70
     1
102
RTVSPost2010Prop44ColorIndex
 90
        5
102
RTVSPost2010Prop44ColorRGB
 90
      255
102
RTVSPost2010PropOp44
 70
     1
102
RTVSPost2010Prop45
280
     0
102
RTVSPost2010PropOp45
 70
     1
102
RTVSPost2010Prop46
 90
       50
102
RTVSPost2010PropOp46
 70
     1
102
RTVSPost2010Prop47
 90
       50
102
RTVSPost2010PropOp47
 70
     1
102
RTVSPost2010Prop48
 90
       50
102
RTVSPost2010PropOp48
 70
     1
102
RTVSPost2010Prop49
280
     0
102
RTVSPost2010PropOp49
 70
     1
102
RTVSPost2010Prop50
 90
       50
102
RTVSPost2010PropOp50
 70
     1
102
RTVSPost2010Prop51ColorIndex
 90
      256
102
RTVSPost2010Prop51ColorRGB
 90
-16777216
102
RTVSPost2010PropOp51
 70
     0
102
RTVSPost2010Prop52
140
1.0
102
RTVSPost2010PropOp52
 70
     0
102
RTVSPost2010Prop53
 90
        2
102
RTVSPost2010PropOp53
 70
     1
102
RTVSPost2010Prop54
  1
strokes_ogs.tif
102
RTVSPost2010PropOp54
 70
     1
102
RTVSPost2010Prop55
280
     0
102
RTVSPost2010PropOp55
 70
     1
102
RTVSPost2010Prop56
140
1.0
102
RTVSPost2010PropOp56
 70
     1
102
RTVSPost2010Prop57
140
1.0
102
RTVSPost2010PropOp57
 70
     1
102
RTVSPropertyOp0
 70
     1
102
RTVSPropertyOp1
 70
     1
102
RTVSPropertyOp2
 70
     1
102
RTVSPropertyOp3
 70
     1
102
RTVSPropertyOp4
 70
     1
102
RTVSPropertyOp5
 70
     1
102
RTVSPropertyOp6
 70
     1
102
RTVSPropertyOp7
 70
     1
102
RTVSPropertyOp8
 70
     1
102
RTVSPropertyOp9
 70
     1
102
RTVSPropertyOp10
 70
     1
102
RTVSPropertyOp11
 70
     1
102
RTVSPropertyOp12
 70
     1
102
RTVSPropertyOp13
 70
     1
102
RTVSPropertyOp14
 70
     1
102
RTVSPropertyOp15
 70
     1
102
RTVSPropertyOp16
 70
     1
102
RTVSPropertyOp17
 70
     1
102
RTVSPropertyOp18
 70
     1
102
RTVSPropertyOp19
 70
     1
102
RTVSPropertyOp20
 70
     1
102
RTVSPropertyOp21
 70
     1
102
RTVSPropertyOp22
 70
     1
102
RTVSPropertyOp23
 70
     1
102
RTVSPropertyOp24
 70
     1
102
RTVSPropertyOp25
 70
     1
102
RTVSPropertyOp26
 70
     1
102
RTVSPropertyOp27
 70
     1
102
RTVSPropertyOp28
 70
     1
102
RTVSPropertyOp29
 70
     1
102
RTVSPropertyOp30
 70
     1
102
RTVSPropertyOp31
 70
     1
102
RTVSPropertyOp32
 70
     1
102
RTVSPropertyOp33
 70
     1
102
RTVSPropertyOp34
 70
     1
102
RTVSPropertyOp35
 70
     1
102
RTVSPropertyOp36
 70
     1
102
RTVSPropertyOp37
 70
     1
102
RTVSPropertyOp38
 70
     1
102
RTVSPropertyOp39
 70
     1
102
RTVSPropertyOp40
 70
     1
102
RTVSPropertyOp41
 70
     1
102
RTVSPropertyOp42
 70
     1
102
RTVSPropertyOp43
 70
     1
102
RTVSPropertyOp44
 70
     1
102
RTVSPropertyOp45
 70
     1
102
RTVSPropertyOp46
 70
     1
102
RTVSPropertyOp47
 70
     1
102
RTVSPropertyOp48
 70
     1
102
RTVSPropertyOp49
 70
     1
102
RTVSPropertyOp50
 70
     1
102
RTVSPropertyOp51
 70
     0
102
RTVSPropertyOp52
 70
     0
102
RTVSPropertyOp53
 70
     1
102
RTVSPropertyOp54
 70
     1
102
RTVSPropertyOp55
 70
     1
102
RTVSPropertyOp56
 70
     1
102
RTVSPropertyOp57
 70
     1
102
RTVSPropertyOp58
 70
     1
102
RTVSPropertyOp59
 70
     1
102
RTVSPropertyOp60
 70
     1
102
RTVSPropertyOp61
 70
     1
102
RTVSPropertyOp62
 70
     1
  0
XRECORD
  5
B76
102
{ACAD_REACTORS
330
B75
102
}
330
B75
100
AcDbXrecord
280
     1
102
RTVSPost2010Prop28
280
     0
102
RTVSPost2010PropOp28
 70
     1
102
RTVSPost2010Prop29
280
     1
102
RTVSPost2010PropOp29
 70
     1
102
RTVSPost2010Prop30
280
     1
102
RTVSPost2010PropOp30
 70
     1
102
RTVSPost2010Prop31
280
     0
102
RTVSPost2010PropOp31
 70
     1
102
RTVSPost2010Prop32
280
     0
102
RTVSPost2010PropOp32
 70
     1
102
RTVSPost2010Prop33
280
     0
102
RTVSPost2010PropOp33
 70
     1
102
RTVSPost2010Prop34
280
     0
102
RTVSPost2010PropOp34
 70
     1
102
RTVSPost2010Prop35
280
     0
102
RTVSPost2010PropOp35
 70
     1
102
RTVSPost2010Prop36
280
     0
102
RTVSPost2010PropOp36
 70
     1
102
RTVSPost2010Prop37
 90
       50
102
RTVSPost2010PropOp37
 70
     1
102
RTVSPost2010Prop38
140
0.0
102
RTVSPost2010PropOp38
 70
     1
102
RTVSPost2010Prop39
140
1.0
102
RTVSPost2010PropOp39
 70
     1
102
RTVSPost2010Prop40
 90
        0
102
RTVSPost2010PropOp40
 70
     1
102
RTVSPost2010Prop41ColorIndex
 90
       18
102
RTVSPost2010Prop41ColorRGB
 90
        0
102
RTVSPost2010PropOp41
 70
     1
102
RTVSPost2010Prop42
 90
       50
102
RTVSPost2010PropOp42
 70
     1
102
RTVSPost2010Prop43
 90
        3
102
RTVSPost2010PropOp43
 70
     1
102
RTVSPost2010Prop44ColorIndex
 90
        5
102
RTVSPost2010Prop44ColorRGB
 90
      255
102
RTVSPost2010PropOp44
 70
     1
102
RTVSPost2010Prop45
280
     0
102
RTVSPost2010PropOp45
 70
     1
102
RTVSPost2010Prop46
 90
       50
102
RTVSPost2010PropOp46
 70
     1
102
RTVSPost2010Prop47
 90
       50
102
RTVSPost2010PropOp47
 70
     1
102
RTVSPost2010Prop48
 90
       50
102
RTVSPost2010PropOp48
 70
     1
102
RTVSPost2010Prop49
280
     0
102
RTVSPost2010PropOp49
 70
     1
102
RTVSPost2010Prop50
 90
       50
102
RTVSPost2010PropOp50
 70
     1
102
RTVSPost2010Prop51ColorIndex
 90
      256
102
RTVSPost2010Prop51ColorRGB
 90
-16777216
102
RTVSPost2010PropOp51
 70
     0
102
RTVSPost2010Prop52
140
1.0
102
RTVSPost2010PropOp52
 70
     0
102
RTVSPost2010Prop53
 90
        2
102
RTVSPost2010PropOp53
 70
     1
102
RTVSPost2010Prop54
  1
strokes_ogs.tif
102
RTVSPost2010PropOp54
 70
     1
102
RTVSPost2010Prop55
280
     0
102
RTVSPost2010PropOp55
 70
     1
102
RTVSPost2010Prop56
140
1.0
102
RTVSPost2010PropOp56
 70
     1
102
RTVSPost2010Prop57
140
1.0
102
RTVSPost2010PropOp57
 70
     1
102
RTVSPropertyOp0
 70
     1
102
RTVSPropertyOp1
 70
     1
102
RTVSPropertyOp2
 70
     1
102
RTVSPropertyOp3
 70
     1
102
RTVSPropertyOp4
 70
     1
102
RTVSPropertyOp5
 70
     1
102
RTVSPropertyOp6
 70
     1
102
RTVSPropertyOp7
 70
     1
102
RTVSPropertyOp8
 70
     1
102
RTVSPropertyOp9
 70
     1
102
RTVSPropertyOp10
 70
     1
102
RTVSPropertyOp11
 70
     1
102
RTVSPropertyOp12
 70
     1
102
RTVSPropertyOp13
 70
     1
102
RTVSPropertyOp14
 70
     1
102
RTVSPropertyOp15
 70
     1
102
RTVSPropertyOp16
 70
     1
102
RTVSPropertyOp17
 70
     1
102
RTVSPropertyOp18
 70
     1
102
RTVSPropertyOp19
 70
     1
102
RTVSPropertyOp20
 70
     1
102
RTVSPropertyOp21
 70
     1
102
RTVSPropertyOp22
 70
     1
102
RTVSPropertyOp23
 70
     1
102
RTVSPropertyOp24
 70
     1
102
RTVSPropertyOp25
 70
     1
102
RTVSPropertyOp26
 70
     1
102
RTVSPropertyOp27
 70
     1
102
RTVSPropertyOp28
 70
     1
102
RTVSPropertyOp29
 70
     1
102
RTVSPropertyOp30
 70
     1
102
RTVSPropertyOp31
 70
     1
102
RTVSPropertyOp32
 70
     1
102
RTVSPropertyOp33
 70
     1
102
RTVSPropertyOp34
 70
     1
102
RTVSPropertyOp35
 70
     1
102
RTVSPropertyOp36
 70
     1
102
RTVSPropertyOp37
 70
     1
102
RTVSPropertyOp38
 70
     1
102
RTVSPropertyOp39
 70
     1
102
RTVSPropertyOp40
 70
     1
102
RTVSPropertyOp41
 70
     1
102
RTVSPropertyOp42
 70
     1
102
RTVSPropertyOp43
 70
     1
102
RTVSPropertyOp44
 70
     1
102
RTVSPropertyOp45
 70
     1
102
RTVSPropertyOp46
 70
     1
102
RTVSPropertyOp47
 70
     1
102
RTVSPropertyOp48
 70
     1
102
RTVSPropertyOp49
 70
     1
102
RTVSPropertyOp50
 70
     1
102
RTVSPropertyOp51
 70
     0
102
RTVSPropertyOp52
 70
     0
102
RTVSPropertyOp53
 70
     1
102
RTVSPropertyOp54
 70
     1
102
RTVSPropertyOp55
 70
     1
102
RTVSPropertyOp56
 70
     1
102
RTVSPropertyOp57
 70
     1
102
RTVSPropertyOp58
 70
     1
102
RTVSPropertyOp59
 70
     1
102
RTVSPropertyOp60
 70
     1
102
RTVSPropertyOp61
 70
     1
102
RTVSPropertyOp62
 70
     1
  0
XRECORD
  5
B66
102
{ACAD_REACTORS
330
B65
102
}
330
B65
100
AcDbXrecord
280
     1
102
RTVSPost2010Prop28
280
     0
102
RTVSPost2010PropOp28
 70
     1
102
RTVSPost2010Prop29
280
     1
102
RTVSPost2010PropOp29
 70
     1
102
RTVSPost2010Prop30
280
     1
102
RTVSPost2010PropOp30
 70
     1
102
RTVSPost2010Prop31
280
     0
102
RTVSPost2010PropOp31
 70
     1
102
RTVSPost2010Prop32
280
     0
102
RTVSPost2010PropOp32
 70
     1
102
RTVSPost2010Prop33
280
     0
102
RTVSPost2010PropOp33
 70
     1
102
RTVSPost2010Prop34
280
     0
102
RTVSPost2010PropOp34
 70
     1
102
RTVSPost2010Prop35
280
     0
102
RTVSPost2010PropOp35
 70
     1
102
RTVSPost2010Prop36
280
     0
102
RTVSPost2010PropOp36
 70
     1
102
RTVSPost2010Prop37
 90
       50
102
RTVSPost2010PropOp37
 70
     1
102
RTVSPost2010Prop38
140
0.0
102
RTVSPost2010PropOp38
 70
     1
102
RTVSPost2010Prop39
140
1.0
102
RTVSPost2010PropOp39
 70
     1
102
RTVSPost2010Prop40
 90
        0
102
RTVSPost2010PropOp40
 70
     1
102
RTVSPost2010Prop41ColorIndex
 90
       18
102
RTVSPost2010Prop41ColorRGB
 90
        0
102
RTVSPost2010PropOp41
 70
     1
102
RTVSPost2010Prop42
 90
       50
102
RTVSPost2010PropOp42
 70
     1
102
RTVSPost2010Prop43
 90
        3
102
RTVSPost2010PropOp43
 70
     1
102
RTVSPost2010Prop44ColorIndex
 90
        5
102
RTVSPost2010Prop44ColorRGB
 90
      255
102
RTVSPost2010PropOp44
 70
     1
102
RTVSPost2010Prop45
280
     0
102
RTVSPost2010PropOp45
 70
     1
102
RTVSPost2010Prop46
 90
       50
102
RTVSPost2010PropOp46
 70
     1
102
RTVSPost2010Prop47
 90
       50
102
RTVSPost2010PropOp47
 70
     1
102
RTVSPost2010Prop48
 90
       50
102
RTVSPost2010PropOp48
 70
     1
102
RTVSPost2010Prop49
280
     0
102
RTVSPost2010PropOp49
 70
     1
102
RTVSPost2010Prop50
 90
       50
102
RTVSPost2010PropOp50
 70
     1
102
RTVSPost2010Prop51ColorIndex
 90
      256
102
RTVSPost2010Prop51ColorRGB
 90
-16777216
102
RTVSPost2010PropOp51
 70
     0
102
RTVSPost2010Prop52
140
1.0
102
RTVSPost2010PropOp52
 70
     0
102
RTVSPost2010Prop53
 90
        2
102
RTVSPost2010PropOp53
 70
     1
102
RTVSPost2010Prop54
  1
strokes_ogs.tif
102
RTVSPost2010PropOp54
 70
     1
102
RTVSPost2010Prop55
280
     0
102
RTVSPost2010PropOp55
 70
     1
102
RTVSPost2010Prop56
140
1.0
102
RTVSPost2010PropOp56
 70
     1
102
RTVSPost2010Prop57
140
1.0
102
RTVSPost2010PropOp57
 70
     1
102
RTVSPropertyOp0
 70
     1
102
RTVSPropertyOp1
 70
     1
102
RTVSPropertyOp2
 70
     1
102
RTVSPropertyOp3
 70
     1
102
RTVSPropertyOp4
 70
     1
102
RTVSPropertyOp5
 70
     1
102
RTVSPropertyOp6
 70
     1
102
RTVSPropertyOp7
 70
     1
102
RTVSPropertyOp8
 70
     1
102
RTVSPropertyOp9
 70
     1
102
RTVSPropertyOp10
 70
     1
102
RTVSPropertyOp11
 70
     1
102
RTVSPropertyOp12
 70
     1
102
RTVSPropertyOp13
 70
     1
102
RTVSPropertyOp14
 70
     1
102
RTVSPropertyOp15
 70
     1
102
RTVSPropertyOp16
 70
     1
102
RTVSPropertyOp17
 70
     1
102
RTVSPropertyOp18
 70
     1
102
RTVSPropertyOp19
 70
     1
102
RTVSPropertyOp20
 70
     1
102
RTVSPropertyOp21
 70
     1
102
RTVSPropertyOp22
 70
     1
102
RTVSPropertyOp23
 70
     1
102
RTVSPropertyOp24
 70
     1
102
RTVSPropertyOp25
 70
     1
102
RTVSPropertyOp26
 70
     1
102
RTVSPropertyOp27
 70
     1
102
RTVSPropertyOp28
 70
     1
102
RTVSPropertyOp29
 70
     1
102
RTVSPropertyOp30
 70
     1
102
RTVSPropertyOp31
 70
     1
102
RTVSPropertyOp32
 70
     1
102
RTVSPropertyOp33
 70
     1
102
RTVSPropertyOp34
 70
     1
102
RTVSPropertyOp35
 70
     1
102
RTVSPropertyOp36
 70
     1
102
RTVSPropertyOp37
 70
     1
102
RTVSPropertyOp38
 70
     1
102
RTVSPropertyOp39
 70
     1
102
RTVSPropertyOp40
 70
     1
102
RTVSPropertyOp41
 70
     1
102
RTVSPropertyOp42
 70
     1
102
RTVSPropertyOp43
 70
     1
102
RTVSPropertyOp44
 70
     1
102
RTVSPropertyOp45
 70
     1
102
RTVSPropertyOp46
 70
     1
102
RTVSPropertyOp47
 70
     1
102
RTVSPropertyOp48
 70
     1
102
RTVSPropertyOp49
 70
     1
102
RTVSPropertyOp50
 70
     1
102
RTVSPropertyOp51
 70
     0
102
RTVSPropertyOp52
 70
     0
102
RTVSPropertyOp53
 70
     1
102
RTVSPropertyOp54
 70
     1
102
RTVSPropertyOp55
 70
     1
102
RTVSPropertyOp56
 70
     1
102
RTVSPropertyOp57
 70
     1
102
RTVSPropertyOp58
 70
     1
102
RTVSPropertyOp59
 70
     1
102
RTVSPropertyOp60
 70
     1
102
RTVSPropertyOp61
 70
     1
102
RTVSPropertyOp62
 70
     1
  0
XRECORD
  5
B5A
102
{ACAD_REACTORS
330
B59
102
}
330
B59
100
AcDbXrecord
280
     1
102
RTVSPost2010Prop28
280
     0
102
RTVSPost2010PropOp28
 70
     1
102
RTVSPost2010Prop29
280
     1
102
RTVSPost2010PropOp29
 70
     1
102
RTVSPost2010Prop30
280
     1
102
RTVSPost2010PropOp30
 70
     1
102
RTVSPost2010Prop31
280
     0
102
RTVSPost2010PropOp31
 70
     1
102
RTVSPost2010Prop32
280
     0
102
RTVSPost2010PropOp32
 70
     1
102
RTVSPost2010Prop33
280
     0
102
RTVSPost2010PropOp33
 70
     1
102
RTVSPost2010Prop34
280
     0
102
RTVSPost2010PropOp34
 70
     1
102
RTVSPost2010Prop35
280
     0
102
RTVSPost2010PropOp35
 70
     1
102
RTVSPost2010Prop36
280
     0
102
RTVSPost2010PropOp36
 70
     1
102
RTVSPost2010Prop37
 90
       50
102
RTVSPost2010PropOp37
 70
     1
102
RTVSPost2010Prop38
140
0.0
102
RTVSPost2010PropOp38
 70
     1
102
RTVSPost2010Prop39
140
1.0
102
RTVSPost2010PropOp39
 70
     1
102
RTVSPost2010Prop40
 90
        0
102
RTVSPost2010PropOp40
 70
     1
102
RTVSPost2010Prop41ColorIndex
 90
       18
102
RTVSPost2010Prop41ColorRGB
 90
        0
102
RTVSPost2010PropOp41
 70
     1
102
RTVSPost2010Prop42
 90
       50
102
RTVSPost2010PropOp42
 70
     1
102
RTVSPost2010Prop43
 90
        3
102
RTVSPost2010PropOp43
 70
     1
102
RTVSPost2010Prop44ColorIndex
 90
        5
102
RTVSPost2010Prop44ColorRGB
 90
      255
102
RTVSPost2010PropOp44
 70
     1
102
RTVSPost2010Prop45
280
     0
102
RTVSPost2010PropOp45
 70
     1
102
RTVSPost2010Prop46
 90
       50
102
RTVSPost2010PropOp46
 70
     1
102
RTVSPost2010Prop47
 90
       50
102
RTVSPost2010PropOp47
 70
     1
102
RTVSPost2010Prop48
 90
       50
102
RTVSPost2010PropOp48
 70
     1
102
RTVSPost2010Prop49
280
     0
102
RTVSPost2010PropOp49
 70
     1
102
RTVSPost2010Prop50
 90
       50
102
RTVSPost2010PropOp50
 70
     1
102
RTVSPost2010Prop51ColorIndex
 90
      256
102
RTVSPost2010Prop51ColorRGB
 90
-16777216
102
RTVSPost2010PropOp51
 70
     0
102
RTVSPost2010Prop52
140
1.0
102
RTVSPost2010PropOp52
 70
     0
102
RTVSPost2010Prop53
 90
        2
102
RTVSPost2010PropOp53
 70
     1
102
RTVSPost2010Prop54
  1
strokes_ogs.tif
102
RTVSPost2010PropOp54
 70
     1
102
RTVSPost2010Prop55
280
     0
102
RTVSPost2010PropOp55
 70
     1
102
RTVSPost2010Prop56
140
1.0
102
RTVSPost2010PropOp56
 70
     1
102
RTVSPost2010Prop57
140
1.0
102
RTVSPost2010PropOp57
 70
     1
102
RTVSPropertyOp0
 70
     1
102
RTVSPropertyOp1
 70
     1
102
RTVSPropertyOp2
 70
     1
102
RTVSPropertyOp3
 70
     1
102
RTVSPropertyOp4
 70
     1
102
RTVSPropertyOp5
 70
     1
102
RTVSPropertyOp6
 70
     1
102
RTVSPropertyOp7
 70
     1
102
RTVSPropertyOp8
 70
     1
102
RTVSPropertyOp9
 70
     1
102
RTVSPropertyOp10
 70
     1
102
RTVSPropertyOp11
 70
     1
102
RTVSPropertyOp12
 70
     1
102
RTVSPropertyOp13
 70
     1
102
RTVSPropertyOp14
 70
     1
102
RTVSPropertyOp15
 70
     1
102
RTVSPropertyOp16
 70
     1
102
RTVSPropertyOp17
 70
     1
102
RTVSPropertyOp18
 70
     1
102
RTVSPropertyOp19
 70
     1
102
RTVSPropertyOp20
 70
     1
102
RTVSPropertyOp21
 70
     1
102
RTVSPropertyOp22
 70
     1
102
RTVSPropertyOp23
 70
     1
102
RTVSPropertyOp24
 70
     1
102
RTVSPropertyOp25
 70
     1
102
RTVSPropertyOp26
 70
     1
102
RTVSPropertyOp27
 70
     1
102
RTVSPropertyOp28
 70
     1
102
RTVSPropertyOp29
 70
     1
102
RTVSPropertyOp30
 70
     1
102
RTVSPropertyOp31
 70
     1
102
RTVSPropertyOp32
 70
     1
102
RTVSPropertyOp33
 70
     1
102
RTVSPropertyOp34
 70
     1
102
RTVSPropertyOp35
 70
     1
102
RTVSPropertyOp36
 70
     1
102
RTVSPropertyOp37
 70
     1
102
RTVSPropertyOp38
 70
     1
102
RTVSPropertyOp39
 70
     1
102
RTVSPropertyOp40
 70
     1
102
RTVSPropertyOp41
 70
     1
102
RTVSPropertyOp42
 70
     1
102
RTVSPropertyOp43
 70
     1
102
RTVSPropertyOp44
 70
     1
102
RTVSPropertyOp45
 70
     1
102
RTVSPropertyOp46
 70
     1
102
RTVSPropertyOp47
 70
     1
102
RTVSPropertyOp48
 70
     1
102
RTVSPropertyOp49
 70
     1
102
RTVSPropertyOp50
 70
     1
102
RTVSPropertyOp51
 70
     0
102
RTVSPropertyOp52
 70
     0
102
RTVSPropertyOp53
 70
     1
102
RTVSPropertyOp54
 70
     1
102
RTVSPropertyOp55
 70
     1
102
RTVSPropertyOp56
 70
     1
102
RTVSPropertyOp57
 70
     1
102
RTVSPropertyOp58
 70
     1
102
RTVSPropertyOp59
 70
     1
102
RTVSPropertyOp60
 70
     1
102
RTVSPropertyOp61
 70
     1
102
RTVSPropertyOp62
 70
     1
  0
XRECORD
  5
B78
102
{ACAD_REACTORS
330
B77
102
}
330
B77
100
AcDbXrecord
280
     1
102
RTVSPost2010Prop28
280
     0
102
RTVSPost2010PropOp28
 70
     1
102
RTVSPost2010Prop29
280
     1
102
RTVSPost2010PropOp29
 70
     1
102
RTVSPost2010Prop30
280
     1
102
RTVSPost2010PropOp30
 70
     1
102
RTVSPost2010Prop31
280
     0
102
RTVSPost2010PropOp31
 70
     1
102
RTVSPost2010Prop32
280
     0
102
RTVSPost2010PropOp32
 70
     1
102
RTVSPost2010Prop33
280
     0
102
RTVSPost2010PropOp33
 70
     1
102
RTVSPost2010Prop34
280
     0
102
RTVSPost2010PropOp34
 70
     1
102
RTVSPost2010Prop35
280
     0
102
RTVSPost2010PropOp35
 70
     1
102
RTVSPost2010Prop36
280
     0
102
RTVSPost2010PropOp36
 70
     1
102
RTVSPost2010Prop37
 90
       50
102
RTVSPost2010PropOp37
 70
     1
102
RTVSPost2010Prop38
140
0.0
102
RTVSPost2010PropOp38
 70
     1
102
RTVSPost2010Prop39
140
1.0
102
RTVSPost2010PropOp39
 70
     1
102
RTVSPost2010Prop40
 90
        0
102
RTVSPost2010PropOp40
 70
     1
102
RTVSPost2010Prop41ColorIndex
 90
       18
102
RTVSPost2010Prop41ColorRGB
 90
        0
102
RTVSPost2010PropOp41
 70
     1
102
RTVSPost2010Prop42
 90
       50
102
RTVSPost2010PropOp42
 70
     1
102
RTVSPost2010Prop43
 90
        3
102
RTVSPost2010PropOp43
 70
     1
102
RTVSPost2010Prop44ColorIndex
 90
        5
102
RTVSPost2010Prop44ColorRGB
 90
      255
102
RTVSPost2010PropOp44
 70
     1
102
RTVSPost2010Prop45
280
     0
102
RTVSPost2010PropOp45
 70
     1
102
RTVSPost2010Prop46
 90
       50
102
RTVSPost2010PropOp46
 70
     1
102
RTVSPost2010Prop47
 90
       50
102
RTVSPost2010PropOp47
 70
     1
102
RTVSPost2010Prop48
 90
       50
102
RTVSPost2010PropOp48
 70
     1
102
RTVSPost2010Prop49
280
     0
102
RTVSPost2010PropOp49
 70
     1
102
RTVSPost2010Prop50
 90
       50
102
RTVSPost2010PropOp50
 70
     1
102
RTVSPost2010Prop51ColorIndex
 90
      256
102
RTVSPost2010Prop51ColorRGB
 90
-16777216
102
RTVSPost2010PropOp51
 70
     0
102
RTVSPost2010Prop52
140
1.0
102
RTVSPost2010PropOp52
 70
     0
102
RTVSPost2010Prop53
 90
        2
102
RTVSPost2010PropOp53
 70
     1
102
RTVSPost2010Prop54
  1
strokes_ogs.tif
102
RTVSPost2010PropOp54
 70
     1
102
RTVSPost2010Prop55
280
     0
102
RTVSPost2010PropOp55
 70
     1
102
RTVSPost2010Prop56
140
1.0
102
RTVSPost2010PropOp56
 70
     1
102
RTVSPost2010Prop57
140
1.0
102
RTVSPost2010PropOp57
 70
     1
102
RTVSPropertyOp0
 70
     1
102
RTVSPropertyOp1
 70
     1
102
RTVSPropertyOp2
 70
     1
102
RTVSPropertyOp3
 70
     1
102
RTVSPropertyOp4
 70
     1
102
RTVSPropertyOp5
 70
     1
102
RTVSPropertyOp6
 70
     1
102
RTVSPropertyOp7
 70
     1
102
RTVSPropertyOp8
 70
     1
102
RTVSPropertyOp9
 70
     1
102
RTVSPropertyOp10
 70
     1
102
RTVSPropertyOp11
 70
     1
102
RTVSPropertyOp12
 70
     1
102
RTVSPropertyOp13
 70
     1
102
RTVSPropertyOp14
 70
     1
102
RTVSPropertyOp15
 70
     1
102
RTVSPropertyOp16
 70
     1
102
RTVSPropertyOp17
 70
     1
102
RTVSPropertyOp18
 70
     1
102
RTVSPropertyOp19
 70
     1
102
RTVSPropertyOp20
 70
     1
102
RTVSPropertyOp21
 70
     1
102
RTVSPropertyOp22
 70
     1
102
RTVSPropertyOp23
 70
     1
102
RTVSPropertyOp24
 70
     1
102
RTVSPropertyOp25
 70
     1
102
RTVSPropertyOp26
 70
     1
102
RTVSPropertyOp27
 70
     1
102
RTVSPropertyOp28
 70
     1
102
RTVSPropertyOp29
 70
     1
102
RTVSPropertyOp30
 70
     1
102
RTVSPropertyOp31
 70
     1
102
RTVSPropertyOp32
 70
     1
102
RTVSPropertyOp33
 70
     1
102
RTVSPropertyOp34
 70
     1
102
RTVSPropertyOp35
 70
     1
102
RTVSPropertyOp36
 70
     1
102
RTVSPropertyOp37
 70
     1
102
RTVSPropertyOp38
 70
     1
102
RTVSPropertyOp39
 70
     1
102
RTVSPropertyOp40
 70
     1
102
RTVSPropertyOp41
 70
     1
102
RTVSPropertyOp42
 70
     1
102
RTVSPropertyOp43
 70
     1
102
RTVSPropertyOp44
 70
     1
102
RTVSPropertyOp45
 70
     1
102
RTVSPropertyOp46
 70
     1
102
RTVSPropertyOp47
 70
     1
102
RTVSPropertyOp48
 70
     1
102
RTVSPropertyOp49
 70
     1
102
RTVSPropertyOp50
 70
     1
102
RTVSPropertyOp51
 70
     0
102
RTVSPropertyOp52
 70
     0
102
RTVSPropertyOp53
 70
     1
102
RTVSPropertyOp54
 70
     1
102
RTVSPropertyOp55
 70
     1
102
RTVSPropertyOp56
 70
     1
102
RTVSPropertyOp57
 70
     1
102
RTVSPropertyOp58
 70
     1
102
RTVSPropertyOp59
 70
     1
102
RTVSPropertyOp60
 70
     1
102
RTVSPropertyOp61
 70
     1
102
RTVSPropertyOp62
 70
     1
  0
ENDSEC
  0
EOF
