  0
SECTION
  2
HEADER
  9
$ACADVER
  1
AC1015
  9
$ACADMAINTVER
 70
    20
  9
$DWGCODEPAGE
  3
ANSI_1252
  9
$INSBASE
 10
0.0
 20
0.0
 30
0.0
  9
$EXTMIN
 10
-1.042236301398645
 20
-0.5537109171898465
 30
-0.0625609770214126
  9
$EXTMAX
 10
3.212219255990603
 20
2.313034070787292
 30
0.0000000349246037
  9
$LIMMIN
 10
0.0
 20
0.0
  9
$LIMMAX
 10
12.0
 20
9.0
  9
$ORTHOMODE
 70
     0
  9
$REGENMODE
 70
     1
  9
$FILLMODE
 70
     1
  9
$QTEXTMODE
 70
     0
  9
$MIRRTEXT
 70
     0
  9
$LTSCALE
 40
1.0
  9
$ATTMODE
 70
     1
  9
$TEXTSIZE
 40
0.2
  9
$TRACEWID
 40
0.05
  9
$TEXTSTYLE
  7
Standard
  9
$CLAYER
  8
0
  9
$CELTYPE
  6
ByLayer
  9
$CECOLOR
 62
   256
  9
$CELTSCALE
 40
1.0
  9
$DISPSILH
 70
     0
  9
$DIMSCALE
 40
1.0
  9
$DIMASZ
 40
0.18
  9
$DIMEXO
 40
0.0625
  9
$DIMDLI
 40
0.38
  9
$DIMRND
 40
0.0
  9
$DIMDLE
 40
0.0
  9
$DIMEXE
 40
0.18
  9
$DIMTP
 40
0.0
  9
$DIMTM
 40
0.0
  9
$DIMTXT
 40
0.18
  9
$DIMCEN
 40
0.09
  9
$DIMTSZ
 40
0.0
  9
$DIMTOL
 70
     0
  9
$DIMLIM
 70
     0
  9
$DIMTIH
 70
     1
  9
$DIMTOH
 70
     1
  9
$DIMSE1
 70
     0
  9
$DIMSE2
 70
     0
  9
$DIMTAD
 70
     0
  9
$DIMZIN
 70
     0
  9
$DIMBLK
  1

  9
$DIMASO
 70
     1
  9
$DIMSHO
 70
     1
  9
$DIMPOST
  1

  9
$DIMAPOST
  1

  9
$DIMALT
 70
     0
  9
$DIMALTD
 70
     2
  9
$DIMALTF
 40
25.4
  9
$DIMLFAC
 40
1.0
  9
$DIMTOFL
 70
     0
  9
$DIMTVP
 40
0.0
  9
$DIMTIX
 70
     0
  9
$DIMSOXD
 70
     0
  9
$DIMSAH
 70
     0
  9
$DIMBLK1
  1

  9
$DIMBLK2
  1

  9
$DIMSTYLE
  2
Standard
  9
$DIMCLRD
 70
     0
  9
$DIMCLRE
 70
     0
  9
$DIMCLRT
 70
     0
  9
$DIMTFAC
 40
1.0
  9
$DIMGAP
 40
0.09
  9
$DIMJUST
 70
     0
  9
$DIMSD1
 70
     0
  9
$DIMSD2
 70
     0
  9
$DIMTOLJ
 70
     1
  9
$DIMTZIN
 70
     0
  9
$DIMALTZ
 70
     0
  9
$DIMALTTZ
 70
     0
  9
$DIMUPT
 70
     0
  9
$DIMDEC
 70
     4
  9
$DIMTDEC
 70
     4
  9
$DIMALTU
 70
     2
  9
$DIMALTTD
 70
     2
  9
$DIMTXSTY
  7
Standard
  9
$DIMAUNIT
 70
     0
  9
$DIMADEC
 70
     0
  9
$DIMALTRND
 40
0.0
  9
$DIMAZIN
 70
     0
  9
$DIMDSEP
 70
    46
  9
$DIMATFIT
 70
     3
  9
$DIMFRAC
 70
     0
  9
$DIMLDRBLK
  1

  9
$DIMLUNIT
 70
     2
  9
$DIMLWD
 70
    -2
  9
$DIMLWE
 70
    -2
  9
$DIMTMOVE
 70
     0
  9
$LUNITS
 70
     2
  9
$LUPREC
 70
     4
  9
$SKETCHINC
 40
0.1
  9
$FILLETRAD
 40
0.0
  9
$AUNITS
 70
     0
  9
$AUPREC
 70
     0
  9
$MENU
  1
.
  9
$ELEVATION
 40
0.0
  9
$PELEVATION
 40
0.0
  9
$THICKNESS
 40
0.0
  9
$LIMCHECK
 70
     0
  9
$CHAMFERA
 40
0.0
  9
$CHAMFERB
 40
0.0
  9
$CHAMFERC
 40
0.0
  9
$CHAMFERD
 40
0.0
  9
$SKPOLY
 70
     0
  9
$TDCREATE
 40
2456814.371758380
  9
$TDUCREATE
 40
2456814.538425046
  9
$TDUPDATE
 40
2456814.372126725
  9
$TDUUPDATE
 40
2456814.538793391
  9
$TDINDWG
 40
0.0003715972
  9
$TDUSRTIMER
 40
0.0003715972
  9
$USRTIMER
 70
     1
  9
$ANGBASE
 50
0.0
  9
$ANGDIR
 70
     0
  9
$PDMODE
 70
     0
  9
$PDSIZE
 40
0.0
  9
$PLINEWID
 40
0.0
  9
$SPLFRAME
 70
     0
  9
$SPLINETYPE
 70
     6
  9
$SPLINESEGS
 70
     8
  9
$HANDSEED
  5
6E0
  9
$SURFTAB1
 70
     6
  9
$SURFTAB2
 70
     6
  9
$SURFTYPE
 70
     6
  9
$SURFU
 70
     6
  9
$SURFV
 70
     6
  9
$UCSBASE
  2

  9
$UCSNAME
  2

  9
$UCSORG
 10
0.0
 20
0.0
 30
0.0
  9
$UCSXDIR
 10
1.0
 20
0.0
 30
0.0
  9
$UCSYDIR
 10
0.0
 20
1.0
 30
0.0
  9
$UCSORTHOREF
  2

  9
$UCSORTHOVIEW
 70
     0
  9
$UCSORGTOP
 10
0.0
 20
0.0
 30
0.0
  9
$UCSORGBOTTOM
 10
0.0
 20
0.0
 30
0.0
  9
$UCSORGLEFT
 10
0.0
 20
0.0
 30
0.0
  9
$UCSORGRIGHT
 10
0.0
 20
0.0
 30
0.0
  9
$UCSORGFRONT
 10
0.0
 20
0.0
 30
0.0
  9
$UCSORGBACK
 10
0.0
 20
0.0
 30
0.0
  9
$PUCSBASE
  2

  9
$PUCSNAME
  2

  9
$PUCSORG
 10
0.0
 20
0.0
 30
0.0
  9
$PUCSXDIR
 10
1.0
 20
0.0
 30
0.0
  9
$PUCSYDIR
 10
0.0
 20
1.0
 30
0.0
  9
$PUCSORTHOREF
  2

  9
$PUCSORTHOVIEW
 70
     0
  9
$PUCSORGTOP
 10
0.0
 20
0.0
 30
0.0
  9
$PUCSORGBOTTOM
 10
0.0
 20
0.0
 30
0.0
  9
$PUCSORGLEFT
 10
0.0
 20
0.0
 30
0.0
  9
$PUCSORGRIGHT
 10
0.0
 20
0.0
 30
0.0
  9
$PUCSORGFRONT
 10
0.0
 20
0.0
 30
0.0
  9
$PUCSORGBACK
 10
0.0
 20
0.0
 30
0.0
  9
$USERI1
 70
     0
  9
$USERI2
 70
     0
  9
$USERI3
 70
     0
  9
$USERI4
 70
     0
  9
$USERI5
 70
     0
  9
$USERR1
 40
0.0
  9
$USERR2
 40
0.0
  9
$USERR3
 40
0.0
  9
$USERR4
 40
0.0
  9
$USERR5
 40
0.0
  9
$WORLDVIEW
 70
     1
  9
$SHADEDGE
 70
     3
  9
$SHADEDIF
 70
    70
  9
$TILEMODE
 70
     1
  9
$MAXACTVP
 70
    64
  9
$PINSBASE
 10
0.0
 20
0.0
 30
0.0
  9
$PLIMCHECK
 70
     0
  9
$PEXTMIN
 10
0.0
 20
0.0
 30
0.0
  9
$PEXTMAX
 10
0.0
 20
0.0
 30
0.0
  9
$PLIMMIN
 10
0.0
 20
0.0
  9
$PLIMMAX
 10
12.0
 20
9.0
  9
$UNITMODE
 70
     0
  9
$VISRETAIN
 70
     1
  9
$PLINEGEN
 70
     0
  9
$PSLTSCALE
 70
     1
  9
$TREEDEPTH
 70
  3020
  9
$CMLSTYLE
  2
Standard
  9
$CMLJUST
 70
     0
  9
$CMLSCALE
 40
1.0
  9
$PROXYGRAPHICS
 70
     1
  9
$MEASUREMENT
 70
     0
  9
$CELWEIGHT
370
    -1
  9
$ENDCAPS
280
     0
  9
$JOINSTYLE
280
     0
  9
$LWDISPLAY
290
     0
  9
$INSUNITS
 70
     1
  9
$HYPERLINKBASE
  1

  9
$STYLESHEET
  1

  9
$XEDIT
290
     1
  9
$CEPSNTYPE
380
     0
  9
$PSTYLEMODE
290
     1
  9
$FINGERPRINTGUID
  2
{E7E8AF5E-A840-470C-AB04-066759DE3F12}
  9
$VERSIONGUID
  2
{551BFC46-64C5-472B-86DD-E4D8018C8675}
  9
$EXTNAMES
290
     1
  9
$PSVPSCALE
 40
0.0
  9
$OLESTARTUP
290
     0
  0
ENDSEC
  0
SECTION
  2
CLASSES
  0
CLASS
  1
ACDBDICTIONARYWDFLT
  2
AcDbDictionaryWithDefault
  3
ObjectDBX Classes
 90
        0
280
     0
281
     0
  0
CLASS
  1
ACDBPLACEHOLDER
  2
AcDbPlaceHolder
  3
ObjectDBX Classes
 90
        0
280
     0
281
     0
  0
CLASS
  1
LAYOUT
  2
AcDbLayout
  3
ObjectDBX Classes
 90
        0
280
     0
281
     0
  0
CLASS
  1
DICTIONARYVAR
  2
AcDbDictionaryVar
  3
ObjectDBX Classes
 90
        0
280
     0
281
     0
  0
CLASS
  1
TABLESTYLE
  2
AcDbTableStyle
  3
ObjectDBX Classes
 90
     4095
280
     0
281
     0
  0
CLASS
  1
MATERIAL
  2
AcDbMaterial
  3
ObjectDBX Classes
 90
     1153
280
     0
281
     0
  0
CLASS
  1
VISUALSTYLE
  2
AcDbVisualStyle
  3
ObjectDBX Classes
 90
     4095
280
     0
281
     0
  0
CLASS
  1
SCALE
  2
AcDbScale
  3
ObjectDBX Classes
 90
     1153
280
     0
281
     0
  0
CLASS
  1
MLEADERSTYLE
  2
AcDbMLeaderStyle
  3
ACDB_MLEADERSTYLE_CLASS
 90
     4095
280
     0
281
     0
  0
CLASS
  1
CELLSTYLEMAP
  2
AcDbCellStyleMap
  3
ObjectDBX Classes
 90
     1152
280
     0
281
     0
  0
CLASS
  1
EXACXREFPANELOBJECT
  2
ExAcXREFPanelObject
  3
EXAC_ESW
 90
     1025
280
     0
281
     0
  0
CLASS
  1
NPOCOLLECTION
  2
AcDbImpNonPersistentObjectsCollection
  3
ObjectDBX Classes
 90
     1153
280
     0
281
     0
  0
CLASS
  1
LAYER_INDEX
  2
AcDbLayerIndex
  3
ObjectDBX Classes
 90
    32768
280
     0
281
     0
  0
CLASS
  1
SPATIAL_INDEX
  2
AcDbSpatialIndex
  3
ObjectDBX Classes
 90
    32768
280
     0
281
     0
  0
CLASS
  1
IDBUFFER
  2
AcDbIdBuffer
  3
ObjectDBX Classes
 90
    32768
280
     0
281
     0
  0
CLASS
  1
ACDBSECTIONVIEWSTYLE
  2
AcDbSectionViewStyle
  3
ObjectDBX Classes
 90
     1025
280
     0
281
     0
  0
CLASS
  1
ACDBDETAILVIEWSTYLE
  2
AcDbDetailViewStyle
  3
ObjectDBX Classes
 90
     1025
280
     0
281
     0
  0
CLASS
  1
SORTENTSTABLE
  2
AcDbSortentsTable
  3
ObjectDBX Classes
 90
        0
280
     0
281
     0
  0
ENDSEC
  0
SECTION
  2
TABLES
  0
TABLE
  2
VPORT
  5
8
330
0
100
AcDbSymbolTable
 70
     1
  0
VPORT
  5
94
330
8
100
AcDbSymbolTableRecord
100
AcDbViewportTableRecord
  2
*Active
 70
     0
 10
0.0
 20
0.0
 11
1.0
 21
1.0
 12
1.084991477295979
 22
0.8796615767987232
 13
0.0
 23
0.0
 14
0.5
 24
0.5
 15
0.5
 25
0.5
 16
0.0
 26
0.0
 36
1.0
 17
0.0
 27
0.0
 37
0.0
 40
2.894896329921268
 41
2.586885245901639
 42
50.0
 43
0.0
 44
0.0
 50
0.0
 51
0.0
 71
     0
 72
  1000
 73
     1
 74
     3
 75
     0
 76
     1
 77
     0
 78
     0
281
     0
 65
     1
110
0.0
120
0.0
130
0.0
111
1.0
121
0.0
131
0.0
112
0.0
122
1.0
132
0.0
 79
     0
146
0.0
1001
ACAD_NAV_VCDISPLAY
1070
     3
  0
ENDTAB
  0
TABLE
  2
LTYPE
  5
5
330
0
100
AcDbSymbolTable
 70
     2
  0
LTYPE
  5
14
330
5
100
AcDbSymbolTableRecord
100
AcDbLinetypeTableRecord
  2
ByBlock
 70
     0
  3

 72
    65
 73
     0
 40
0.0
  0
LTYPE
  5
15
330
5
100
AcDbSymbolTableRecord
100
AcDbLinetypeTableRecord
  2
ByLayer
 70
     0
  3

 72
    65
 73
     0
 40
0.0
  0
LTYPE
  5
16
330
5
100
AcDbSymbolTableRecord
100
AcDbLinetypeTableRecord
  2
Continuous
 70
     0
  3
Solid line
 72
    65
 73
     0
 40
0.0
  0
LTYPE
  5
1A9
330
5
100
AcDbSymbolTableRecord
100
AcDbLinetypeTableRecord
  2
PHANTOM2
 70
     0
  3
Phantom (.5x) ___ _ _ ___ _ _ ___ _ _ ___ _ _
 72
    65
 73
     6
 40
1.25
 49
0.625
 74
     0
 49
-0.125
 74
     0
 49
0.125
 74
     0
 49
-0.125
 74
     0
 49
0.125
 74
     0
 49
-0.125
 74
     0
  0
ENDTAB
  0
TABLE
  2
LAYER
  5
2
102
{ACAD_XDICTIONARY
360
18E
102
}
330
0
100
AcDbSymbolTable
 70
     7
  0
LAYER
  5
10
102
{ACAD_XDICTIONARY
360
E6
102
}
330
2
100
AcDbSymbolTableRecord
100
AcDbLayerTableRecord
  2
0
 70
     0
 62
     7
  6
Continuous
370
    -3
390
F
  0
LAYER
  5
1BF
102
{ACAD_XDICTIONARY
360
1C0
102
}
330
2
100
AcDbSymbolTableRecord
100
AcDbLayerTableRecord
  2
Text
 70
     0
 62
     3
  6
Continuous
370
    -3
390
F
1001
RAK
1000
{ACET-LAYISO
1070
     0
1070
     3
1000
Continuous
1071
       -3
1071
        1
1005
F
1000
ACET-LAYISO}
  0
LAYER
  5
1C1
102
{ACAD_XDICTIONARY
360
1C2
102
}
330
2
100
AcDbSymbolTableRecord
100
AcDbLayerTableRecord
  2
PCB_TOP
 70
     0
 62
     5
  6
Continuous
370
    -3
390
F
1001
RAK
1000
{ACET-LAYISO
1070
     0
1070
     5
1000
Continuous
1070
     1
1071
       -3
1071
        1
1005
F
1000
ACET-LAYISO}
  0
LAYER
  5
1C3
102
{ACAD_XDICTIONARY
360
1C4
102
}
330
2
100
AcDbSymbolTableRecord
100
AcDbLayerTableRecord
  2
PCB_BOT
 70
     0
 62
     1
  6
Continuous
370
    -3
390
F
1001
RAK
1000
{ACET-LAYISO
1070
     0
1070
     1
1000
Continuous
1071
       -3
1071
        1
1005
F
1000
ACET-LAYISO}
  0
LAYER
  5
1C5
102
{ACAD_XDICTIONARY
360
1C6
102
}
330
2
100
AcDbSymbolTableRecord
100
AcDbLayerTableRecord
  2
PCB_OUTLINE
 70
     0
 62
   142
  6
Continuous
370
    -3
390
F
1001
RAK
1000
{ACET-LAYISO
1070
     0
1070
   142
1000
Continuous
1071
       -3
1071
        1
1005
F
1000
ACET-LAYISO}
  0
LAYER
  5
1C9
330
2
100
AcDbSymbolTableRecord
100
AcDbLayerTableRecord
  2
Part
 70
     0
 62
     1
  6
Continuous
370
    -3
390
F
1001
AcAecLayerStandard
1000

1000

  0
ENDTAB
  0
TABLE
  2
STYLE
  5
3
330
0
100
AcDbSymbolTable
 70
     4
  0
STYLE
  5
11
330
3
100
AcDbSymbolTableRecord
100
AcDbTextStyleTableRecord
  2
Standard
 70
     0
 40
0.0
 41
1.0
 50
0.0
 71
     0
 42
0.2
  3
ARIAL.TTF
  4

1001
ACAD
1000
Arial
1071
       34
  0
STYLE
  5
1CA
330
3
100
AcDbSymbolTableRecord
100
AcDbTextStyleTableRecord
  2
ROMANS
 70
     0
 40
0.0
 41
1.0
 50
0.0
 71
     0
 42
0.1
  3
C:\ACADWIN\FONTS\AU100S00.SHX
  4

  0
STYLE
  5
1CB
330
3
100
AcDbSymbolTableRecord
100
AcDbTextStyleTableRecord
  2
ARIAL
 70
     0
 40
0.0
 41
1.0
 50
0.0
 71
     0
 42
0.2452744685283672
  3
arial.ttf
  4

1001
ACAD
1000
Arial
1071
       34
  0
ENDTAB
  0
TABLE
  2
VIEW
  5
6
330
0
100
AcDbSymbolTable
 70
     0
  0
ENDTAB
  0
TABLE
  2
UCS
  5
7
330
0
100
AcDbSymbolTable
 70
     0
  0
ENDTAB
  0
TABLE
  2
APPID
  5
9
330
0
100
AcDbSymbolTable
 70
    11
  0
APPID
  5
12
330
9
100
AcDbSymbolTableRecord
100
AcDbRegAppTableRecord
  2
ACAD
 70
     0
  0
APPID
  5
DD
330
9
100
AcDbSymbolTableRecord
100
AcDbRegAppTableRecord
  2
AcadAnnoPO
 70
     0
  0
APPID
  5
DE
330
9
100
AcDbSymbolTableRecord
100
AcDbRegAppTableRecord
  2
AcadAnnotative
 70
     0
  0
APPID
  5
DF
330
9
100
AcDbSymbolTableRecord
100
AcDbRegAppTableRecord
  2
ACAD_DSTYLE_DIMJAG
 70
     0
  0
APPID
  5
E0
330
9
100
AcDbSymbolTableRecord
100
AcDbRegAppTableRecord
  2
ACAD_DSTYLE_DIMTALN
 70
     0
  0
APPID
  5
107
330
9
100
AcDbSymbolTableRecord
100
AcDbRegAppTableRecord
  2
ACAD_MLEADERVER
 70
     0
  0
APPID
  5
1A6
330
9
100
AcDbSymbolTableRecord
100
AcDbRegAppTableRecord
  2
ACAD_NAV_VCDISPLAY
 70
     0
  0
APPID
  5
1CD
330
9
100
AcDbSymbolTableRecord
100
AcDbRegAppTableRecord
  2
RAK
 70
     0
  0
APPID
  5
1CE
330
9
100
AcDbSymbolTableRecord
100
AcDbRegAppTableRecord
  2
AcAecLayerStandard
 70
     0
  0
APPID
  5
1CF
330
9
100
AcDbSymbolTableRecord
100
AcDbRegAppTableRecord
  2
ACAD_PSEXT
 70
     0
  0
APPID
  5
1D0
330
9
100
AcDbSymbolTableRecord
100
AcDbRegAppTableRecord
  2
ACLAYERTOOLS
 70
     0
  0
ENDTAB
  0
TABLE
  2
DIMSTYLE
  5
A
330
0
100
AcDbSymbolTable
 70
     3
100
AcDbDimStyleTable
 71
     1
340
27
  0
DIMSTYLE
105
27
330
A
100
AcDbSymbolTableRecord
100
AcDbDimStyleTableRecord
  2
Standard
 70
     0
340
11
  0
ENDTAB
  0
TABLE
  2
BLOCK_RECORD
  5
1
330
0
100
AcDbSymbolTable
 70
     2
  0
BLOCK_RECORD
  5
1F
102
{ACAD_XDICTIONARY
360
15D
102
}
330
1
100
AcDbSymbolTableRecord
100
AcDbBlockTableRecord
  2
*Model_Space
340
22
  0
BLOCK_RECORD
  5
58
330
1
100
AcDbSymbolTableRecord
100
AcDbBlockTableRecord
  2
*Paper_Space
340
59
  0
BLOCK_RECORD
  5
5D
330
1
100
AcDbSymbolTableRecord
100
AcDbBlockTableRecord
  2
*Paper_Space0
340
5E
  0
ENDTAB
  0
ENDSEC
  0
SECTION
  2
BLOCKS
  0
BLOCK
  5
20
330
1F
100
AcDbEntity
  8
0
100
AcDbBlockBegin
  2
*Model_Space
 70
     0
 10
0.0
 20
0.0
 30
0.0
  3
*Model_Space
  1

  0
ENDBLK
  5
21
330
1F
100
AcDbEntity
  8
0
100
AcDbBlockEnd
  0
BLOCK
  5
5A
330
58
100
AcDbEntity
 67
     1
  8
0
100
AcDbBlockBegin
  2
*Paper_Space
 70
     0
 10
0.0
 20
0.0
 30
0.0
  3
*Paper_Space
  1

  0
ENDBLK
  5
5B
330
58
100
AcDbEntity
 67
     1
  8
0
100
AcDbBlockEnd
  0
BLOCK
  5
5F
330
5D
100
AcDbEntity
 67
     1
  8
0
100
AcDbBlockBegin
  2
*Paper_Space0
 70
     0
 10
0.0
 20
0.0
 30
0.0
  3
*Paper_Space0
  1

  0
ENDBLK
  5
60
330
5D
100
AcDbEntity
 67
     1
  8
0
100
AcDbBlockEnd
  0
ENDSEC
  0
SECTION
  2
ENTITIES
  0
LWPOLYLINE
  5
438
330
1F
100
AcDbEntity
  8
PCB_BOT
100
AcDbPolyline
 90
        4
 70
     1
 43
0.0
 10
1.980000002047312
 20
1.745000000000008
 10
1.980000088784354
 20
0.0
 10
0.0
 20
0.0
 10
0.0
 20
1.744999872105974
  0
LWPOLYLINE
  5
439
330
1F
100
AcDbEntity
  8
PCB_OUTLINE
100
AcDbPolyline
 90
        4
 70
     1
 43
0.0
 10
1.980000002047312
 20
1.745000000000008
 10
1.980000088784354
 20
0.0
 10
0.0
 20
0.0
 10
0.0
 20
1.744999872105974
  0
LWPOLYLINE
  5
43A
330
1F
100
AcDbEntity
  8
PCB_TOP
100
AcDbPolyline
 90
       53
 70
     0
 43
0.0
 10
1.980000002047312
 20
1.745000000000008
 10
1.980000000175035
 20
1.252995157777334
 10
1.838953730444227
 20
1.252985518580118
 10
1.606735917916267
 20
1.206999936052994
 10
1.539999999999999
 20
1.20699993605298
 10
1.539999999999999
 20
1.14149993605298
 10
1.440000000000004
 20
1.14149993605298
 10
1.440000000000001
 20
1.001499936052994
 10
1.539999999999999
 20
1.001499936052994
 10
1.539999999999999
 20
0.9359999360529656
 10
1.606735917916267
 20
0.9359999360529656
 10
1.838968832747649
 20
1.031999941419314
 10
1.979985340266726
 20
1.032009578582574
 10
1.979985340266726
 20
0.7129902935234043
 10
1.838968832747649
 20
0.7129999306866495
 10
1.606735917916267
 20
0.8089999360529986
 10
1.539999999999999
 20
0.8089999360529986
 10
1.539999999999999
 20
0.7434999360529844
 10
1.440000000000001
 20
0.7434999360529844
 10
1.440000000000004
 20
0.6034999360529838
 10
1.539999999999999
 20
0.6034999360529838
 10
1.539999999999999
 20
0.5379999360529695
 10
1.606735917916267
 20
0.5379999360529695
 10
1.838953730444227
 20
0.4920143535258604
 10
1.979999798387996
 20
0.4920047143424143
 10
1.979999798387996
 20
0.0
 10
0.0
 20
0.0
 10
0.0
 20
0.4920047143286439
 10
0.1410462695557761
 20
0.4920143535258604
 10
0.3732640820837325
 20
0.5379999360529695
 10
0.4400000000000049
 20
0.5379999360529695
 10
0.4400000000000049
 20
0.6034999360529838
 10
0.5399999999999992
 20
0.6034999360529838
 10
0.5400000000000027
 20
0.7434999360529844
 10
0.4400000000000049
 20
0.7434999360529844
 10
0.4400000000000049
 20
0.8089999360529986
 10
0.3732640820837325
 20
0.8089999360529986
 10
0.1410311672523541
 20
0.7129999306866495
 10
0.0000065613637759
 20
0.7129902929699626
 10
0.000014659733278
 20
1.032009578582574
 10
0.1410311672523541
 20
1.031999941419314
 10
0.3732640820837325
 20
0.9359999360529656
 10
0.4400000000000049
 20
0.9359999360529656
 10
0.4400000000000049
 20
1.001499936052994
 10
0.5400000000000027
 20
1.001499936052994
 10
0.5399999999999992
 20
1.14149993605298
 10
0.4400000000000049
 20
1.14149993605298
 10
0.4400000000000049
 20
1.20699993605298
 10
0.3732640820837325
 20
1.206999936052994
 10
0.1410462695557761
 20
1.252985518580118
 10
0.0
 20
1.25299515777732
 10
0.0
 20
1.744999872105974
 10
1.980000020787596
 20
1.745000000000008
  0
CIRCLE
  5
43B
330
1F
100
AcDbEntity
  8
PCB_OUTLINE
100
AcDbCircle
 10
0.9900388269616051
 20
1.176999894634022
 30
0.0
 40
0.015
  0
CIRCLE
  5
43C
330
1F
100
AcDbEntity
  8
PCB_OUTLINE
100
AcDbCircle
 10
1.070038826961603
 20
1.176999894634022
 30
0.0
 40
0.015
  0
CIRCLE
  5
43D
330
1F
100
AcDbEntity
  8
PCB_OUTLINE
100
AcDbCircle
 10
1.150038826961605
 20
1.176999894634022
 30
0.0
 40
0.015
  0
CIRCLE
  5
43E
330
1F
100
AcDbEntity
  8
PCB_OUTLINE
100
AcDbCircle
 10
1.230038826961603
 20
1.176999894634022
 30
0.0
 40
0.015
  0
CIRCLE
  5
43F
330
1F
100
AcDbEntity
  8
PCB_OUTLINE
100
AcDbCircle
 10
1.310038826961605
 20
1.176999894634022
 30
0.0
 40
0.015
  0
CIRCLE
  5
440
330
1F
100
AcDbEntity
  8
PCB_OUTLINE
100
AcDbCircle
 10
1.390038826961603
 20
1.176999894634022
 30
0.0
 40
0.015
  0
CIRCLE
  5
441
330
1F
100
AcDbEntity
  8
PCB_OUTLINE
100
AcDbCircle
 10
0.9900388269616051
 20
1.096999894634024
 30
0.0
 40
0.015
  0
CIRCLE
  5
442
330
1F
100
AcDbEntity
  8
PCB_OUTLINE
100
AcDbCircle
 10
1.070038826961603
 20
1.096999894634024
 30
0.0
 40
0.015
  0
CIRCLE
  5
443
330
1F
100
AcDbEntity
  8
PCB_OUTLINE
100
AcDbCircle
 10
1.150038826961605
 20
1.096999894634024
 30
0.0
 40
0.015
  0
CIRCLE
  5
444
330
1F
100
AcDbEntity
  8
PCB_OUTLINE
100
AcDbCircle
 10
1.230038826961603
 20
1.096999894634024
 30
0.0
 40
0.015
  0
CIRCLE
  5
445
330
1F
100
AcDbEntity
  8
PCB_OUTLINE
100
AcDbCircle
 10
1.310038826961605
 20
1.096999894634024
 30
0.0
 40
0.015
  0
CIRCLE
  5
446
330
1F
100
AcDbEntity
  8
PCB_OUTLINE
100
AcDbCircle
 10
1.390038826961603
 20
1.096999894634024
 30
0.0
 40
0.015
  0
CIRCLE
  5
447
330
1F
100
AcDbEntity
  8
PCB_OUTLINE
100
AcDbCircle
 10
0.9900388269616051
 20
1.016999894634025
 30
0.0
 40
0.015
  0
CIRCLE
  5
448
330
1F
100
AcDbEntity
  8
PCB_OUTLINE
100
AcDbCircle
 10
1.070038826961603
 20
1.016999894634025
 30
0.0
 40
0.015
  0
CIRCLE
  5
449
330
1F
100
AcDbEntity
  8
PCB_OUTLINE
100
AcDbCircle
 10
1.150038826961605
 20
1.016999894634025
 30
0.0
 40
0.015
  0
CIRCLE
  5
44A
330
1F
100
AcDbEntity
  8
PCB_OUTLINE
100
AcDbCircle
 10
1.230038826961603
 20
1.016999894634025
 30
0.0
 40
0.015
  0
CIRCLE
  5
44B
330
1F
100
AcDbEntity
  8
PCB_OUTLINE
100
AcDbCircle
 10
1.310038826961605
 20
1.016999894634025
 30
0.0
 40
0.015
  0
CIRCLE
  5
44C
330
1F
100
AcDbEntity
  8
PCB_OUTLINE
100
AcDbCircle
 10
1.390038826961603
 20
1.016999894634025
 30
0.0
 40
0.015
  0
CIRCLE
  5
44D
330
1F
100
AcDbEntity
  8
PCB_OUTLINE
100
AcDbCircle
 10
0.9100388269616033
 20
0.9369998946340274
 30
0.0
 40
0.015
  0
CIRCLE
  5
44E
330
1F
100
AcDbEntity
  8
PCB_OUTLINE
100
AcDbCircle
 10
0.9900388269616051
 20
0.9369998946340274
 30
0.0
 40
0.015
  0
CIRCLE
  5
44F
330
1F
100
AcDbEntity
  8
PCB_OUTLINE
100
AcDbCircle
 10
1.150038826961605
 20
0.9369998946340274
 30
0.0
 40
0.015
  0
CIRCLE
  5
450
330
1F
100
AcDbEntity
  8
PCB_OUTLINE
100
AcDbCircle
 10
1.230038826961603
 20
0.9369998946340274
 30
0.0
 40
0.015
  0
CIRCLE
  5
451
330
1F
100
AcDbEntity
  8
PCB_OUTLINE
100
AcDbCircle
 10
1.310038826961605
 20
0.9369998946340274
 30
0.0
 40
0.015
  0
CIRCLE
  5
452
330
1F
100
AcDbEntity
  8
PCB_OUTLINE
100
AcDbCircle
 10
1.470038826961605
 20
0.9369998946340274
 30
0.0
 40
0.015
  0
CIRCLE
  5
453
330
1F
100
AcDbEntity
  8
PCB_OUTLINE
100
AcDbCircle
 10
1.070038826961603
 20
0.9369998946340274
 30
0.0
 40
0.015
  0
CIRCLE
  5
454
330
1F
100
AcDbEntity
  8
PCB_OUTLINE
100
AcDbCircle
 10
1.390038826961603
 20
0.9369998946340274
 30
0.0
 40
0.015
  0
CIRCLE
  5
455
330
1F
100
AcDbEntity
  8
PCB_OUTLINE
100
AcDbCircle
 10
0.9100388269616068
 20
1.176999894634022
 30
0.0
 40
0.015
  0
CIRCLE
  5
456
330
1F
100
AcDbEntity
  8
PCB_OUTLINE
100
AcDbCircle
 10
0.9100388269616068
 20
1.096999894634024
 30
0.0
 40
0.015
  0
CIRCLE
  5
457
330
1F
100
AcDbEntity
  8
PCB_OUTLINE
100
AcDbCircle
 10
0.9100388269616068
 20
1.016999894634025
 30
0.0
 40
0.015
  0
CIRCLE
  5
458
330
1F
100
AcDbEntity
  8
PCB_OUTLINE
100
AcDbCircle
 10
0.8300388269616085
 20
1.176999894634022
 30
0.0
 40
0.015
  0
CIRCLE
  5
459
330
1F
100
AcDbEntity
  8
PCB_OUTLINE
100
AcDbCircle
 10
0.7500388269616103
 20
1.176999894634022
 30
0.0
 40
0.015
  0
CIRCLE
  5
45A
330
1F
100
AcDbEntity
  8
PCB_OUTLINE
100
AcDbCircle
 10
0.6700388269616085
 20
1.176999894634022
 30
0.0
 40
0.015
  0
CIRCLE
  5
45B
330
1F
100
AcDbEntity
  8
PCB_OUTLINE
100
AcDbCircle
 10
0.5900388269616102
 20
1.176999894634022
 30
0.0
 40
0.015
  0
CIRCLE
  5
45C
330
1F
100
AcDbEntity
  8
PCB_OUTLINE
100
AcDbCircle
 10
0.8300388269616085
 20
1.096999894634024
 30
0.0
 40
0.015
  0
CIRCLE
  5
45D
330
1F
100
AcDbEntity
  8
PCB_OUTLINE
100
AcDbCircle
 10
0.7500388269616103
 20
1.096999894634024
 30
0.0
 40
0.015
  0
CIRCLE
  5
45E
330
1F
100
AcDbEntity
  8
PCB_OUTLINE
100
AcDbCircle
 10
0.6700388269616085
 20
1.096999894634024
 30
0.0
 40
0.015
  0
CIRCLE
  5
45F
330
1F
100
AcDbEntity
  8
PCB_OUTLINE
100
AcDbCircle
 10
0.5900388269616102
 20
1.096999894634024
 30
0.0
 40
0.015
  0
CIRCLE
  5
460
330
1F
100
AcDbEntity
  8
PCB_OUTLINE
100
AcDbCircle
 10
0.8300388269616085
 20
1.016999894634025
 30
0.0
 40
0.015
  0
CIRCLE
  5
461
330
1F
100
AcDbEntity
  8
PCB_OUTLINE
100
AcDbCircle
 10
0.7500388269616103
 20
1.016999894634025
 30
0.0
 40
0.015
  0
CIRCLE
  5
462
330
1F
100
AcDbEntity
  8
PCB_OUTLINE
100
AcDbCircle
 10
0.6700388269616085
 20
1.016999894634025
 30
0.0
 40
0.015
  0
CIRCLE
  5
463
330
1F
100
AcDbEntity
  8
PCB_OUTLINE
100
AcDbCircle
 10
0.5900388269616102
 20
1.016999894634025
 30
0.0
 40
0.015
  0
CIRCLE
  5
464
330
1F
100
AcDbEntity
  8
PCB_OUTLINE
100
AcDbCircle
 10
0.8300388269616085
 20
0.9369998946340274
 30
0.0
 40
0.015
  0
CIRCLE
  5
465
330
1F
100
AcDbEntity
  8
PCB_OUTLINE
100
AcDbCircle
 10
0.6700388269616085
 20
0.9369998946340274
 30
0.0
 40
0.015
  0
CIRCLE
  5
466
330
1F
100
AcDbEntity
  8
PCB_OUTLINE
100
AcDbCircle
 10
0.5900388269616102
 20
0.9369998946340274
 30
0.0
 40
0.015
  0
CIRCLE
  5
467
330
1F
100
AcDbEntity
  8
PCB_OUTLINE
100
AcDbCircle
 10
0.7500388269616103
 20
0.9369998946340274
 30
0.0
 40
0.015
  0
CIRCLE
  5
468
330
1F
100
AcDbEntity
  8
PCB_OUTLINE
100
AcDbCircle
 10
1.470038826961602
 20
1.176999901152171
 30
0.0
 40
0.015
  0
CIRCLE
  5
469
330
1F
100
AcDbEntity
  8
PCB_OUTLINE
100
AcDbCircle
 10
0.5100388269616119
 20
1.176999888115844
 30
0.0
 40
0.015
  0
CIRCLE
  5
46A
330
1F
100
AcDbEntity
  8
PCB_OUTLINE
100
AcDbCircle
 10
0.510038846516153
 20
0.9369998881158494
 30
0.0
 40
0.015
  0
CIRCLE
  5
46B
330
1F
100
AcDbEntity
  8
PCB_OUTLINE
100
AcDbCircle
 10
0.9900388269616051
 20
0.8569998946340291
 30
0.0
 40
0.015
  0
CIRCLE
  5
46C
330
1F
100
AcDbEntity
  8
PCB_OUTLINE
100
AcDbCircle
 10
1.070038826961603
 20
0.8569998946340291
 30
0.0
 40
0.015
  0
CIRCLE
  5
46D
330
1F
100
AcDbEntity
  8
PCB_OUTLINE
100
AcDbCircle
 10
1.150038826961605
 20
0.8569998946340291
 30
0.0
 40
0.015
  0
CIRCLE
  5
46E
330
1F
100
AcDbEntity
  8
PCB_OUTLINE
100
AcDbCircle
 10
1.230038826961603
 20
0.8569998946340291
 30
0.0
 40
0.015
  0
CIRCLE
  5
46F
330
1F
100
AcDbEntity
  8
PCB_OUTLINE
100
AcDbCircle
 10
1.310038826961605
 20
0.8569998946340291
 30
0.0
 40
0.015
  0
CIRCLE
  5
470
330
1F
100
AcDbEntity
  8
PCB_OUTLINE
100
AcDbCircle
 10
1.390038826961603
 20
0.8569998946340291
 30
0.0
 40
0.015
  0
CIRCLE
  5
471
330
1F
100
AcDbEntity
  8
PCB_OUTLINE
100
AcDbCircle
 10
0.9100388269616068
 20
0.8569998946340291
 30
0.0
 40
0.015
  0
CIRCLE
  5
472
330
1F
100
AcDbEntity
  8
PCB_OUTLINE
100
AcDbCircle
 10
0.8300388269616085
 20
0.8569998946340291
 30
0.0
 40
0.015
  0
CIRCLE
  5
473
330
1F
100
AcDbEntity
  8
PCB_OUTLINE
100
AcDbCircle
 10
0.7500388269616103
 20
0.8569998946340291
 30
0.0
 40
0.015
  0
CIRCLE
  5
474
330
1F
100
AcDbEntity
  8
PCB_OUTLINE
100
AcDbCircle
 10
0.6700388269616085
 20
0.8569998946340291
 30
0.0
 40
0.015
  0
CIRCLE
  5
475
330
1F
100
AcDbEntity
  8
PCB_OUTLINE
100
AcDbCircle
 10
0.5900388269616102
 20
0.8569998946340291
 30
0.0
 40
0.015
  0
CIRCLE
  5
476
330
1F
100
AcDbEntity
  8
PCB_OUTLINE
100
AcDbCircle
 10
1.790038826961602
 20
0.8569998946340291
 30
0.0
 40
0.015
  0
CIRCLE
  5
477
330
1F
100
AcDbEntity
  8
PCB_OUTLINE
100
AcDbCircle
 10
1.710038826961604
 20
0.8569998946340291
 30
0.0
 40
0.015
  0
CIRCLE
  5
478
330
1F
100
AcDbEntity
  8
PCB_OUTLINE
100
AcDbCircle
 10
1.630038826961602
 20
0.8569998946340291
 30
0.0
 40
0.015
  0
CIRCLE
  5
479
330
1F
100
AcDbEntity
  8
PCB_OUTLINE
100
AcDbCircle
 10
1.550038826961603
 20
0.8569998946340291
 30
0.0
 40
0.015
  0
CIRCLE
  5
47A
330
1F
100
AcDbEntity
  8
PCB_OUTLINE
100
AcDbCircle
 10
1.470038826961602
 20
0.8569998946340291
 30
0.0
 40
0.015
  0
CIRCLE
  5
47B
330
1F
100
AcDbEntity
  8
PCB_OUTLINE
100
AcDbCircle
 10
1.8700388269616
 20
0.8569998946340291
 30
0.0
 40
0.015
  0
CIRCLE
  5
47C
330
1F
100
AcDbEntity
  8
PCB_OUTLINE
100
AcDbCircle
 10
1.950038826961598
 20
0.8569998946340291
 30
0.0
 40
0.015
  0
CIRCLE
  5
47D
330
1F
100
AcDbEntity
  8
PCB_OUTLINE
100
AcDbCircle
 10
0.1900388269616151
 20
0.8569998946340291
 30
0.0
 40
0.015
  0
CIRCLE
  5
47E
330
1F
100
AcDbEntity
  8
PCB_OUTLINE
100
AcDbCircle
 10
0.1100388269616168
 20
0.8569998946340291
 30
0.0
 40
0.015
  0
CIRCLE
  5
47F
330
1F
100
AcDbEntity
  8
PCB_OUTLINE
100
AcDbCircle
 10
0.030038826961615
 20
0.8569998946340291
 30
0.0
 40
0.015
  0
CIRCLE
  5
480
330
1F
100
AcDbEntity
  8
PCB_OUTLINE
100
AcDbCircle
 10
0.2700388269616134
 20
0.8569998946340291
 30
0.0
 40
0.015
  0
CIRCLE
  5
481
330
1F
100
AcDbEntity
  8
PCB_OUTLINE
100
AcDbCircle
 10
0.3500388269616117
 20
0.8569998946340291
 30
0.0
 40
0.015
  0
CIRCLE
  5
482
330
1F
100
AcDbEntity
  8
PCB_OUTLINE
100
AcDbCircle
 10
0.43003882696161
 20
0.8569998946340291
 30
0.0
 40
0.015
  0
CIRCLE
  5
483
330
1F
100
AcDbEntity
  8
PCB_OUTLINE
100
AcDbCircle
 10
0.5100388269616119
 20
0.8569998946340291
 30
0.0
 40
0.015
  0
CIRCLE
  5
484
330
1F
100
AcDbEntity
  8
PCB_OUTLINE
100
AcDbCircle
 10
0.9100388269616033
 20
0.7769998946340309
 30
0.0
 40
0.015
  0
CIRCLE
  5
485
330
1F
100
AcDbEntity
  8
PCB_OUTLINE
100
AcDbCircle
 10
0.9900388269616051
 20
0.7769998946340309
 30
0.0
 40
0.015
  0
CIRCLE
  5
486
330
1F
100
AcDbEntity
  8
PCB_OUTLINE
100
AcDbCircle
 10
1.150038826961605
 20
0.7769998946340309
 30
0.0
 40
0.015
  0
CIRCLE
  5
487
330
1F
100
AcDbEntity
  8
PCB_OUTLINE
100
AcDbCircle
 10
1.230038826961603
 20
0.7769998946340309
 30
0.0
 40
0.015
  0
CIRCLE
  5
488
330
1F
100
AcDbEntity
  8
PCB_OUTLINE
100
AcDbCircle
 10
1.310038826961605
 20
0.7769998946340309
 30
0.0
 40
0.015
  0
CIRCLE
  5
489
330
1F
100
AcDbEntity
  8
PCB_OUTLINE
100
AcDbCircle
 10
1.470038826961605
 20
0.7769998946340309
 30
0.0
 40
0.015
  0
CIRCLE
  5
48A
330
1F
100
AcDbEntity
  8
PCB_OUTLINE
100
AcDbCircle
 10
1.070038826961603
 20
0.7769998946340309
 30
0.0
 40
0.015
  0
CIRCLE
  5
48B
330
1F
100
AcDbEntity
  8
PCB_OUTLINE
100
AcDbCircle
 10
1.390038826961603
 20
0.7769998946340309
 30
0.0
 40
0.015
  0
CIRCLE
  5
48C
330
1F
100
AcDbEntity
  8
PCB_OUTLINE
100
AcDbCircle
 10
0.8300388269616085
 20
0.7769998946340309
 30
0.0
 40
0.015
  0
CIRCLE
  5
48D
330
1F
100
AcDbEntity
  8
PCB_OUTLINE
100
AcDbCircle
 10
0.6700388269616085
 20
0.7769998946340309
 30
0.0
 40
0.015
  0
CIRCLE
  5
48E
330
1F
100
AcDbEntity
  8
PCB_OUTLINE
100
AcDbCircle
 10
0.5900388269616102
 20
0.7769998946340309
 30
0.0
 40
0.015
  0
CIRCLE
  5
48F
330
1F
100
AcDbEntity
  8
PCB_OUTLINE
100
AcDbCircle
 10
0.7500388269616103
 20
0.7769998946340309
 30
0.0
 40
0.015
  0
CIRCLE
  5
490
330
1F
100
AcDbEntity
  8
PCB_OUTLINE
100
AcDbCircle
 10
0.510038846516153
 20
0.7769999011522089
 30
0.0
 40
0.015
  0
CIRCLE
  5
491
330
1F
100
AcDbEntity
  8
PCB_OUTLINE
100
AcDbCircle
 10
0.9900388269616051
 20
0.3769998946340394
 30
0.0
 40
0.015
  0
CIRCLE
  5
492
330
1F
100
AcDbEntity
  8
PCB_OUTLINE
100
AcDbCircle
 10
1.070038826961603
 20
0.3769998946340394
 30
0.0
 40
0.015
  0
CIRCLE
  5
493
330
1F
100
AcDbEntity
  8
PCB_OUTLINE
100
AcDbCircle
 10
1.150038826961605
 20
0.3769998946340394
 30
0.0
 40
0.015
  0
CIRCLE
  5
494
330
1F
100
AcDbEntity
  8
PCB_OUTLINE
100
AcDbCircle
 10
1.230038826961603
 20
0.3769998946340394
 30
0.0
 40
0.015
  0
CIRCLE
  5
495
330
1F
100
AcDbEntity
  8
PCB_OUTLINE
100
AcDbCircle
 10
1.310038826961605
 20
0.3769998946340394
 30
0.0
 40
0.015
  0
CIRCLE
  5
496
330
1F
100
AcDbEntity
  8
PCB_OUTLINE
100
AcDbCircle
 10
1.390038826961603
 20
0.3769998946340394
 30
0.0
 40
0.015
  0
CIRCLE
  5
497
330
1F
100
AcDbEntity
  8
PCB_OUTLINE
100
AcDbCircle
 10
0.9900388269616051
 20
0.4569998946340377
 30
0.0
 40
0.015
  0
CIRCLE
  5
498
330
1F
100
AcDbEntity
  8
PCB_OUTLINE
100
AcDbCircle
 10
1.070038826961603
 20
0.4569998946340377
 30
0.0
 40
0.015
  0
CIRCLE
  5
499
330
1F
100
AcDbEntity
  8
PCB_OUTLINE
100
AcDbCircle
 10
1.150038826961605
 20
0.4569998946340377
 30
0.0
 40
0.015
  0
CIRCLE
  5
49A
330
1F
100
AcDbEntity
  8
PCB_OUTLINE
100
AcDbCircle
 10
1.230038826961603
 20
0.4569998946340377
 30
0.0
 40
0.015
  0
CIRCLE
  5
49B
330
1F
100
AcDbEntity
  8
PCB_OUTLINE
100
AcDbCircle
 10
1.310038826961605
 20
0.4569998946340377
 30
0.0
 40
0.015
  0
CIRCLE
  5
49C
330
1F
100
AcDbEntity
  8
PCB_OUTLINE
100
AcDbCircle
 10
1.390038826961603
 20
0.4569998946340377
 30
0.0
 40
0.015
  0
CIRCLE
  5
49D
330
1F
100
AcDbEntity
  8
PCB_OUTLINE
100
AcDbCircle
 10
0.9900388269616051
 20
0.536999894634036
 30
0.0
 40
0.015
  0
CIRCLE
  5
49E
330
1F
100
AcDbEntity
  8
PCB_OUTLINE
100
AcDbCircle
 10
1.070038826961603
 20
0.536999894634036
 30
0.0
 40
0.015
  0
CIRCLE
  5
49F
330
1F
100
AcDbEntity
  8
PCB_OUTLINE
100
AcDbCircle
 10
1.150038826961605
 20
0.536999894634036
 30
0.0
 40
0.015
  0
CIRCLE
  5
4A0
330
1F
100
AcDbEntity
  8
PCB_OUTLINE
100
AcDbCircle
 10
1.230038826961603
 20
0.536999894634036
 30
0.0
 40
0.015
  0
CIRCLE
  5
4A1
330
1F
100
AcDbEntity
  8
PCB_OUTLINE
100
AcDbCircle
 10
1.310038826961605
 20
0.536999894634036
 30
0.0
 40
0.015
  0
CIRCLE
  5
4A2
330
1F
100
AcDbEntity
  8
PCB_OUTLINE
100
AcDbCircle
 10
1.390038826961603
 20
0.536999894634036
 30
0.0
 40
0.015
  0
CIRCLE
  5
4A3
330
1F
100
AcDbEntity
  8
PCB_OUTLINE
100
AcDbCircle
 10
0.9100388269616033
 20
0.6169998946340343
 30
0.0
 40
0.015
  0
CIRCLE
  5
4A4
330
1F
100
AcDbEntity
  8
PCB_OUTLINE
100
AcDbCircle
 10
0.9900388269616051
 20
0.6169998946340343
 30
0.0
 40
0.015
  0
CIRCLE
  5
4A5
330
1F
100
AcDbEntity
  8
PCB_OUTLINE
100
AcDbCircle
 10
1.150038826961605
 20
0.6169998946340343
 30
0.0
 40
0.015
  0
CIRCLE
  5
4A6
330
1F
100
AcDbEntity
  8
PCB_OUTLINE
100
AcDbCircle
 10
1.230038826961603
 20
0.6169998946340343
 30
0.0
 40
0.015
  0
CIRCLE
  5
4A7
330
1F
100
AcDbEntity
  8
PCB_OUTLINE
100
AcDbCircle
 10
1.310038826961605
 20
0.6169998946340343
 30
0.0
 40
0.015
  0
CIRCLE
  5
4A8
330
1F
100
AcDbEntity
  8
PCB_OUTLINE
100
AcDbCircle
 10
1.070038826961603
 20
0.6169998946340343
 30
0.0
 40
0.015
  0
CIRCLE
  5
4A9
330
1F
100
AcDbEntity
  8
PCB_OUTLINE
100
AcDbCircle
 10
1.390038826961603
 20
0.6169998946340343
 30
0.0
 40
0.015
  0
CIRCLE
  5
4AA
330
1F
100
AcDbEntity
  8
PCB_OUTLINE
100
AcDbCircle
 10
0.9100388269616068
 20
0.3769998946340394
 30
0.0
 40
0.015
  0
CIRCLE
  5
4AB
330
1F
100
AcDbEntity
  8
PCB_OUTLINE
100
AcDbCircle
 10
0.9100388269616068
 20
0.4569998946340377
 30
0.0
 40
0.015
  0
CIRCLE
  5
4AC
330
1F
100
AcDbEntity
  8
PCB_OUTLINE
100
AcDbCircle
 10
0.9100388269616068
 20
0.536999894634036
 30
0.0
 40
0.015
  0
CIRCLE
  5
4AD
330
1F
100
AcDbEntity
  8
PCB_OUTLINE
100
AcDbCircle
 10
0.8300388269616085
 20
0.3769998946340394
 30
0.0
 40
0.015
  0
CIRCLE
  5
4AE
330
1F
100
AcDbEntity
  8
PCB_OUTLINE
100
AcDbCircle
 10
0.7500388269616103
 20
0.3769998946340394
 30
0.0
 40
0.015
  0
CIRCLE
  5
4AF
330
1F
100
AcDbEntity
  8
PCB_OUTLINE
100
AcDbCircle
 10
0.6700388269616085
 20
0.3769998946340394
 30
0.0
 40
0.015
  0
CIRCLE
  5
4B0
330
1F
100
AcDbEntity
  8
PCB_OUTLINE
100
AcDbCircle
 10
0.5900388269616102
 20
0.3769998946340394
 30
0.0
 40
0.015
  0
CIRCLE
  5
4B1
330
1F
100
AcDbEntity
  8
PCB_OUTLINE
100
AcDbCircle
 10
0.8300388269616085
 20
0.4569998946340377
 30
0.0
 40
0.015
  0
CIRCLE
  5
4B2
330
1F
100
AcDbEntity
  8
PCB_OUTLINE
100
AcDbCircle
 10
0.7500388269616103
 20
0.4569998946340377
 30
0.0
 40
0.015
  0
CIRCLE
  5
4B3
330
1F
100
AcDbEntity
  8
PCB_OUTLINE
100
AcDbCircle
 10
0.6700388269616085
 20
0.4569998946340377
 30
0.0
 40
0.015
  0
CIRCLE
  5
4B4
330
1F
100
AcDbEntity
  8
PCB_OUTLINE
100
AcDbCircle
 10
0.5900388269616102
 20
0.4569998946340377
 30
0.0
 40
0.015
  0
CIRCLE
  5
4B5
330
1F
100
AcDbEntity
  8
PCB_OUTLINE
100
AcDbCircle
 10
0.8300388269616085
 20
0.536999894634036
 30
0.0
 40
0.015
  0
CIRCLE
  5
4B6
330
1F
100
AcDbEntity
  8
PCB_OUTLINE
100
AcDbCircle
 10
0.7500388269616103
 20
0.536999894634036
 30
0.0
 40
0.015
  0
CIRCLE
  5
4B7
330
1F
100
AcDbEntity
  8
PCB_OUTLINE
100
AcDbCircle
 10
0.6700388269616085
 20
0.536999894634036
 30
0.0
 40
0.015
  0
CIRCLE
  5
4B8
330
1F
100
AcDbEntity
  8
PCB_OUTLINE
100
AcDbCircle
 10
0.5900388269616102
 20
0.536999894634036
 30
0.0
 40
0.015
  0
CIRCLE
  5
4B9
330
1F
100
AcDbEntity
  8
PCB_OUTLINE
100
AcDbCircle
 10
0.8300388269616085
 20
0.6169998946340343
 30
0.0
 40
0.015
  0
CIRCLE
  5
4BA
330
1F
100
AcDbEntity
  8
PCB_OUTLINE
100
AcDbCircle
 10
0.6700388269616085
 20
0.6169998946340343
 30
0.0
 40
0.015
  0
CIRCLE
  5
4BB
330
1F
100
AcDbEntity
  8
PCB_OUTLINE
100
AcDbCircle
 10
0.5900388269616102
 20
0.6169998946340343
 30
0.0
 40
0.015
  0
CIRCLE
  5
4BC
330
1F
100
AcDbEntity
  8
PCB_OUTLINE
100
AcDbCircle
 10
0.7500388269616103
 20
0.6169998946340343
 30
0.0
 40
0.015
  0
CIRCLE
  5
4BD
330
1F
100
AcDbEntity
  8
PCB_OUTLINE
100
AcDbCircle
 10
0.9900388269616051
 20
0.6969998946340326
 30
0.0
 40
0.015
  0
CIRCLE
  5
4BE
330
1F
100
AcDbEntity
  8
PCB_OUTLINE
100
AcDbCircle
 10
1.070038826961603
 20
0.6969998946340326
 30
0.0
 40
0.015
  0
CIRCLE
  5
4BF
330
1F
100
AcDbEntity
  8
PCB_OUTLINE
100
AcDbCircle
 10
1.150038826961605
 20
0.6969998946340326
 30
0.0
 40
0.015
  0
CIRCLE
  5
4C0
330
1F
100
AcDbEntity
  8
PCB_OUTLINE
100
AcDbCircle
 10
1.230038826961603
 20
0.6969998946340326
 30
0.0
 40
0.015
  0
CIRCLE
  5
4C1
330
1F
100
AcDbEntity
  8
PCB_OUTLINE
100
AcDbCircle
 10
1.310038826961605
 20
0.6969998946340326
 30
0.0
 40
0.015
  0
CIRCLE
  5
4C2
330
1F
100
AcDbEntity
  8
PCB_OUTLINE
100
AcDbCircle
 10
1.390038826961603
 20
0.6969998946340326
 30
0.0
 40
0.015
  0
CIRCLE
  5
4C3
330
1F
100
AcDbEntity
  8
PCB_OUTLINE
100
AcDbCircle
 10
0.9100388269616068
 20
0.6969998946340326
 30
0.0
 40
0.015
  0
CIRCLE
  5
4C4
330
1F
100
AcDbEntity
  8
PCB_OUTLINE
100
AcDbCircle
 10
0.8300388269616085
 20
0.6969998946340326
 30
0.0
 40
0.015
  0
CIRCLE
  5
4C5
330
1F
100
AcDbEntity
  8
PCB_OUTLINE
100
AcDbCircle
 10
0.7500388269616103
 20
0.6969998946340326
 30
0.0
 40
0.015
  0
CIRCLE
  5
4C6
330
1F
100
AcDbEntity
  8
PCB_OUTLINE
100
AcDbCircle
 10
0.6700388269616085
 20
0.6969998946340326
 30
0.0
 40
0.015
  0
CIRCLE
  5
4C7
330
1F
100
AcDbEntity
  8
PCB_OUTLINE
100
AcDbCircle
 10
0.5900388269616102
 20
0.6969998946340326
 30
0.0
 40
0.015
  0
CIRCLE
  5
4C8
330
1F
100
AcDbEntity
  8
PCB_OUTLINE
100
AcDbCircle
 10
0.9900388139252989
 20
1.256999829452453
 30
0.0
 40
0.015
  0
CIRCLE
  5
4C9
330
1F
100
AcDbEntity
  8
PCB_OUTLINE
100
AcDbCircle
 10
1.070038813925293
 20
1.256999842488767
 30
0.0
 40
0.015
  0
CIRCLE
  5
4CA
330
1F
100
AcDbEntity
  8
PCB_OUTLINE
100
AcDbCircle
 10
1.150038813925295
 20
1.25699985552508
 30
0.0
 40
0.015
  0
CIRCLE
  5
4CB
330
1F
100
AcDbEntity
  8
PCB_OUTLINE
100
AcDbCircle
 10
1.230038813925293
 20
1.256999868561393
 30
0.0
 40
0.015
  0
CIRCLE
  5
4CC
330
1F
100
AcDbEntity
  8
PCB_OUTLINE
100
AcDbCircle
 10
1.310038813925292
 20
1.256999881597707
 30
0.0
 40
0.015
  0
CIRCLE
  5
4CD
330
1F
100
AcDbEntity
  8
PCB_OUTLINE
100
AcDbCircle
 10
1.39003881392529
 20
1.25699989463402
 30
0.0
 40
0.015
  0
CIRCLE
  5
4CE
330
1F
100
AcDbEntity
  8
PCB_OUTLINE
100
AcDbCircle
 10
0.9900388008889855
 20
1.336999829452452
 30
0.0
 40
0.015
  0
CIRCLE
  5
4CF
330
1F
100
AcDbEntity
  8
PCB_OUTLINE
100
AcDbCircle
 10
1.07003880088898
 20
1.336999842488765
 30
0.0
 40
0.015
  0
CIRCLE
  5
4D0
330
1F
100
AcDbEntity
  8
PCB_OUTLINE
100
AcDbCircle
 10
1.150038800888982
 20
1.336999855525078
 30
0.0
 40
0.015
  0
CIRCLE
  5
4D1
330
1F
100
AcDbEntity
  8
PCB_OUTLINE
100
AcDbCircle
 10
1.23003880088898
 20
1.336999868561392
 30
0.0
 40
0.015
  0
CIRCLE
  5
4D2
330
1F
100
AcDbEntity
  8
PCB_OUTLINE
100
AcDbCircle
 10
1.310038800888978
 20
1.336999881597705
 30
0.0
 40
0.015
  0
CIRCLE
  5
4D3
330
1F
100
AcDbEntity
  8
PCB_OUTLINE
100
AcDbCircle
 10
1.390038800888977
 20
1.336999894634018
 30
0.0
 40
0.015
  0
CIRCLE
  5
4D4
330
1F
100
AcDbEntity
  8
PCB_OUTLINE
100
AcDbCircle
 10
0.9100387878526703
 20
1.416999816416133
 30
0.0
 40
0.015
  0
CIRCLE
  5
4D5
330
1F
100
AcDbEntity
  8
PCB_OUTLINE
100
AcDbCircle
 10
0.9900387878526721
 20
1.416999829452446
 30
0.0
 40
0.015
  0
CIRCLE
  5
4D6
330
1F
100
AcDbEntity
  8
PCB_OUTLINE
100
AcDbCircle
 10
1.150038787852668
 20
1.416999855525073
 30
0.0
 40
0.015
  0
CIRCLE
  5
4D7
330
1F
100
AcDbEntity
  8
PCB_OUTLINE
100
AcDbCircle
 10
1.230038787852667
 20
1.416999868561386
 30
0.0
 40
0.015
  0
CIRCLE
  5
4D8
330
1F
100
AcDbEntity
  8
PCB_OUTLINE
100
AcDbCircle
 10
1.310038787852665
 20
1.4169998815977
 30
0.0
 40
0.015
  0
CIRCLE
  5
4D9
330
1F
100
AcDbEntity
  8
PCB_OUTLINE
100
AcDbCircle
 10
1.070038787852666
 20
1.41699984248876
 30
0.0
 40
0.015
  0
CIRCLE
  5
4DA
330
1F
100
AcDbEntity
  8
PCB_OUTLINE
100
AcDbCircle
 10
1.390038787852663
 20
1.416999894634013
 30
0.0
 40
0.015
  0
CIRCLE
  5
4DB
330
1F
100
AcDbEntity
  8
PCB_OUTLINE
100
AcDbCircle
 10
0.9100388139253006
 20
1.25699981641614
 30
0.0
 40
0.015
  0
CIRCLE
  5
4DC
330
1F
100
AcDbEntity
  8
PCB_OUTLINE
100
AcDbCircle
 10
0.9100388008889872
 20
1.336999816416138
 30
0.0
 40
0.015
  0
CIRCLE
  5
4DD
330
1F
100
AcDbEntity
  8
PCB_OUTLINE
100
AcDbCircle
 10
0.8300388139253023
 20
1.256999803379827
 30
0.0
 40
0.015
  0
CIRCLE
  5
4DE
330
1F
100
AcDbEntity
  8
PCB_OUTLINE
100
AcDbCircle
 10
0.7500388139253041
 20
1.256999790343513
 30
0.0
 40
0.015
  0
CIRCLE
  5
4DF
330
1F
100
AcDbEntity
  8
PCB_OUTLINE
100
AcDbCircle
 10
0.6700388139253058
 20
1.2569997773072
 30
0.0
 40
0.015
  0
CIRCLE
  5
4E0
330
1F
100
AcDbEntity
  8
PCB_OUTLINE
100
AcDbCircle
 10
0.5900388139253075
 20
1.256999764270886
 30
0.0
 40
0.015
  0
CIRCLE
  5
4E1
330
1F
100
AcDbEntity
  8
PCB_OUTLINE
100
AcDbCircle
 10
0.8300388008889889
 20
1.336999803379825
 30
0.0
 40
0.015
  0
CIRCLE
  5
4E2
330
1F
100
AcDbEntity
  8
PCB_OUTLINE
100
AcDbCircle
 10
0.7500388008889907
 20
1.336999790343512
 30
0.0
 40
0.015
  0
CIRCLE
  5
4E3
330
1F
100
AcDbEntity
  8
PCB_OUTLINE
100
AcDbCircle
 10
0.6700388008889924
 20
1.336999777307198
 30
0.0
 40
0.015
  0
CIRCLE
  5
4E4
330
1F
100
AcDbEntity
  8
PCB_OUTLINE
100
AcDbCircle
 10
0.5900388008889941
 20
1.336999764270885
 30
0.0
 40
0.015
  0
CIRCLE
  5
4E5
330
1F
100
AcDbEntity
  8
PCB_OUTLINE
100
AcDbCircle
 10
0.8300387878526755
 20
1.41699980337982
 30
0.0
 40
0.015
  0
CIRCLE
  5
4E6
330
1F
100
AcDbEntity
  8
PCB_OUTLINE
100
AcDbCircle
 10
0.670038787852679
 20
1.416999777307193
 30
0.0
 40
0.015
  0
CIRCLE
  5
4E7
330
1F
100
AcDbEntity
  8
PCB_OUTLINE
100
AcDbCircle
 10
0.5900387878526808
 20
1.41699976427088
 30
0.0
 40
0.015
  0
CIRCLE
  5
4E8
330
1F
100
AcDbEntity
  8
PCB_OUTLINE
100
AcDbCircle
 10
0.7500387878526773
 20
1.416999790343506
 30
0.0
 40
0.015
  0
CIRCLE
  5
4E9
330
1F
100
AcDbEntity
  8
PCB_OUTLINE
100
AcDbCircle
 10
0.9900387748163588
 20
1.496999829452445
 30
0.0
 40
0.015
  0
CIRCLE
  5
4EA
330
1F
100
AcDbEntity
  8
PCB_OUTLINE
100
AcDbCircle
 10
1.070038774816353
 20
1.496999842488758
 30
0.0
 40
0.015
  0
CIRCLE
  5
4EB
330
1F
100
AcDbEntity
  8
PCB_OUTLINE
100
AcDbCircle
 10
1.150038774816355
 20
1.496999855525071
 30
0.0
 40
0.015
  0
CIRCLE
  5
4EC
330
1F
100
AcDbEntity
  8
PCB_OUTLINE
100
AcDbCircle
 10
1.230038774816353
 20
1.496999868561385
 30
0.0
 40
0.015
  0
CIRCLE
  5
4ED
330
1F
100
AcDbEntity
  8
PCB_OUTLINE
100
AcDbCircle
 10
1.310038774816352
 20
1.496999881597698
 30
0.0
 40
0.015
  0
CIRCLE
  5
4EE
330
1F
100
AcDbEntity
  8
PCB_OUTLINE
100
AcDbCircle
 10
1.39003877481635
 20
1.496999894634011
 30
0.0
 40
0.015
  0
CIRCLE
  5
4EF
330
1F
100
AcDbEntity
  8
PCB_OUTLINE
100
AcDbCircle
 10
0.9100387748163605
 20
1.496999816416131
 30
0.0
 40
0.015
  0
CIRCLE
  5
4F0
330
1F
100
AcDbEntity
  8
PCB_OUTLINE
100
AcDbCircle
 10
0.8300387748163622
 20
1.496999803379818
 30
0.0
 40
0.015
  0
CIRCLE
  5
4F1
330
1F
100
AcDbEntity
  8
PCB_OUTLINE
100
AcDbCircle
 10
0.750038774816364
 20
1.496999790343505
 30
0.0
 40
0.015
  0
CIRCLE
  5
4F2
330
1F
100
AcDbEntity
  8
PCB_OUTLINE
100
AcDbCircle
 10
0.6700387748163657
 20
1.496999777307191
 30
0.0
 40
0.015
  0
CIRCLE
  5
4F3
330
1F
100
AcDbEntity
  8
PCB_OUTLINE
100
AcDbCircle
 10
0.5900387748163674
 20
1.496999764270878
 30
0.0
 40
0.015
  0
CIRCLE
  5
4F4
330
1F
100
AcDbEntity
  8
PCB_OUTLINE
100
AcDbCircle
 10
0.9100387617800436
 20
1.57699981641613
 30
0.0
 40
0.015
  0
CIRCLE
  5
4F5
330
1F
100
AcDbEntity
  8
PCB_OUTLINE
100
AcDbCircle
 10
0.9900387617800454
 20
1.576999829452443
 30
0.0
 40
0.015
  0
CIRCLE
  5
4F6
330
1F
100
AcDbEntity
  8
PCB_OUTLINE
100
AcDbCircle
 10
1.150038761780042
 20
1.57699985552507
 30
0.0
 40
0.015
  0
CIRCLE
  5
4F7
330
1F
100
AcDbEntity
  8
PCB_OUTLINE
100
AcDbCircle
 10
1.23003876178004
 20
1.576999868561383
 30
0.0
 40
0.015
  0
CIRCLE
  5
4F8
330
1F
100
AcDbEntity
  8
PCB_OUTLINE
100
AcDbCircle
 10
1.310038761780038
 20
1.576999881597696
 30
0.0
 40
0.015
  0
CIRCLE
  5
4F9
330
1F
100
AcDbEntity
  8
PCB_OUTLINE
100
AcDbCircle
 10
1.07003876178004
 20
1.576999842488756
 30
0.0
 40
0.015
  0
CIRCLE
  5
4FA
330
1F
100
AcDbEntity
  8
PCB_OUTLINE
100
AcDbCircle
 10
1.390038761780036
 20
1.57699989463401
 30
0.0
 40
0.015
  0
CIRCLE
  5
4FB
330
1F
100
AcDbEntity
  8
PCB_OUTLINE
100
AcDbCircle
 10
0.8300387617800488
 20
1.576999803379816
 30
0.0
 40
0.015
  0
CIRCLE
  5
4FC
330
1F
100
AcDbEntity
  8
PCB_OUTLINE
100
AcDbCircle
 10
0.6700387617800523
 20
1.576999777307189
 30
0.0
 40
0.015
  0
CIRCLE
  5
4FD
330
1F
100
AcDbEntity
  8
PCB_OUTLINE
100
AcDbCircle
 10
0.590038761780054
 20
1.576999764270876
 30
0.0
 40
0.015
  0
CIRCLE
  5
4FE
330
1F
100
AcDbEntity
  8
PCB_OUTLINE
100
AcDbCircle
 10
0.7500387617800506
 20
1.576999790343503
 30
0.0
 40
0.015
  0
CIRCLE
  5
4FF
330
1F
100
AcDbEntity
  8
PCB_OUTLINE
100
AcDbCircle
 10
0.9900387487437285
 20
1.656999829452434
 30
0.0
 40
0.015
  0
CIRCLE
  5
500
330
1F
100
AcDbEntity
  8
PCB_OUTLINE
100
AcDbCircle
 10
1.070038748743726
 20
1.656999842488747
 30
0.0
 40
0.015
  0
CIRCLE
  5
501
330
1F
100
AcDbEntity
  8
PCB_OUTLINE
100
AcDbCircle
 10
1.150038748743728
 20
1.656999855525061
 30
0.0
 40
0.015
  0
CIRCLE
  5
502
330
1F
100
AcDbEntity
  8
PCB_OUTLINE
100
AcDbCircle
 10
1.230038748743726
 20
1.656999868561374
 30
0.0
 40
0.015
  0
CIRCLE
  5
503
330
1F
100
AcDbEntity
  8
PCB_OUTLINE
100
AcDbCircle
 10
1.310038748743725
 20
1.656999881597695
 30
0.0
 40
0.015
  0
CIRCLE
  5
504
330
1F
100
AcDbEntity
  8
PCB_OUTLINE
100
AcDbCircle
 10
1.390038748743723
 20
1.656999894634008
 30
0.0
 40
0.015
  0
CIRCLE
  5
505
330
1F
100
AcDbEntity
  8
PCB_OUTLINE
100
AcDbCircle
 10
0.9100387487437338
 20
1.656999816416121
 30
0.0
 40
0.015
  0
CIRCLE
  5
506
330
1F
100
AcDbEntity
  8
PCB_OUTLINE
100
AcDbCircle
 10
0.8300387487437355
 20
1.6569998033798
 30
0.0
 40
0.015
  0
CIRCLE
  5
507
330
1F
100
AcDbEntity
  8
PCB_OUTLINE
100
AcDbCircle
 10
0.7500387487437373
 20
1.656999790343487
 30
0.0
 40
0.015
  0
CIRCLE
  5
508
330
1F
100
AcDbEntity
  8
PCB_OUTLINE
100
AcDbCircle
 10
0.670038748743739
 20
1.656999777307174
 30
0.0
 40
0.015
  0
CIRCLE
  5
509
330
1F
100
AcDbEntity
  8
PCB_OUTLINE
100
AcDbCircle
 10
0.5900387487437407
 20
1.65699976427086
 30
0.0
 40
0.015
  0
CIRCLE
  5
50A
330
1F
100
AcDbEntity
  8
PCB_OUTLINE
100
AcDbCircle
 10
1.790038722671091
 20
1.336999829452452
 30
0.0
 40
0.015
  0
CIRCLE
  5
50B
330
1F
100
AcDbEntity
  8
PCB_OUTLINE
100
AcDbCircle
 10
1.710038722671093
 20
1.336999842488765
 30
0.0
 40
0.015
  0
CIRCLE
  5
50C
330
1F
100
AcDbEntity
  8
PCB_OUTLINE
100
AcDbCircle
 10
1.630038722671095
 20
1.336999855525078
 30
0.0
 40
0.015
  0
CIRCLE
  5
50D
330
1F
100
AcDbEntity
  8
PCB_OUTLINE
100
AcDbCircle
 10
1.550038722671096
 20
1.336999868561392
 30
0.0
 40
0.015
  0
CIRCLE
  5
50E
330
1F
100
AcDbEntity
  8
PCB_OUTLINE
100
AcDbCircle
 10
1.470038722671095
 20
1.336999881597705
 30
0.0
 40
0.015
  0
CIRCLE
  5
50F
330
1F
100
AcDbEntity
  8
PCB_OUTLINE
100
AcDbCircle
 10
1.870038735707407
 20
1.416999816416133
 30
0.0
 40
0.015
  0
CIRCLE
  5
510
330
1F
100
AcDbEntity
  8
PCB_OUTLINE
100
AcDbCircle
 10
1.790038735707405
 20
1.416999829452446
 30
0.0
 40
0.015
  0
CIRCLE
  5
511
330
1F
100
AcDbEntity
  8
PCB_OUTLINE
100
AcDbCircle
 10
1.630038735707408
 20
1.416999855525073
 30
0.0
 40
0.015
  0
CIRCLE
  5
512
330
1F
100
AcDbEntity
  8
PCB_OUTLINE
100
AcDbCircle
 10
1.55003873570741
 20
1.416999868561386
 30
0.0
 40
0.015
  0
CIRCLE
  5
513
330
1F
100
AcDbEntity
  8
PCB_OUTLINE
100
AcDbCircle
 10
1.470038735707408
 20
1.4169998815977
 30
0.0
 40
0.015
  0
CIRCLE
  5
514
330
1F
100
AcDbEntity
  8
PCB_OUTLINE
100
AcDbCircle
 10
1.710038735707406
 20
1.41699984248876
 30
0.0
 40
0.015
  0
CIRCLE
  5
515
330
1F
100
AcDbEntity
  8
PCB_OUTLINE
100
AcDbCircle
 10
1.87003872267109
 20
1.336999816416138
 30
0.0
 40
0.015
  0
CIRCLE
  5
516
330
1F
100
AcDbEntity
  8
PCB_OUTLINE
100
AcDbCircle
 10
1.950038722671084
 20
1.336999803379825
 30
0.0
 40
0.015
  0
CIRCLE
  5
517
330
1F
100
AcDbEntity
  8
PCB_OUTLINE
100
AcDbCircle
 10
1.950038735707398
 20
1.41699980337982
 30
0.0
 40
0.015
  0
CIRCLE
  5
518
330
1F
100
AcDbEntity
  8
PCB_OUTLINE
100
AcDbCircle
 10
1.790038748743718
 20
1.496999829452445
 30
0.0
 40
0.015
  0
CIRCLE
  5
519
330
1F
100
AcDbEntity
  8
PCB_OUTLINE
100
AcDbCircle
 10
1.71003874874372
 20
1.496999842488758
 30
0.0
 40
0.015
  0
CIRCLE
  5
51A
330
1F
100
AcDbEntity
  8
PCB_OUTLINE
100
AcDbCircle
 10
1.630038748743722
 20
1.496999855525071
 30
0.0
 40
0.015
  0
CIRCLE
  5
51B
330
1F
100
AcDbEntity
  8
PCB_OUTLINE
100
AcDbCircle
 10
1.550038748743723
 20
1.496999868561385
 30
0.0
 40
0.015
  0
CIRCLE
  5
51C
330
1F
100
AcDbEntity
  8
PCB_OUTLINE
100
AcDbCircle
 10
1.470038748743721
 20
1.496999881597698
 30
0.0
 40
0.015
  0
CIRCLE
  5
51D
330
1F
100
AcDbEntity
  8
PCB_OUTLINE
100
AcDbCircle
 10
1.870038748743716
 20
1.496999816416131
 30
0.0
 40
0.015
  0
CIRCLE
  5
51E
330
1F
100
AcDbEntity
  8
PCB_OUTLINE
100
AcDbCircle
 10
1.950038748743711
 20
1.496999803379818
 30
0.0
 40
0.015
  0
CIRCLE
  5
51F
330
1F
100
AcDbEntity
  8
PCB_OUTLINE
100
AcDbCircle
 10
1.870038761780033
 20
1.57699981641613
 30
0.0
 40
0.015
  0
CIRCLE
  5
520
330
1F
100
AcDbEntity
  8
PCB_OUTLINE
100
AcDbCircle
 10
1.790038761780031
 20
1.576999829452443
 30
0.0
 40
0.015
  0
CIRCLE
  5
521
330
1F
100
AcDbEntity
  8
PCB_OUTLINE
100
AcDbCircle
 10
1.630038761780035
 20
1.57699985552507
 30
0.0
 40
0.015
  0
CIRCLE
  5
522
330
1F
100
AcDbEntity
  8
PCB_OUTLINE
100
AcDbCircle
 10
1.550038761780037
 20
1.576999868561383
 30
0.0
 40
0.015
  0
CIRCLE
  5
523
330
1F
100
AcDbEntity
  8
PCB_OUTLINE
100
AcDbCircle
 10
1.470038761780035
 20
1.576999881597696
 30
0.0
 40
0.015
  0
CIRCLE
  5
524
330
1F
100
AcDbEntity
  8
PCB_OUTLINE
100
AcDbCircle
 10
1.710038761780033
 20
1.576999842488756
 30
0.0
 40
0.015
  0
CIRCLE
  5
525
330
1F
100
AcDbEntity
  8
PCB_OUTLINE
100
AcDbCircle
 10
1.950038761780024
 20
1.576999803379816
 30
0.0
 40
0.015
  0
CIRCLE
  5
526
330
1F
100
AcDbEntity
  8
PCB_OUTLINE
100
AcDbCircle
 10
1.790038774816345
 20
1.656999829452434
 30
0.0
 40
0.015
  0
CIRCLE
  5
527
330
1F
100
AcDbEntity
  8
PCB_OUTLINE
100
AcDbCircle
 10
1.710038774816347
 20
1.656999842488747
 30
0.0
 40
0.015
  0
CIRCLE
  5
528
330
1F
100
AcDbEntity
  8
PCB_OUTLINE
100
AcDbCircle
 10
1.630038774816348
 20
1.656999855525061
 30
0.0
 40
0.015
  0
CIRCLE
  5
529
330
1F
100
AcDbEntity
  8
PCB_OUTLINE
100
AcDbCircle
 10
1.55003877481635
 20
1.656999868561374
 30
0.0
 40
0.015
  0
CIRCLE
  5
52A
330
1F
100
AcDbEntity
  8
PCB_OUTLINE
100
AcDbCircle
 10
1.470038774816348
 20
1.656999881597695
 30
0.0
 40
0.015
  0
CIRCLE
  5
52B
330
1F
100
AcDbEntity
  8
PCB_OUTLINE
100
AcDbCircle
 10
1.870038774816343
 20
1.656999816416121
 30
0.0
 40
0.015
  0
CIRCLE
  5
52C
330
1F
100
AcDbEntity
  8
PCB_OUTLINE
100
AcDbCircle
 10
1.950038774816338
 20
1.6569998033798
 30
0.0
 40
0.015
  0
CIRCLE
  5
52D
330
1F
100
AcDbEntity
  8
PCB_OUTLINE
100
AcDbCircle
 10
0.1900388008890168
 20
1.336999699089304
 30
0.0
 40
0.015
  0
CIRCLE
  5
52E
330
1F
100
AcDbEntity
  8
PCB_OUTLINE
100
AcDbCircle
 10
0.1100388008890185
 20
1.336999686052976
 30
0.0
 40
0.015
  0
CIRCLE
  5
52F
330
1F
100
AcDbEntity
  8
PCB_OUTLINE
100
AcDbCircle
 10
0.0300388008890167
 20
1.336999673016663
 30
0.0
 40
0.015
  0
CIRCLE
  5
530
330
1F
100
AcDbEntity
  8
PCB_OUTLINE
100
AcDbCircle
 10
0.2700387878527017
 20
1.416999712125619
 30
0.0
 40
0.015
  0
CIRCLE
  5
531
330
1F
100
AcDbEntity
  8
PCB_OUTLINE
100
AcDbCircle
 10
0.1900387878526999
 20
1.416999699089299
 30
0.0
 40
0.015
  0
CIRCLE
  5
532
330
1F
100
AcDbEntity
  8
PCB_OUTLINE
100
AcDbCircle
 10
0.0300387878526998
 20
1.416999673016665
 30
0.0
 40
0.015
  0
CIRCLE
  5
533
330
1F
100
AcDbEntity
  8
PCB_OUTLINE
100
AcDbCircle
 10
0.1100387878527016
 20
1.416999686052985
 30
0.0
 40
0.015
  0
CIRCLE
  5
534
330
1F
100
AcDbEntity
  8
PCB_OUTLINE
100
AcDbCircle
 10
0.2700388008890151
 20
1.336999712125617
 30
0.0
 40
0.015
  0
CIRCLE
  5
535
330
1F
100
AcDbEntity
  8
PCB_OUTLINE
100
AcDbCircle
 10
0.51003880088901
 20
1.336999751234571
 30
0.0
 40
0.015
  0
CIRCLE
  5
536
330
1F
100
AcDbEntity
  8
PCB_OUTLINE
100
AcDbCircle
 10
0.3500387878526929
 20
1.416999725161932
 30
0.0
 40
0.015
  0
CIRCLE
  5
537
330
1F
100
AcDbEntity
  8
PCB_OUTLINE
100
AcDbCircle
 10
0.5100387878526931
 20
1.416999751234566
 30
0.0
 40
0.015
  0
CIRCLE
  5
538
330
1F
100
AcDbEntity
  8
PCB_OUTLINE
100
AcDbCircle
 10
0.4300387878526913
 20
1.416999738198253
 30
0.0
 40
0.015
  0
CIRCLE
  5
539
330
1F
100
AcDbEntity
  8
PCB_OUTLINE
100
AcDbCircle
 10
0.190038774816383
 20
1.496999699089297
 30
0.0
 40
0.015
  0
CIRCLE
  5
53A
330
1F
100
AcDbEntity
  8
PCB_OUTLINE
100
AcDbCircle
 10
0.1100387748163847
 20
1.496999686052976
 30
0.0
 40
0.015
  0
CIRCLE
  5
53B
330
1F
100
AcDbEntity
  8
PCB_OUTLINE
100
AcDbCircle
 10
0.0300387748163829
 20
1.496999673016663
 30
0.0
 40
0.015
  0
CIRCLE
  5
53C
330
1F
100
AcDbEntity
  8
PCB_OUTLINE
100
AcDbCircle
 10
0.2700387748163813
 20
1.49699971212561
 30
0.0
 40
0.015
  0
CIRCLE
  5
53D
330
1F
100
AcDbEntity
  8
PCB_OUTLINE
100
AcDbCircle
 10
0.350038774816376
 20
1.496999725161931
 30
0.0
 40
0.015
  0
CIRCLE
  5
53E
330
1F
100
AcDbEntity
  8
PCB_OUTLINE
100
AcDbCircle
 10
0.4300387748163744
 20
1.496999738198244
 30
0.0
 40
0.015
  0
CIRCLE
  5
53F
330
1F
100
AcDbEntity
  8
PCB_OUTLINE
100
AcDbCircle
 10
0.5100387748163762
 20
1.496999751234564
 30
0.0
 40
0.015
  0
CIRCLE
  5
540
330
1F
100
AcDbEntity
  8
PCB_OUTLINE
100
AcDbCircle
 10
0.2700387617800679
 20
1.576999712125608
 30
0.0
 40
0.015
  0
CIRCLE
  5
541
330
1F
100
AcDbEntity
  8
PCB_OUTLINE
100
AcDbCircle
 10
0.1900387617800661
 20
1.576999699089288
 30
0.0
 40
0.015
  0
CIRCLE
  5
542
330
1F
100
AcDbEntity
  8
PCB_OUTLINE
100
AcDbCircle
 10
0.0300387617800659
 20
1.576999673016654
 30
0.0
 40
0.015
  0
CIRCLE
  5
543
330
1F
100
AcDbEntity
  8
PCB_OUTLINE
100
AcDbCircle
 10
0.1100387617800678
 20
1.576999686052975
 30
0.0
 40
0.015
  0
CIRCLE
  5
544
330
1F
100
AcDbEntity
  8
PCB_OUTLINE
100
AcDbCircle
 10
0.3500387617800591
 20
1.576999725161922
 30
0.0
 40
0.015
  0
CIRCLE
  5
545
330
1F
100
AcDbEntity
  8
PCB_OUTLINE
100
AcDbCircle
 10
0.5100387617800593
 20
1.576999751234556
 30
0.0
 40
0.015
  0
CIRCLE
  5
546
330
1F
100
AcDbEntity
  8
PCB_OUTLINE
100
AcDbCircle
 10
0.4300387617800574
 20
1.576999738198242
 30
0.0
 40
0.015
  0
CIRCLE
  5
547
330
1F
100
AcDbEntity
  8
PCB_OUTLINE
100
AcDbCircle
 10
0.1900387487437491
 20
1.656999699089286
 30
0.0
 40
0.015
  0
CIRCLE
  5
548
330
1F
100
AcDbEntity
  8
PCB_OUTLINE
100
AcDbCircle
 10
0.1100387487437509
 20
1.656999686052966
 30
0.0
 40
0.015
  0
CIRCLE
  5
549
330
1F
100
AcDbEntity
  8
PCB_OUTLINE
100
AcDbCircle
 10
0.030038748743749
 20
1.656999673016652
 30
0.0
 40
0.015
  0
CIRCLE
  5
54A
330
1F
100
AcDbEntity
  8
PCB_OUTLINE
100
AcDbCircle
 10
0.2700387487437474
 20
1.6569997121256
 30
0.0
 40
0.015
  0
CIRCLE
  5
54B
330
1F
100
AcDbEntity
  8
PCB_OUTLINE
100
AcDbCircle
 10
0.3500387487437422
 20
1.656999725161913
 30
0.0
 40
0.015
  0
CIRCLE
  5
54C
330
1F
100
AcDbEntity
  8
PCB_OUTLINE
100
AcDbCircle
 10
0.4300387487437405
 20
1.656999738198226
 30
0.0
 40
0.015
  0
CIRCLE
  5
54D
330
1F
100
AcDbEntity
  8
PCB_OUTLINE
100
AcDbCircle
 10
0.5100387487437424
 20
1.656999751234547
 30
0.0
 40
0.015
  0
CIRCLE
  5
54E
330
1F
100
AcDbEntity
  8
PCB_OUTLINE
100
AcDbCircle
 10
0.5100388139253092
 20
1.256999751234573
 30
0.0
 40
0.015
  0
CIRCLE
  5
54F
330
1F
100
AcDbEntity
  8
PCB_OUTLINE
100
AcDbCircle
 10
1.710038813925287
 20
1.256999946779274
 30
0.0
 40
0.015
  0
CIRCLE
  5
550
330
1F
100
AcDbEntity
  8
PCB_OUTLINE
100
AcDbCircle
 10
1.630038813925285
 20
1.25699993374296
 30
0.0
 40
0.015
  0
CIRCLE
  5
551
330
1F
100
AcDbEntity
  8
PCB_OUTLINE
100
AcDbCircle
 10
1.550038813925286
 20
1.256999920706647
 30
0.0
 40
0.015
  0
CIRCLE
  5
552
330
1F
100
AcDbEntity
  8
PCB_OUTLINE
100
AcDbCircle
 10
1.470038813925288
 20
1.256999907670333
 30
0.0
 40
0.015
  0
CIRCLE
  5
553
330
1F
100
AcDbEntity
  8
PCB_OUTLINE
100
AcDbCircle
 10
0.9900388269616051
 20
0.2969998946340411
 30
0.0
 40
0.015
  0
CIRCLE
  5
554
330
1F
100
AcDbEntity
  8
PCB_OUTLINE
100
AcDbCircle
 10
1.070038826961603
 20
0.2969998946340411
 30
0.0
 40
0.015
  0
CIRCLE
  5
555
330
1F
100
AcDbEntity
  8
PCB_OUTLINE
100
AcDbCircle
 10
1.150038826961605
 20
0.2969998946340411
 30
0.0
 40
0.015
  0
CIRCLE
  5
556
330
1F
100
AcDbEntity
  8
PCB_OUTLINE
100
AcDbCircle
 10
1.230038826961603
 20
0.2969998946340411
 30
0.0
 40
0.015
  0
CIRCLE
  5
557
330
1F
100
AcDbEntity
  8
PCB_OUTLINE
100
AcDbCircle
 10
1.310038826961605
 20
0.2969998946340411
 30
0.0
 40
0.015
  0
CIRCLE
  5
558
330
1F
100
AcDbEntity
  8
PCB_OUTLINE
100
AcDbCircle
 10
1.390038826961603
 20
0.2969998946340411
 30
0.0
 40
0.015
  0
CIRCLE
  5
559
330
1F
100
AcDbEntity
  8
PCB_OUTLINE
100
AcDbCircle
 10
0.9900388269616051
 20
0.2169998946340428
 30
0.0
 40
0.015
  0
CIRCLE
  5
55A
330
1F
100
AcDbEntity
  8
PCB_OUTLINE
100
AcDbCircle
 10
1.070038826961603
 20
0.2169998946340428
 30
0.0
 40
0.015
  0
CIRCLE
  5
55B
330
1F
100
AcDbEntity
  8
PCB_OUTLINE
100
AcDbCircle
 10
1.150038826961605
 20
0.2169998946340428
 30
0.0
 40
0.015
  0
CIRCLE
  5
55C
330
1F
100
AcDbEntity
  8
PCB_OUTLINE
100
AcDbCircle
 10
1.230038826961603
 20
0.2169998946340428
 30
0.0
 40
0.015
  0
CIRCLE
  5
55D
330
1F
100
AcDbEntity
  8
PCB_OUTLINE
100
AcDbCircle
 10
1.310038826961605
 20
0.2169998946340428
 30
0.0
 40
0.015
  0
CIRCLE
  5
55E
330
1F
100
AcDbEntity
  8
PCB_OUTLINE
100
AcDbCircle
 10
1.390038826961603
 20
0.2169998946340428
 30
0.0
 40
0.015
  0
CIRCLE
  5
55F
330
1F
100
AcDbEntity
  8
PCB_OUTLINE
100
AcDbCircle
 10
0.9100388269616033
 20
0.1369998946340445
 30
0.0
 40
0.015
  0
CIRCLE
  5
560
330
1F
100
AcDbEntity
  8
PCB_OUTLINE
100
AcDbCircle
 10
0.9900388269616051
 20
0.1369998946340445
 30
0.0
 40
0.015
  0
CIRCLE
  5
561
330
1F
100
AcDbEntity
  8
PCB_OUTLINE
100
AcDbCircle
 10
1.150038826961605
 20
0.1369998946340445
 30
0.0
 40
0.015
  0
CIRCLE
  5
562
330
1F
100
AcDbEntity
  8
PCB_OUTLINE
100
AcDbCircle
 10
1.230038826961603
 20
0.1369998946340445
 30
0.0
 40
0.015
  0
CIRCLE
  5
563
330
1F
100
AcDbEntity
  8
PCB_OUTLINE
100
AcDbCircle
 10
1.310038826961605
 20
0.1369998946340445
 30
0.0
 40
0.015
  0
CIRCLE
  5
564
330
1F
100
AcDbEntity
  8
PCB_OUTLINE
100
AcDbCircle
 10
1.070038826961603
 20
0.1369998946340445
 30
0.0
 40
0.015
  0
CIRCLE
  5
565
330
1F
100
AcDbEntity
  8
PCB_OUTLINE
100
AcDbCircle
 10
1.390038826961603
 20
0.1369998946340445
 30
0.0
 40
0.015
  0
CIRCLE
  5
566
330
1F
100
AcDbEntity
  8
PCB_OUTLINE
100
AcDbCircle
 10
0.9100388269616068
 20
0.2969998946340411
 30
0.0
 40
0.015
  0
CIRCLE
  5
567
330
1F
100
AcDbEntity
  8
PCB_OUTLINE
100
AcDbCircle
 10
0.9100388269616068
 20
0.2169998946340428
 30
0.0
 40
0.015
  0
CIRCLE
  5
568
330
1F
100
AcDbEntity
  8
PCB_OUTLINE
100
AcDbCircle
 10
0.8300388269616085
 20
0.2969998946340411
 30
0.0
 40
0.015
  0
CIRCLE
  5
569
330
1F
100
AcDbEntity
  8
PCB_OUTLINE
100
AcDbCircle
 10
0.7500388269616103
 20
0.2969998946340411
 30
0.0
 40
0.015
  0
CIRCLE
  5
56A
330
1F
100
AcDbEntity
  8
PCB_OUTLINE
100
AcDbCircle
 10
0.6700388269616085
 20
0.2969998946340411
 30
0.0
 40
0.015
  0
CIRCLE
  5
56B
330
1F
100
AcDbEntity
  8
PCB_OUTLINE
100
AcDbCircle
 10
0.5900388269616102
 20
0.2969998946340411
 30
0.0
 40
0.015
  0
CIRCLE
  5
56C
330
1F
100
AcDbEntity
  8
PCB_OUTLINE
100
AcDbCircle
 10
0.8300388269616085
 20
0.2169998946340428
 30
0.0
 40
0.015
  0
CIRCLE
  5
56D
330
1F
100
AcDbEntity
  8
PCB_OUTLINE
100
AcDbCircle
 10
0.7500388269616103
 20
0.2169998946340428
 30
0.0
 40
0.015
  0
CIRCLE
  5
56E
330
1F
100
AcDbEntity
  8
PCB_OUTLINE
100
AcDbCircle
 10
0.6700388269616085
 20
0.2169998946340428
 30
0.0
 40
0.015
  0
CIRCLE
  5
56F
330
1F
100
AcDbEntity
  8
PCB_OUTLINE
100
AcDbCircle
 10
0.5900388269616102
 20
0.2169998946340428
 30
0.0
 40
0.015
  0
CIRCLE
  5
570
330
1F
100
AcDbEntity
  8
PCB_OUTLINE
100
AcDbCircle
 10
0.8300388269616085
 20
0.1369998946340445
 30
0.0
 40
0.015
  0
CIRCLE
  5
571
330
1F
100
AcDbEntity
  8
PCB_OUTLINE
100
AcDbCircle
 10
0.6700388269616085
 20
0.1369998946340445
 30
0.0
 40
0.015
  0
CIRCLE
  5
572
330
1F
100
AcDbEntity
  8
PCB_OUTLINE
100
AcDbCircle
 10
0.5900388269616102
 20
0.1369998946340445
 30
0.0
 40
0.015
  0
CIRCLE
  5
573
330
1F
100
AcDbEntity
  8
PCB_OUTLINE
100
AcDbCircle
 10
0.7500388269616103
 20
0.1369998946340445
 30
0.0
 40
0.015
  0
CIRCLE
  5
574
330
1F
100
AcDbEntity
  8
PCB_OUTLINE
100
AcDbCircle
 10
0.9100388269616068
 20
0.0569998946340462
 30
0.0
 40
0.015
  0
CIRCLE
  5
575
330
1F
100
AcDbEntity
  8
PCB_OUTLINE
100
AcDbCircle
 10
0.8300388269616085
 20
0.0569998946340462
 30
0.0
 40
0.015
  0
CIRCLE
  5
576
330
1F
100
AcDbEntity
  8
PCB_OUTLINE
100
AcDbCircle
 10
0.7500388269616103
 20
0.0569998946340462
 30
0.0
 40
0.015
  0
CIRCLE
  5
577
330
1F
100
AcDbEntity
  8
PCB_OUTLINE
100
AcDbCircle
 10
0.6700388269616085
 20
0.0569998946340462
 30
0.0
 40
0.015
  0
CIRCLE
  5
578
330
1F
100
AcDbEntity
  8
PCB_OUTLINE
100
AcDbCircle
 10
0.5900388269616102
 20
0.0569998946340462
 30
0.0
 40
0.015
  0
CIRCLE
  5
579
330
1F
100
AcDbEntity
  8
PCB_OUTLINE
100
AcDbCircle
 10
1.790038826961602
 20
0.3769998946340394
 30
0.0
 40
0.015
  0
CIRCLE
  5
57A
330
1F
100
AcDbEntity
  8
PCB_OUTLINE
100
AcDbCircle
 10
1.710038826961604
 20
0.3769998946340394
 30
0.0
 40
0.015
  0
CIRCLE
  5
57B
330
1F
100
AcDbEntity
  8
PCB_OUTLINE
100
AcDbCircle
 10
1.630038826961602
 20
0.3769998946340394
 30
0.0
 40
0.015
  0
CIRCLE
  5
57C
330
1F
100
AcDbEntity
  8
PCB_OUTLINE
100
AcDbCircle
 10
1.550038826961603
 20
0.3769998946340394
 30
0.0
 40
0.015
  0
CIRCLE
  5
57D
330
1F
100
AcDbEntity
  8
PCB_OUTLINE
100
AcDbCircle
 10
1.470038826961602
 20
0.3769998946340394
 30
0.0
 40
0.015
  0
CIRCLE
  5
57E
330
1F
100
AcDbEntity
  8
PCB_OUTLINE
100
AcDbCircle
 10
1.790038826961602
 20
0.4569998946340377
 30
0.0
 40
0.015
  0
CIRCLE
  5
57F
330
1F
100
AcDbEntity
  8
PCB_OUTLINE
100
AcDbCircle
 10
1.710038826961604
 20
0.4569998946340377
 30
0.0
 40
0.015
  0
CIRCLE
  5
580
330
1F
100
AcDbEntity
  8
PCB_OUTLINE
100
AcDbCircle
 10
1.630038826961602
 20
0.4569998946340377
 30
0.0
 40
0.015
  0
CIRCLE
  5
581
330
1F
100
AcDbEntity
  8
PCB_OUTLINE
100
AcDbCircle
 10
1.550038826961603
 20
0.4569998946340377
 30
0.0
 40
0.015
  0
CIRCLE
  5
582
330
1F
100
AcDbEntity
  8
PCB_OUTLINE
100
AcDbCircle
 10
1.470038826961602
 20
0.4569998946340377
 30
0.0
 40
0.015
  0
CIRCLE
  5
583
330
1F
100
AcDbEntity
  8
PCB_OUTLINE
100
AcDbCircle
 10
1.8700388269616
 20
0.3769998946340394
 30
0.0
 40
0.015
  0
CIRCLE
  5
584
330
1F
100
AcDbEntity
  8
PCB_OUTLINE
100
AcDbCircle
 10
1.8700388269616
 20
0.4569998946340377
 30
0.0
 40
0.015
  0
CIRCLE
  5
585
330
1F
100
AcDbEntity
  8
PCB_OUTLINE
100
AcDbCircle
 10
1.950038826961598
 20
0.3769998946340394
 30
0.0
 40
0.015
  0
CIRCLE
  5
586
330
1F
100
AcDbEntity
  8
PCB_OUTLINE
100
AcDbCircle
 10
1.950038826961598
 20
0.4569998946340377
 30
0.0
 40
0.015
  0
CIRCLE
  5
587
330
1F
100
AcDbEntity
  8
PCB_OUTLINE
100
AcDbCircle
 10
1.790038826961602
 20
0.2969998946340411
 30
0.0
 40
0.015
  0
CIRCLE
  5
588
330
1F
100
AcDbEntity
  8
PCB_OUTLINE
100
AcDbCircle
 10
1.710038826961604
 20
0.2969998946340411
 30
0.0
 40
0.015
  0
CIRCLE
  5
589
330
1F
100
AcDbEntity
  8
PCB_OUTLINE
100
AcDbCircle
 10
1.630038826961602
 20
0.2969998946340411
 30
0.0
 40
0.015
  0
CIRCLE
  5
58A
330
1F
100
AcDbEntity
  8
PCB_OUTLINE
100
AcDbCircle
 10
1.550038826961603
 20
0.2969998946340411
 30
0.0
 40
0.015
  0
CIRCLE
  5
58B
330
1F
100
AcDbEntity
  8
PCB_OUTLINE
100
AcDbCircle
 10
1.470038826961602
 20
0.2969998946340411
 30
0.0
 40
0.015
  0
CIRCLE
  5
58C
330
1F
100
AcDbEntity
  8
PCB_OUTLINE
100
AcDbCircle
 10
1.790038826961602
 20
0.2169998946340428
 30
0.0
 40
0.015
  0
CIRCLE
  5
58D
330
1F
100
AcDbEntity
  8
PCB_OUTLINE
100
AcDbCircle
 10
1.710038826961604
 20
0.2169998946340428
 30
0.0
 40
0.015
  0
CIRCLE
  5
58E
330
1F
100
AcDbEntity
  8
PCB_OUTLINE
100
AcDbCircle
 10
1.630038826961602
 20
0.2169998946340428
 30
0.0
 40
0.015
  0
CIRCLE
  5
58F
330
1F
100
AcDbEntity
  8
PCB_OUTLINE
100
AcDbCircle
 10
1.550038826961603
 20
0.2169998946340428
 30
0.0
 40
0.015
  0
CIRCLE
  5
590
330
1F
100
AcDbEntity
  8
PCB_OUTLINE
100
AcDbCircle
 10
1.470038826961602
 20
0.2169998946340428
 30
0.0
 40
0.015
  0
CIRCLE
  5
591
330
1F
100
AcDbEntity
  8
PCB_OUTLINE
100
AcDbCircle
 10
1.870038826961604
 20
0.1369998946340445
 30
0.0
 40
0.015
  0
CIRCLE
  5
592
330
1F
100
AcDbEntity
  8
PCB_OUTLINE
100
AcDbCircle
 10
1.790038826961602
 20
0.1369998946340445
 30
0.0
 40
0.015
  0
CIRCLE
  5
593
330
1F
100
AcDbEntity
  8
PCB_OUTLINE
100
AcDbCircle
 10
1.630038826961602
 20
0.1369998946340445
 30
0.0
 40
0.015
  0
CIRCLE
  5
594
330
1F
100
AcDbEntity
  8
PCB_OUTLINE
100
AcDbCircle
 10
1.550038826961603
 20
0.1369998946340445
 30
0.0
 40
0.015
  0
CIRCLE
  5
595
330
1F
100
AcDbEntity
  8
PCB_OUTLINE
100
AcDbCircle
 10
1.470038826961602
 20
0.1369998946340445
 30
0.0
 40
0.015
  0
CIRCLE
  5
596
330
1F
100
AcDbEntity
  8
PCB_OUTLINE
100
AcDbCircle
 10
1.710038826961604
 20
0.1369998946340445
 30
0.0
 40
0.015
  0
CIRCLE
  5
597
330
1F
100
AcDbEntity
  8
PCB_OUTLINE
100
AcDbCircle
 10
1.8700388269616
 20
0.2969998946340411
 30
0.0
 40
0.015
  0
CIRCLE
  5
598
330
1F
100
AcDbEntity
  8
PCB_OUTLINE
100
AcDbCircle
 10
1.8700388269616
 20
0.2169998946340428
 30
0.0
 40
0.015
  0
CIRCLE
  5
599
330
1F
100
AcDbEntity
  8
PCB_OUTLINE
100
AcDbCircle
 10
1.950038826961598
 20
0.2969998946340411
 30
0.0
 40
0.015
  0
CIRCLE
  5
59A
330
1F
100
AcDbEntity
  8
PCB_OUTLINE
100
AcDbCircle
 10
1.950038826961598
 20
0.2169998946340428
 30
0.0
 40
0.015
  0
CIRCLE
  5
59B
330
1F
100
AcDbEntity
  8
PCB_OUTLINE
100
AcDbCircle
 10
1.950038826961598
 20
0.1369998946340445
 30
0.0
 40
0.015
  0
CIRCLE
  5
59C
330
1F
100
AcDbEntity
  8
PCB_OUTLINE
100
AcDbCircle
 10
1.790038826961602
 20
0.0569998946340462
 30
0.0
 40
0.015
  0
CIRCLE
  5
59D
330
1F
100
AcDbEntity
  8
PCB_OUTLINE
100
AcDbCircle
 10
1.710038826961604
 20
0.0569998946340462
 30
0.0
 40
0.015
  0
CIRCLE
  5
59E
330
1F
100
AcDbEntity
  8
PCB_OUTLINE
100
AcDbCircle
 10
1.630038826961602
 20
0.0569998946340462
 30
0.0
 40
0.015
  0
CIRCLE
  5
59F
330
1F
100
AcDbEntity
  8
PCB_OUTLINE
100
AcDbCircle
 10
1.550038826961603
 20
0.0569998946340462
 30
0.0
 40
0.015
  0
CIRCLE
  5
5A0
330
1F
100
AcDbEntity
  8
PCB_OUTLINE
100
AcDbCircle
 10
1.470038826961602
 20
0.0569998946340462
 30
0.0
 40
0.015
  0
CIRCLE
  5
5A1
330
1F
100
AcDbEntity
  8
PCB_OUTLINE
100
AcDbCircle
 10
1.8700388269616
 20
0.0569998946340462
 30
0.0
 40
0.015
  0
CIRCLE
  5
5A2
330
1F
100
AcDbEntity
  8
PCB_OUTLINE
100
AcDbCircle
 10
1.950038826961598
 20
0.0569998946340462
 30
0.0
 40
0.015
  0
CIRCLE
  5
5A3
330
1F
100
AcDbEntity
  8
PCB_OUTLINE
100
AcDbCircle
 10
0.1900388269616151
 20
0.3769998946340394
 30
0.0
 40
0.015
  0
CIRCLE
  5
5A4
330
1F
100
AcDbEntity
  8
PCB_OUTLINE
100
AcDbCircle
 10
0.1100388269616168
 20
0.3769998946340394
 30
0.0
 40
0.015
  0
CIRCLE
  5
5A5
330
1F
100
AcDbEntity
  8
PCB_OUTLINE
100
AcDbCircle
 10
0.030038826961615
 20
0.3769998946340394
 30
0.0
 40
0.015
  0
CIRCLE
  5
5A6
330
1F
100
AcDbEntity
  8
PCB_OUTLINE
100
AcDbCircle
 10
0.1900388269616151
 20
0.4569998946340377
 30
0.0
 40
0.015
  0
CIRCLE
  5
5A7
330
1F
100
AcDbEntity
  8
PCB_OUTLINE
100
AcDbCircle
 10
0.1100388269616168
 20
0.4569998946340377
 30
0.0
 40
0.015
  0
CIRCLE
  5
5A8
330
1F
100
AcDbEntity
  8
PCB_OUTLINE
100
AcDbCircle
 10
0.030038826961615
 20
0.4569998946340377
 30
0.0
 40
0.015
  0
CIRCLE
  5
5A9
330
1F
100
AcDbEntity
  8
PCB_OUTLINE
100
AcDbCircle
 10
0.2700388269616134
 20
0.3769998946340394
 30
0.0
 40
0.015
  0
CIRCLE
  5
5AA
330
1F
100
AcDbEntity
  8
PCB_OUTLINE
100
AcDbCircle
 10
0.2700388269616134
 20
0.4569998946340377
 30
0.0
 40
0.015
  0
CIRCLE
  5
5AB
330
1F
100
AcDbEntity
  8
PCB_OUTLINE
100
AcDbCircle
 10
0.3500388269616117
 20
0.3769998946340394
 30
0.0
 40
0.015
  0
CIRCLE
  5
5AC
330
1F
100
AcDbEntity
  8
PCB_OUTLINE
100
AcDbCircle
 10
0.43003882696161
 20
0.3769998946340394
 30
0.0
 40
0.015
  0
CIRCLE
  5
5AD
330
1F
100
AcDbEntity
  8
PCB_OUTLINE
100
AcDbCircle
 10
0.5100388269616119
 20
0.3769998946340394
 30
0.0
 40
0.015
  0
CIRCLE
  5
5AE
330
1F
100
AcDbEntity
  8
PCB_OUTLINE
100
AcDbCircle
 10
0.3500388269616117
 20
0.4569998946340377
 30
0.0
 40
0.015
  0
CIRCLE
  5
5AF
330
1F
100
AcDbEntity
  8
PCB_OUTLINE
100
AcDbCircle
 10
0.43003882696161
 20
0.4569998946340377
 30
0.0
 40
0.015
  0
CIRCLE
  5
5B0
330
1F
100
AcDbEntity
  8
PCB_OUTLINE
100
AcDbCircle
 10
0.5100388269616119
 20
0.4569998946340377
 30
0.0
 40
0.015
  0
CIRCLE
  5
5B1
330
1F
100
AcDbEntity
  8
PCB_OUTLINE
100
AcDbCircle
 10
0.1900388269616151
 20
0.2969998946340411
 30
0.0
 40
0.015
  0
CIRCLE
  5
5B2
330
1F
100
AcDbEntity
  8
PCB_OUTLINE
100
AcDbCircle
 10
0.1100388269616168
 20
0.2969998946340411
 30
0.0
 40
0.015
  0
CIRCLE
  5
5B3
330
1F
100
AcDbEntity
  8
PCB_OUTLINE
100
AcDbCircle
 10
0.030038826961615
 20
0.2969998946340411
 30
0.0
 40
0.015
  0
CIRCLE
  5
5B4
330
1F
100
AcDbEntity
  8
PCB_OUTLINE
100
AcDbCircle
 10
0.1900388269616151
 20
0.2169998946340428
 30
0.0
 40
0.015
  0
CIRCLE
  5
5B5
330
1F
100
AcDbEntity
  8
PCB_OUTLINE
100
AcDbCircle
 10
0.1100388269616168
 20
0.2169998946340428
 30
0.0
 40
0.015
  0
CIRCLE
  5
5B6
330
1F
100
AcDbEntity
  8
PCB_OUTLINE
100
AcDbCircle
 10
0.030038826961615
 20
0.2169998946340428
 30
0.0
 40
0.015
  0
CIRCLE
  5
5B7
330
1F
100
AcDbEntity
  8
PCB_OUTLINE
100
AcDbCircle
 10
0.270038826961617
 20
0.1369998946340445
 30
0.0
 40
0.015
  0
CIRCLE
  5
5B8
330
1F
100
AcDbEntity
  8
PCB_OUTLINE
100
AcDbCircle
 10
0.1900388269616151
 20
0.1369998946340445
 30
0.0
 40
0.015
  0
CIRCLE
  5
5B9
330
1F
100
AcDbEntity
  8
PCB_OUTLINE
100
AcDbCircle
 10
0.030038826961615
 20
0.1369998946340445
 30
0.0
 40
0.015
  0
CIRCLE
  5
5BA
330
1F
100
AcDbEntity
  8
PCB_OUTLINE
100
AcDbCircle
 10
0.1100388269616168
 20
0.1369998946340445
 30
0.0
 40
0.015
  0
CIRCLE
  5
5BB
330
1F
100
AcDbEntity
  8
PCB_OUTLINE
100
AcDbCircle
 10
0.2700388269616134
 20
0.2969998946340411
 30
0.0
 40
0.015
  0
CIRCLE
  5
5BC
330
1F
100
AcDbEntity
  8
PCB_OUTLINE
100
AcDbCircle
 10
0.2700388269616134
 20
0.2169998946340428
 30
0.0
 40
0.015
  0
CIRCLE
  5
5BD
330
1F
100
AcDbEntity
  8
PCB_OUTLINE
100
AcDbCircle
 10
0.3500388269616117
 20
0.2969998946340411
 30
0.0
 40
0.015
  0
CIRCLE
  5
5BE
330
1F
100
AcDbEntity
  8
PCB_OUTLINE
100
AcDbCircle
 10
0.43003882696161
 20
0.2969998946340411
 30
0.0
 40
0.015
  0
CIRCLE
  5
5BF
330
1F
100
AcDbEntity
  8
PCB_OUTLINE
100
AcDbCircle
 10
0.5100388269616119
 20
0.2969998946340411
 30
0.0
 40
0.015
  0
CIRCLE
  5
5C0
330
1F
100
AcDbEntity
  8
PCB_OUTLINE
100
AcDbCircle
 10
0.3500388269616117
 20
0.2169998946340428
 30
0.0
 40
0.015
  0
CIRCLE
  5
5C1
330
1F
100
AcDbEntity
  8
PCB_OUTLINE
100
AcDbCircle
 10
0.43003882696161
 20
0.2169998946340428
 30
0.0
 40
0.015
  0
CIRCLE
  5
5C2
330
1F
100
AcDbEntity
  8
PCB_OUTLINE
100
AcDbCircle
 10
0.5100388269616119
 20
0.2169998946340428
 30
0.0
 40
0.015
  0
CIRCLE
  5
5C3
330
1F
100
AcDbEntity
  8
PCB_OUTLINE
100
AcDbCircle
 10
0.3500388269616117
 20
0.1369998946340445
 30
0.0
 40
0.015
  0
CIRCLE
  5
5C4
330
1F
100
AcDbEntity
  8
PCB_OUTLINE
100
AcDbCircle
 10
0.5100388269616119
 20
0.1369998946340445
 30
0.0
 40
0.015
  0
CIRCLE
  5
5C5
330
1F
100
AcDbEntity
  8
PCB_OUTLINE
100
AcDbCircle
 10
0.43003882696161
 20
0.1369998946340445
 30
0.0
 40
0.015
  0
CIRCLE
  5
5C6
330
1F
100
AcDbEntity
  8
PCB_OUTLINE
100
AcDbCircle
 10
0.5100388269616119
 20
0.536999894634036
 30
0.0
 40
0.015
  0
CIRCLE
  5
5C7
330
1F
100
AcDbEntity
  8
PCB_OUTLINE
100
AcDbCircle
 10
1.470038826961602
 20
0.536999894634036
 30
0.0
 40
0.015
  0
CIRCLE
  5
5C8
330
1F
100
AcDbEntity
  8
PCB_OUTLINE
100
AcDbCircle
 10
0.1900388269616151
 20
0.0569998946340462
 30
0.0
 40
0.015
  0
CIRCLE
  5
5C9
330
1F
100
AcDbEntity
  8
PCB_OUTLINE
100
AcDbCircle
 10
0.1100388269616168
 20
0.0569998946340462
 30
0.0
 40
0.015
  0
CIRCLE
  5
5CA
330
1F
100
AcDbEntity
  8
PCB_OUTLINE
100
AcDbCircle
 10
0.030038826961615
 20
0.0569998946340462
 30
0.0
 40
0.015
  0
CIRCLE
  5
5CB
330
1F
100
AcDbEntity
  8
PCB_OUTLINE
100
AcDbCircle
 10
0.2700388269616134
 20
0.0569998946340462
 30
0.0
 40
0.015
  0
CIRCLE
  5
5CC
330
1F
100
AcDbEntity
  8
PCB_OUTLINE
100
AcDbCircle
 10
0.3500388269616117
 20
0.0569998946340462
 30
0.0
 40
0.015
  0
CIRCLE
  5
5CD
330
1F
100
AcDbEntity
  8
PCB_OUTLINE
100
AcDbCircle
 10
0.43003882696161
 20
0.0569998946340462
 30
0.0
 40
0.015
  0
CIRCLE
  5
5CE
330
1F
100
AcDbEntity
  8
PCB_OUTLINE
100
AcDbCircle
 10
0.5100388269616119
 20
0.0569998946340462
 30
0.0
 40
0.015
  0
LWPOLYLINE
  5
5CF
330
1F
100
AcDbEntity
  8
PCB_TOP
100
AcDbPolyline
 90
       10
 70
     1
 43
0.0
 10
0.3838749999999997
 20
1.106999936052986
 10
0.5
 20
1.106999936052986
 10
0.5
 20
1.035999936052974
 10
0.3838749999999997
 20
1.035999936052974
 10
0.3631168019954423
 20
1.039102239364481
 10
0.1410311672523541
 20
1.106999941419317
 10
0.0355170851686211
 20
1.106999941419317
 42
-0.9999999999999998
 10
0.0355170851686211
 20
1.177999941419329
 10
0.1410311672523541
 20
1.177999941419329
 10
0.1617893652569116
 20
1.174897638107822
  0
CIRCLE
  5
5D0
330
1F
100
AcDbEntity
  8
PCB_OUTLINE
100
AcDbCircle
 10
0.3500388008890169
 20
1.33699972516193
 30
0.0
 40
0.015
  0
CIRCLE
  5
5D1
330
1F
100
AcDbEntity
  8
PCB_OUTLINE
100
AcDbCircle
 10
0.4300388008890117
 20
1.336999738198258
 30
0.0
 40
0.015
  0
CIRCLE
  5
5D2
330
1F
100
AcDbEntity
  8
PCB_OUTLINE
100
AcDbCircle
 10
0.2700388139253533
 20
1.25699971212559
 30
0.0
 40
0.015
  0
CIRCLE
  5
5D3
330
1F
100
AcDbEntity
  8
PCB_OUTLINE
100
AcDbCircle
 10
0.3500388139253481
 20
1.256999725161932
 30
0.0
 40
0.015
  0
CIRCLE
  5
5D4
330
1F
100
AcDbEntity
  8
PCB_OUTLINE
100
AcDbCircle
 10
0.4300388139253429
 20
1.256999738198274
 30
0.0
 40
0.015
  0
CIRCLE
  5
5D5
330
1F
100
AcDbEntity
  8
PCB_OUTLINE
100
AcDbCircle
 10
0.190038813925284
 20
0.9369998555250589
 30
0.0
 40
0.015
  0
CIRCLE
  5
5D6
330
1F
100
AcDbEntity
  8
PCB_OUTLINE
100
AcDbCircle
 10
0.1100388139252857
 20
0.9369998424887313
 30
0.0
 40
0.015
  0
CIRCLE
  5
5D7
330
1F
100
AcDbEntity
  8
PCB_OUTLINE
100
AcDbCircle
 10
0.0300388139252839
 20
0.9369998294524179
 30
0.0
 40
0.015
  0
CIRCLE
  5
5D8
330
1F
100
AcDbEntity
  8
PCB_OUTLINE
100
AcDbCircle
 10
0.2700388139252823
 20
0.9369998685613722
 30
0.0
 40
0.015
  0
LWPOLYLINE
  5
5D9
330
1F
100
AcDbEntity
  8
PCB_TOP
100
AcDbPolyline
 90
       10
 70
     1
 43
0.0
 10
0.3631168019954423
 20
0.7058976327414826
 10
0.1410311672523541
 20
0.6379999306866467
 10
0.0355170851686211
 20
0.6379999306866609
 42
0.9999999999999998
 10
0.0355170851686211
 20
0.5669999306866487
 10
0.1410311672523541
 20
0.5669999306866487
 10
0.1617893652569116
 20
0.5701022339981563
 10
0.3838749999999997
 20
0.6379999360529923
 10
0.5
 20
0.6379999360529923
 10
0.5
 20
0.7089999360529902
 10
0.3838749999999997
 20
0.7089999360529902
  0
CIRCLE
  5
5DA
330
1F
100
AcDbEntity
  8
PCB_OUTLINE
100
AcDbCircle
 10
0.190038813925284
 20
0.7769999337429994
 30
0.0
 40
0.015
  0
CIRCLE
  5
5DB
330
1F
100
AcDbEntity
  8
PCB_OUTLINE
100
AcDbCircle
 10
0.1100388139252857
 20
0.7769999467793128
 30
0.0
 40
0.015
  0
CIRCLE
  5
5DC
330
1F
100
AcDbEntity
  8
PCB_OUTLINE
100
AcDbCircle
 10
0.0300388139252839
 20
0.7769999598156261
 30
0.0
 40
0.015
  0
LWPOLYLINE
  5
5DD
330
1F
100
AcDbEntity
  8
PCB_TOP
100
AcDbPolyline
 90
       10
 70
     1
 43
0.0
 10
1.818210634743088
 20
1.174897638107822
 10
1.596125
 20
1.106999936052986
 10
1.480000000000003
 20
1.106999936052986
 10
1.480000000000003
 20
1.035999936052974
 10
1.596125
 20
1.035999936052974
 10
1.616883198004558
 20
1.039102239364481
 10
1.838968832747649
 20
1.106999941419317
 10
1.944482914831382
 20
1.106999941419317
 42
0.9999999999999998
 10
1.944482914831382
 20
1.177999941419329
 10
1.838968832747649
 20
1.177999941419329
  0
LWPOLYLINE
  5
5DE
330
1F
100
AcDbEntity
  8
PCB_TOP
100
AcDbPolyline
 90
       10
 70
     1
 43
0.0
 10
1.616883198004561
 20
0.7058976327414826
 10
1.838968832747649
 20
0.6379999306866467
 10
1.944482914831382
 20
0.6379999306866609
 42
-0.9999999999999998
 10
1.944482914831382
 20
0.5669999306866487
 10
1.838968832747649
 20
0.5669999306866487
 10
1.818210634743092
 20
0.5701022339981563
 10
1.596125
 20
0.6379999360529923
 10
1.480000000000003
 20
0.6379999360529923
 10
1.480000000000003
 20
0.7089999360529902
 10
1.596125
 20
0.7089999360529902
  0
CIRCLE
  5
5DF
330
1F
100
AcDbEntity
  8
PCB_OUTLINE
100
AcDbCircle
 10
1.790038826961602
 20
0.9369998946340274
 30
0.0
 40
0.015
  0
CIRCLE
  5
5E0
330
1F
100
AcDbEntity
  8
PCB_OUTLINE
100
AcDbCircle
 10
1.710038826961604
 20
0.9369998946340274
 30
0.0
 40
0.015
  0
CIRCLE
  5
5E1
330
1F
100
AcDbEntity
  8
PCB_OUTLINE
100
AcDbCircle
 10
1.8700388269616
 20
0.9369998946340274
 30
0.0
 40
0.015
  0
CIRCLE
  5
5E2
330
1F
100
AcDbEntity
  8
PCB_OUTLINE
100
AcDbCircle
 10
1.950038826961598
 20
0.9369998946340274
 30
0.0
 40
0.015
  0
CIRCLE
  5
5E3
330
1F
100
AcDbEntity
  8
PCB_OUTLINE
100
AcDbCircle
 10
1.790038826961602
 20
0.7769998946340309
 30
0.0
 40
0.015
  0
CIRCLE
  5
5E4
330
1F
100
AcDbEntity
  8
PCB_OUTLINE
100
AcDbCircle
 10
1.8700388269616
 20
0.7769998946340309
 30
0.0
 40
0.015
  0
CIRCLE
  5
5E5
330
1F
100
AcDbEntity
  8
PCB_OUTLINE
100
AcDbCircle
 10
1.950038826961598
 20
0.7769998946340309
 30
0.0
 40
0.015
  0
LINE
  5
5E6
330
1F
100
AcDbEntity
  8
PCB_BOT
100
AcDbLine
 10
-0.6324999256593494
 20
0.872499999999988
 30
0.0
 11
-1.041949890981289
 21
0.872499999999988
 31
0.0
  0
LINE
  5
5E7
330
1F
100
AcDbEntity
  8
PCB_OUTLINE
100
AcDbLine
 10
-0.6324999256593351
 20
0.8725000000000022
 30
0.0
 11
-1.041949890981275
 21
0.8725000000000022
 31
0.0
  0
LINE
  5
5E8
330
1F
100
AcDbEntity
  8
PCB_TOP
100
AcDbLine
 10
-0.6324999256593351
 20
0.8725000000000022
 30
0.0
 11
-1.041949890981275
 21
0.8725000000000022
 31
0.0
  0
HATCH
  5
5E9
330
1F
100
AcDbEntity
  8
PCB_TOP
100
AcDbHatch
 10
0.0
 20
0.0
 30
0.0
210
0.0
220
0.0
230
1.0
  2
SOLID
 70
     1
 71
     0
 91
        3
 92
        7
 72
     1
 73
     1
 93
        3
 10
-0.8372249083203264
 20
1.017040851144443
 42
0.1989123673796765
 10
-0.9394307243230493
 20
0.9747058160027108
 42
0.0
 10
-0.8372249083203264
 20
0.872499999999988
 42
0.0
 97
        0
 92
        7
 72
     1
 73
     1
 93
        3
 10
-0.9394307243230493
 20
0.9747058160027108
 42
0.1989123673796716
 10
-0.9817657594647961
 20
0.872499999999988
 42
0.0
 10
-0.8372249083203406
 20
0.872499999999988
 42
0.0
 97
        0
 92
        7
 72
     1
 73
     1
 93
        3
 10
-0.7350190923176179
 20
0.9747058160027037
 42
0.1989123673796498
 10
-0.8372249083203264
 20
1.017040851144443
 42
0.0
 10
-0.8372249083203264
 20
0.8725000000000022
 42
0.0
 97
        0
 75
     0
 76
     1
 47
0.0001896584045076
 98
        3
 10
-0.8692867614449291
 20
0.9699500443985797
 10
-0.9156005730176026
 20
0.9312597391029484
 10
-0.8047513688781897
 20
0.9411219417445337
  0
LINE
  5
5EA
330
1F
100
AcDbEntity
  8
PCB_BOT
100
AcDbLine
 10
-0.9819873318382157
 20
0.7277375764821273
 30
0.0
 11
-0.6924624848024515
 21
1.017262423517863
 31
0.0
  0
LINE
  5
5EB
330
1F
100
AcDbEntity
  8
PCB_BOT
100
AcDbLine
 10
-0.9819873318382015
 20
1.017262423517863
 30
0.0
 11
-0.6924624848024515
 21
0.7277375764821131
 31
0.0
  0
LINE
  5
5EC
330
1F
100
AcDbEntity
  8
PCB_BOT
100
AcDbLine
 10
-0.8372249083203264
 20
1.077224982660965
 30
0.0
 11
-0.8372249083203264
 21
0.6677750173390109
 31
0.0
  0
HATCH
  5
5ED
330
1F
100
AcDbEntity
  8
PCB_OUTLINE
100
AcDbHatch
 10
0.0
 20
0.0
 30
0.0
210
0.0
220
0.0
230
1.0
  2
SOLID
 70
     1
 71
     0
 91
        2
 92
        7
 72
     1
 73
     1
 93
        3
 10
-0.8372249083203122
 20
0.8725000000000093
 42
0.0
 10
-0.9394307243230635
 20
0.7702941839972724
 42
0.1989123673796946
 10
-0.8372249083203264
 20
0.7279591488555326
 42
0.0
 97
        0
 92
        7
 72
     1
 73
     1
 93
        3
 10
-0.8372249083203406
 20
0.872499999999988
 42
0.0
 10
-0.9817657594647961
 20
0.872499999999988
 42
0.1989123673796509
 10
-0.9394307243230635
 20
0.7702941839972724
 42
0.0
 97
        0
 75
     0
 76
     1
 47
0.0001896584045076
 98
        2
 10
-0.8624536079386508
 20
0.7681534619971658
 10
-0.9330630225260598
 20
0.8212578186198058
  0
HATCH
  5
5EE
330
1F
100
AcDbEntity
  8
PCB_BOT
100
AcDbHatch
 10
0.0
 20
0.0
 30
0.0
210
0.0
220
0.0
230
1.0
  2
SOLID
 70
     1
 71
     0
 91
        3
 92
        7
 72
     1
 73
     1
 93
        3
 10
-0.8372249083203264
 20
0.872499999999988
 42
0.0
 10
-0.8372249083203264
 20
0.7279591488555326
 42
0.1989123673796551
 10
-0.7350190923176179
 20
0.7702941839972795
 42
0.0
 97
        0
 92
        7
 72
     1
 73
     1
 93
        3
 10
-0.6926840571758853
 20
0.872499999999988
 42
0.0
 10
-0.8372249083203264
 20
0.8724999999999809
 42
0.0
 10
-0.7350190923176179
 20
0.7702941839972724
 42
0.1989123673796482
 97
        0
 92
        7
 72
     1
 73
     1
 93
        3
 10
-0.7350190923176179
 20
0.9747058160027037
 42
0.0
 10
-0.8372249083203406
 20
0.872499999999988
 42
0.0
 10
-0.6926840571758853
 20
0.872499999999988
 42
0.1989123673796509
 97
        0
 75
     0
 76
     1
 47
0.0001896584045076
 98
        3
 10
-0.7903259303800816
 20
0.7909124330706092
 10
-0.7394568448258987
 20
0.8227751015149564
 10
-0.7432529873218279
 20
0.8796726653754589
  0
LINE
  5
5EF
330
1F
100
AcDbEntity
  8
PCB_OUTLINE
100
AcDbLine
 10
-0.8372249083203122
 20
1.077224982660979
 30
0.0
 11
-0.8372249083203122
 21
0.6677750173390252
 31
0.0
  0
LINE
  5
5F0
330
1F
100
AcDbEntity
  8
PCB_OUTLINE
100
AcDbLine
 10
-0.9819873318382015
 20
0.7277375764821415
 30
0.0
 11
-0.6924624848024373
 21
1.017262423517877
 31
0.0
  0
LINE
  5
5F1
330
1F
100
AcDbEntity
  8
PCB_OUTLINE
100
AcDbLine
 10
-0.9819873318381873
 20
1.017262423517877
 30
0.0
 11
-0.6924624848024373
 21
0.7277375764821273
 31
0.0
  0
LINE
  5
5F2
330
1F
100
AcDbEntity
  8
PCB_TOP
100
AcDbLine
 10
-0.9819873318381873
 20
1.017262423517877
 30
0.0
 11
-0.6924624848024373
 21
0.7277375764821273
 31
0.0
  0
LINE
  5
5F3
330
1F
100
AcDbEntity
  8
PCB_TOP
100
AcDbLine
 10
-0.9819873318382015
 20
0.7277375764821415
 30
0.0
 11
-0.6924624848024373
 21
1.017262423517877
 31
0.0
  0
LINE
  5
5F4
330
1F
100
AcDbEntity
  8
PCB_TOP
100
AcDbLine
 10
-0.8372249083203122
 20
1.077224982660979
 30
0.0
 11
-0.8372249083203122
 21
0.6677750173390252
 31
0.0
  0
CIRCLE
  5
5F5
330
1F
100
AcDbEntity
  8
PCB_BOT
100
AcDbCircle
 10
-0.8372249083203122
 20
0.8724999999999738
 30
0.0
 40
0.1445408511444538
  0
CIRCLE
  5
5F6
330
1F
100
AcDbEntity
  8
PCB_OUTLINE
100
AcDbCircle
 10
-0.8372249083203122
 20
0.8724999999999738
 30
0.0
 40
0.1445408511444538
  0
CIRCLE
  5
5F7
330
1F
100
AcDbEntity
  8
PCB_TOP
100
AcDbCircle
 10
-0.8372249083203122
 20
0.8724999999999738
 30
0.0
 40
0.1445408511444538
  0
TEXT
  5
5F8
330
1F
100
AcDbEntity
  8
PCB_OUTLINE
100
AcDbText
 10
2.615635263478903
 20
0.3281866596146195
 30
0.0
 40
0.0598654767621127
  1
PCB_OUTLINE
  7
ROMANS
100
AcDbText
  0
HATCH
  5
5F9
330
1F
100
AcDbEntity
  8
PCB_BOT
100
AcDbHatch
 10
0.0
 20
0.0
 30
0.0
210
0.0
220
0.0
230
1.0
  2
SOLID
 70
     1
 71
     0
 91
        3
 92
        7
 72
     1
 73
     1
 93
        3
 10
2.817224993054761
 20
0.8725000339983814
 42
0.0
 10
2.817224993054761
 20
0.7279591828539261
 42
0.1989123673796551
 10
2.91943080905747
 20
0.7702942179956729
 42
0.0
 97
        0
 92
        7
 72
     1
 73
     1
 93
        3
 10
2.961765844199216
 20
0.8725000339983814
 42
0.0
 10
2.817224993054761
 20
0.8725000339983743
 42
0.0
 10
2.91943080905747
 20
0.7702942179956658
 42
0.1989123673796482
 97
        0
 92
        7
 72
     1
 73
     1
 93
        3
 10
2.91943080905747
 20
0.9747058500010972
 42
0.0
 10
2.817224993054761
 20
0.8725000339983814
 42
0.0
 10
2.961765844199216
 20
0.8725000339983814
 42
0.1989123673796509
 97
        0
 75
     0
 76
     1
 47
0.0001896584045076
 98
        3
 10
2.86412397099502
 20
0.7909124670690027
 10
2.914993056549203
 20
0.8227751355133499
 10
2.911196914053274
 20
0.8796726993738523
  0
LINE
  5
5FA
330
1F
100
AcDbEntity
  8
PCB_BOT
100
AcDbLine
 10
2.672462569536886
 20
0.7277376104805207
 30
0.0
 11
2.961987416572636
 21
1.017262457516256
 31
0.0
  0
LINE
  5
5FB
330
1F
100
AcDbEntity
  8
PCB_BOT
100
AcDbLine
 10
2.672462569536886
 20
1.017262457516256
 30
0.0
 11
2.961987416572636
 21
0.7277376104805065
 31
0.0
  0
HATCH
  5
5FC
330
1F
100
AcDbEntity
  8
PCB_OUTLINE
100
AcDbHatch
 10
0.0
 20
0.0
 30
0.0
210
0.0
220
0.0
230
1.0
  2
SOLID
 70
     1
 71
     0
 91
        2
 92
        7
 72
     1
 73
     1
 93
        3
 10
2.817224993054775
 20
0.8725000339984028
 42
0.0
 10
2.715019177052024
 20
0.7702942179956658
 42
0.1989123673796946
 10
2.817224993054761
 20
0.7279591828539261
 42
0.0
 97
        0
 92
        7
 72
     1
 73
     1
 93
        3
 10
2.817224993054747
 20
0.8725000339983814
 42
0.0
 10
2.672684141910306
 20
0.8725000339983814
 42
0.1989123673796509
 10
2.715019177052024
 20
0.7702942179956658
 42
0.0
 97
        0
 75
     0
 76
     1
 47
0.0001896584045076
 98
        2
 10
2.791996293436451
 20
0.7681534959955592
 10
2.721386878849042
 20
0.8212578526181992
  0
LINE
  5
5FD
330
1F
100
AcDbEntity
  8
PCB_OUTLINE
100
AcDbLine
 10
2.672462569536886
 20
0.7277376104805349
 30
0.0
 11
2.961987416572664
 21
1.01726245751627
 31
0.0
  0
LINE
  5
5FE
330
1F
100
AcDbEntity
  8
PCB_OUTLINE
100
AcDbLine
 10
2.672462569536914
 20
1.01726245751627
 30
0.0
 11
2.961987416572664
 21
0.7277376104805207
 31
0.0
  0
LINE
  5
5FF
330
1F
100
AcDbEntity
  8
PCB_TOP
100
AcDbLine
 10
2.672462569536914
 20
1.01726245751627
 30
0.0
 11
2.961987416572664
 21
0.7277376104805207
 31
0.0
  0
LINE
  5
600
330
1F
100
AcDbEntity
  8
PCB_TOP
100
AcDbLine
 10
2.672462569536886
 20
0.7277376104805349
 30
0.0
 11
2.961987416572664
 21
1.01726245751627
 31
0.0
  0
CIRCLE
  5
601
330
1F
100
AcDbEntity
  8
PCB_BOT
100
AcDbCircle
 10
2.817224993054789
 20
0.8725000339983672
 30
0.0
 40
0.1445408511444538
  0
CIRCLE
  5
602
330
1F
100
AcDbEntity
  8
PCB_OUTLINE
100
AcDbCircle
 10
2.817224993054789
 20
0.8725000339983672
 30
0.0
 40
0.1445408511444538
  0
CIRCLE
  5
603
330
1F
100
AcDbEntity
  8
PCB_TOP
100
AcDbCircle
 10
2.817224993054789
 20
0.8725000339983672
 30
0.0
 40
0.1445408511444538
  0
LINE
  5
604
330
1F
100
AcDbEntity
  8
PCB_BOT
100
AcDbLine
 10
2.817224993054761
 20
1.077225016659358
 30
0.0
 11
2.817224993054761
 21
0.6677750513374044
 31
0.0
  0
LINE
  5
605
330
1F
100
AcDbEntity
  8
PCB_OUTLINE
100
AcDbLine
 10
2.817224993054789
 20
1.077225016659372
 30
0.0
 11
2.817224993054789
 21
0.6677750513374186
 31
0.0
  0
LINE
  5
606
330
1F
100
AcDbEntity
  8
PCB_TOP
100
AcDbLine
 10
2.817224993054789
 20
1.077225016659372
 30
0.0
 11
2.817224993054789
 21
0.6677750513374186
 31
0.0
  0
TEXT
  5
607
330
1F
100
AcDbEntity
  8
PCB_TOP
100
AcDbText
 10
2.615635263478903
 20
0.4418135440462195
 30
0.0
 40
0.0598654767621127
  1
PCB_TOP
  7
ROMANS
100
AcDbText
  0
TEXT
  5
608
330
1F
100
AcDbEntity
  8
PCB_BOT
100
AcDbText
 10
2.615635263478903
 20
0.2096226158780361
 30
0.0
 40
0.0598654767621127
  1
PCB_BOT
  7
ROMANS
100
AcDbText
  0
LINE
  5
609
330
1F
100
AcDbEntity
  8
PCB_BOT
100
AcDbLine
 10
3.021949975715752
 20
0.8725000339983814
 30
0.0
 11
2.612500010393798
 21
0.8725000339983814
 31
0.0
  0
HATCH
  5
60A
330
1F
100
AcDbEntity
  8
PCB_TOP
100
AcDbHatch
 10
0.0
 20
0.0
 30
0.0
210
0.0
220
0.0
230
1.0
  2
SOLID
 70
     1
 71
     0
 91
        3
 92
        7
 72
     1
 73
     1
 93
        3
 10
2.817224993054761
 20
1.017040885142836
 42
0.1989123673796765
 10
2.715019177052038
 20
0.9747058500011043
 42
0.0
 10
2.817224993054761
 20
0.8725000339983814
 42
0.0
 97
        0
 92
        7
 72
     1
 73
     1
 93
        3
 10
2.715019177052038
 20
0.9747058500011043
 42
0.1989123673796716
 10
2.672684141910306
 20
0.8725000339983814
 42
0.0
 10
2.817224993054761
 20
0.8725000339983814
 42
0.0
 97
        0
 92
        7
 72
     1
 73
     1
 93
        3
 10
2.91943080905747
 20
0.9747058500010972
 42
0.1989123673796498
 10
2.817224993054761
 20
1.017040885142836
 42
0.0
 10
2.817224993054761
 20
0.8725000339983957
 42
0.0
 97
        0
 75
     0
 76
     1
 47
0.0001896584045076
 98
        3
 10
2.785163139930173
 20
0.9699500783969732
 10
2.738849328357499
 20
0.9312597731013418
 10
2.849698532496912
 20
0.9411219757429272
  0
LINE
  5
60B
330
1F
100
AcDbEntity
  8
PCB_OUTLINE
100
AcDbLine
 10
3.021949975715752
 20
0.8725000339983957
 30
0.0
 11
2.612500010393826
 21
0.8725000339983957
 31
0.0
  0
LINE
  5
60C
330
1F
100
AcDbEntity
  8
PCB_TOP
100
AcDbLine
 10
3.021949975715752
 20
0.8725000339983957
 30
0.0
 11
2.612500010393826
 21
0.8725000339983957
 31
0.0
  0
TEXT
  5
60D
330
1F
100
AcDbEntity
  8
Text
100
AcDbText
 10
-0.2826338687961296
 20
2.186091226416168
 30
-0.062
 40
0.1
  1
%%UTOP & BOTTOM ARTWORK SCALE 1:1
  7
ARIAL
 72
     1
 11
0.9864998283389319
 21
2.186091226416168
 31
-0.062
100
AcDbText
  0
TEXT
  5
60E
330
1F
100
AcDbEntity
  8
Text
100
AcDbText
 10
-0.5851236368725279
 20
2.006139422265716
 30
-0.062
 40
0.1
  1
VIEW: LOOKING THRU FROM TOP TO BOTTOM
  7
ARIAL
 72
     1
 11
0.9864998283389319
 21
2.006139422265716
 31
-0.062
100
AcDbText
  0
LINE
  5
60F
330
1F
100
AcDbEntity
  8
Part
100
AcDbLine
 10
0.4724999999997479
 20
0.7089999360529795
 30
0.0
 11
0.4400000000000049
 21
0.7089999360529795
 31
0.0
  0
LINE
  5
610
330
1F
100
AcDbEntity
  8
Part
100
AcDbLine
 10
0.4400000000000049
 20
0.6379999360529816
 30
0.0
 11
0.4724999999997266
 21
0.6379999360529816
 31
0.0
  0
ARC
  5
611
330
1F
100
AcDbEntity
  8
Part
100
AcDbCircle
 10
0.4824999999999946
 20
0.6734999360529877
 30
0.0
 40
0.0125
100
AcDbArc
 50
143.1301023560733
 51
216.8698976438892
  0
LINE
  5
612
330
1F
100
AcDbEntity
  8
Part
100
AcDbLine
 10
0.4400000000000049
 20
0.6584999360529836
 30
0.0
 11
0.4400000000000049
 21
0.6379999360529816
 31
0.0
  0
LINE
  5
613
330
1F
100
AcDbEntity
  8
Part
100
AcDbLine
 10
0.4400000000000049
 20
0.7089999360529795
 30
0.0
 11
0.4400000000000049
 21
0.6884999360529847
 31
0.0
  0
ARC
  5
614
330
1F
100
AcDbEntity
  8
Part
100
AcDbCircle
 10
0.4400000000000049
 20
0.6734999360529841
 30
0.0
 40
0.0150000000000006
100
AcDbArc
 50
270.0
 51
90.0
  0
LINE
  5
615
330
1F
100
AcDbEntity
  8
Part
100
AcDbLine
 10
1.507499999999971
 20
1.035999936052984
 30
0.0
 11
1.539999999999999
 21
1.035999936052984
 31
0.0
  0
LINE
  5
616
330
1F
100
AcDbEntity
  8
Part
100
AcDbLine
 10
1.539999999999999
 20
1.106999936052986
 30
0.0
 11
1.507499999999993
 21
1.106999936052986
 31
0.0
  0
ARC
  5
617
330
1F
100
AcDbEntity
  8
Part
100
AcDbCircle
 10
1.497500000000009
 20
1.071499936052987
 30
0.0
 40
0.0125
100
AcDbArc
 50
323.1301023539558
 51
36.86989764601186
  0
ARC
  5
618
330
1F
100
AcDbEntity
  8
Part
100
AcDbCircle
 10
1.539999999999999
 20
1.071499936052987
 30
0.0
 40
0.0150000000000005
100
AcDbArc
 50
90.0
 51
270.0
  0
LINE
  5
619
330
1F
100
AcDbEntity
  8
Part
100
AcDbLine
 10
1.539999999999999
 20
1.086499936052987
 30
0.0
 11
1.539999999999999
 21
1.106999936052986
 31
0.0
  0
LINE
  5
61A
330
1F
100
AcDbEntity
  8
Part
100
AcDbLine
 10
1.539999999999999
 20
1.035999936052984
 30
0.0
 11
1.539999999999999
 21
1.056499936052986
 31
0.0
  0
LINE
  5
61B
330
1F
100
AcDbEntity
  8
Part
100
AcDbLine
 10
1.507499999999865
 20
0.6379999360529816
 30
0.0
 11
1.539999999999999
 21
0.6379999360529816
 31
0.0
  0
LINE
  5
61C
330
1F
100
AcDbEntity
  8
Part
100
AcDbLine
 10
1.539999999999999
 20
0.7089999360529795
 30
0.0
 11
1.507499999999879
 21
0.7089999360529795
 31
0.0
  0
ARC
  5
61D
330
1F
100
AcDbEntity
  8
Part
100
AcDbCircle
 10
1.497500000000009
 20
0.6734999360529877
 30
0.0
 40
0.0124999999999999
100
AcDbArc
 50
323.1301023531135
 51
36.86989764685968
  0
ARC
  5
61E
330
1F
100
AcDbEntity
  8
Part
100
AcDbCircle
 10
1.539999999999999
 20
0.6734999360529841
 30
0.0
 40
0.0150000000000006
100
AcDbArc
 50
90.0
 51
270.0
  0
LINE
  5
61F
330
1F
100
AcDbEntity
  8
Part
100
AcDbLine
 10
1.539999999999999
 20
0.6884999360529847
 30
0.0
 11
1.539999999999999
 21
0.7089999360529795
 31
0.0
  0
LINE
  5
620
330
1F
100
AcDbEntity
  8
Part
100
AcDbLine
 10
1.539999999999999
 20
0.6379999360529816
 30
0.0
 11
1.539999999999999
 21
0.6584999360529836
 31
0.0
  0
LINE
  5
621
330
1F
100
AcDbEntity
  8
Part
100
AcDbLine
 10
0.4724999999998545
 20
1.106999936052986
 30
0.0
 11
0.4400000000000049
 21
1.106999936052986
 31
0.0
  0
LINE
  5
622
330
1F
100
AcDbEntity
  8
Part
100
AcDbLine
 10
0.4400000000000049
 20
1.035999936052984
 30
0.0
 11
0.4724999999998403
 21
1.035999936052984
 31
0.0
  0
ARC
  5
623
330
1F
100
AcDbEntity
  8
Part
100
AcDbCircle
 10
0.4824999999999946
 20
1.071499936052987
 30
0.0
 40
0.0124999999999999
100
AcDbArc
 50
143.1301023552522
 51
216.8698976447139
  0
ARC
  5
624
330
1F
100
AcDbEntity
  8
Part
100
AcDbCircle
 10
0.4400000000000049
 20
1.071499936052987
 30
0.0
 40
0.0150000000000005
100
AcDbArc
 50
270.0
 51
90.0
  0
LINE
  5
625
330
1F
100
AcDbEntity
  8
Part
100
AcDbLine
 10
0.4400000000000049
 20
1.056499936052986
 30
0.0
 11
0.4400000000000049
 21
1.035999936052984
 31
0.0
  0
LINE
  5
626
330
1F
100
AcDbEntity
  8
Part
100
AcDbLine
 10
0.4400000000000049
 20
1.106999936052986
 30
0.0
 11
0.4400000000000049
 21
1.086499936052987
 31
0.0
  0
LINE
  5
627
330
1F
100
AcDbEntity
  8
Part
100
AcDbLine
 10
1.507500000000014
 20
1.181999936052985
 30
0.0
 11
1.539999999999999
 21
1.181999936052985
 31
0.0
  0
LINE
  5
628
330
1F
100
AcDbEntity
  8
Part
100
AcDbLine
 10
1.539999999999999
 20
0.9609999360529819
 30
0.0
 11
1.50749999999995
 21
0.9609999360529819
 31
0.0
  0
LINE
  5
629
330
1F
100
AcDbEntity
  8
Part
100
AcDbLine
 10
1.507499999999907
 20
0.7839999360529824
 30
0.0
 11
1.539999999999999
 21
0.7839999360529824
 31
0.0
  0
LINE
  5
62A
330
1F
100
AcDbEntity
  8
Part
100
AcDbLine
 10
1.539999999999999
 20
0.5629999360529823
 30
0.0
 11
1.507499999999843
 21
0.5629999360529823
 31
0.0
  0
LINE
  5
62B
330
1F
100
AcDbEntity
  8
Part
100
AcDbLine
 10
0.4724999999997124
 20
0.5629999360529823
 30
0.0
 11
0.4400000000000049
 21
0.5629999360529823
 31
0.0
  0
LINE
  5
62C
330
1F
100
AcDbEntity
  8
Part
100
AcDbLine
 10
0.4400000000000049
 20
0.7839999360529824
 30
0.0
 11
0.4724999999997693
 21
0.7839999360529824
 31
0.0
  0
LINE
  5
62D
330
1F
100
AcDbEntity
  8
Part
100
AcDbLine
 10
0.472499999999819
 20
0.9609999360529819
 30
0.0
 11
0.4400000000000049
 21
0.9609999360529819
 31
0.0
  0
LINE
  5
62E
330
1F
100
AcDbEntity
  8
Part
100
AcDbLine
 10
0.4400000000000049
 20
1.181999936052985
 30
0.0
 11
0.4724999999998758
 21
1.181999936052985
 31
0.0
  0
ARC
  5
62F
330
1F
100
AcDbEntity
  8
Part
100
AcDbCircle
 10
1.500000000000071
 20
1.297499936053018
 30
0.0
 40
0.0199999999999669
100
AcDbArc
 50
0.0
 51
67.9756871629798
  0
LINE
  5
630
330
1F
100
AcDbEntity
  8
Part
100
AcDbLine
 10
1.520000000000038
 20
1.297499936052972
 30
0.0
 11
1.520000000000038
 21
1.257499936052973
 31
0.0
  0
ARC
  5
631
330
1F
100
AcDbEntity
  8
Part
100
AcDbCircle
 10
1.500000000000071
 20
1.257499936052926
 30
0.0
 40
0.0199999999999674
100
AcDbArc
 50
292.0243128369591
 51
0.0
  0
ARC
  5
632
330
1F
100
AcDbEntity
  8
Part
100
AcDbCircle
 10
0.5574522154126527
 20
0.3399999360530757
 30
0.0
 40
0.0199999999999694
100
AcDbArc
 50
202.0243128364167
 51
270.0000000001221
  0
ARC
  5
633
330
1F
100
AcDbEntity
  8
Part
100
AcDbCircle
 10
0.5974522154127371
 20
0.3399999360530828
 30
0.0
 40
0.0199999999999694
100
AcDbArc
 50
269.9999999998777
 51
337.9756871634969
  0
LINE
  5
634
330
1F
100
AcDbEntity
  8
Part
100
AcDbLine
 10
0.5974522154126945
 20
0.3199999360531152
 30
0.0
 11
0.5574522154126953
 21
0.3199999360531081
 31
0.0
  0
ARC
  5
635
330
1F
100
AcDbEntity
  8
Part
100
AcDbCircle
 10
1.382547784587274
 20
0.3399999360530685
 30
0.0
 40
0.0199999999999692
100
AcDbArc
 50
202.024312837061
 51
270.0000000001241
  0
ARC
  5
636
330
1F
100
AcDbEntity
  8
Part
100
AcDbCircle
 10
1.422547784587358
 20
0.3399999360530757
 30
0.0
 40
0.0199999999999696
100
AcDbArc
 50
269.9999999998797
 51
337.9756871628531
  0
LINE
  5
637
330
1F
100
AcDbEntity
  8
Part
100
AcDbLine
 10
1.422547784587315
 20
0.3199999360531081
 30
0.0
 11
1.382547784587316
 21
0.3199999360531009
 31
0.0
  0
ARC
  5
638
330
1F
100
AcDbEntity
  8
Part
100
AcDbCircle
 10
1.500000000000071
 20
0.4474999360529566
 30
0.0
 40
0.0199999999999677
100
AcDbArc
 50
292.0243128362657
 51
0.0
  0
ARC
  5
639
330
1F
100
AcDbEntity
  8
Part
100
AcDbCircle
 10
1.500000000000071
 20
0.4874999360530446
 30
0.0
 40
0.0199999999999675
100
AcDbArc
 50
0.0
 51
67.97568716367192
  0
LINE
  5
63A
330
1F
100
AcDbEntity
  8
Part
100
AcDbLine
 10
1.520000000000038
 20
0.4874999360530019
 30
0.0
 11
1.520000000000038
 21
0.4474999360530028
 31
0.0
  0
ARC
  5
63B
330
1F
100
AcDbEntity
  8
Part
100
AcDbCircle
 10
1.500000000000071
 20
0.8524999360529399
 30
0.0
 40
0.0199999999999672
100
AcDbArc
 50
292.0243128366087
 51
0.0
  0
ARC
  5
63C
330
1F
100
AcDbEntity
  8
Part
100
AcDbCircle
 10
1.500000000000071
 20
0.8924999360530314
 30
0.0
 40
0.0199999999999673
100
AcDbArc
 50
0.0
 51
67.97568716332651
  0
LINE
  5
63D
330
1F
100
AcDbEntity
  8
Part
100
AcDbLine
 10
1.520000000000038
 20
0.8924999360529852
 30
0.0
 11
1.520000000000038
 21
0.8524999360529861
 31
0.0
  0
ARC
  5
63E
330
1F
100
AcDbEntity
  8
Part
100
AcDbCircle
 10
0.479999999999933
 20
1.297499936052993
 30
0.0
 40
0.0199999999999682
100
AcDbArc
 50
112.0243128371357
 51
180.0
  0
ARC
  5
63F
330
1F
100
AcDbEntity
  8
Part
100
AcDbCircle
 10
0.479999999999933
 20
1.257499936052951
 30
0.0
 40
0.0199999999999675
100
AcDbArc
 50
180.0
 51
247.9756871628035
  0
LINE
  5
640
330
1F
100
AcDbEntity
  8
Part
100
AcDbLine
 10
0.4599999999999654
 20
1.257499936052973
 30
0.0
 11
0.4599999999999654
 21
1.297499936052972
 31
0.0
  0
ARC
  5
641
330
1F
100
AcDbEntity
  8
Part
100
AcDbCircle
 10
0.479999999999933
 20
0.4474999360529779
 30
0.0
 40
0.0199999999999676
100
AcDbArc
 50
180.0
 51
247.9756871621221
  0
LINE
  5
642
330
1F
100
AcDbEntity
  8
Part
100
AcDbLine
 10
0.4599999999999654
 20
0.4474999360530028
 30
0.0
 11
0.4599999999999654
 21
0.4874999360530019
 31
0.0
  0
ARC
  5
643
330
1F
100
AcDbEntity
  8
Part
100
AcDbCircle
 10
0.479999999999933
 20
0.4874999360530233
 30
0.0
 40
0.0199999999999676
100
AcDbArc
 50
112.0243128378131
 51
180.0
  0
ARC
  5
644
330
1F
100
AcDbEntity
  8
Part
100
AcDbCircle
 10
0.479999999999933
 20
0.8524999360529648
 30
0.0
 40
0.0199999999999677
100
AcDbArc
 50
180.0
 51
247.9756871624618
  0
LINE
  5
645
330
1F
100
AcDbEntity
  8
Part
100
AcDbLine
 10
0.4599999999999654
 20
0.8524999360529861
 30
0.0
 11
0.4599999999999654
 21
0.8924999360529852
 31
0.0
  0
ARC
  5
646
330
1F
100
AcDbEntity
  8
Part
100
AcDbCircle
 10
0.479999999999933
 20
0.8924999360530101
 30
0.0
 40
0.0199999999999677
100
AcDbArc
 50
112.0243128374714
 51
180.0
  0
ARC
  5
647
330
1F
100
AcDbEntity
  8
Part
100
AcDbCircle
 10
0.557452215412674
 20
1.404999936052895
 30
0.0
 40
0.0199999999999748
100
AcDbArc
 50
89.99999999993994
 51
157.9756871623017
  0
LINE
  5
648
330
1F
100
AcDbEntity
  8
Part
100
AcDbLine
 10
0.5574522154126953
 20
1.42499993605287
 30
0.0
 11
0.5974522154126945
 21
1.424999936052859
 31
0.0
  0
ARC
  5
649
330
1F
100
AcDbEntity
  8
Part
100
AcDbCircle
 10
0.5974522154127158
 20
1.404999936052892
 30
0.0
 40
0.0199999999999658
100
AcDbArc
 50
22.02431283765216
 51
90.00000000006208
  0
ARC
  5
64A
330
1F
100
AcDbEntity
  8
Part
100
AcDbCircle
 10
1.382547784587295
 20
1.404999936052895
 30
0.0
 40
0.0199999999999816
100
AcDbArc
 50
89.99999999993994
 51
157.97568716298
  0
LINE
  5
64B
330
1F
100
AcDbEntity
  8
Part
100
AcDbLine
 10
1.382547784587316
 20
1.424999936052877
 30
0.0
 11
1.422547784587315
 21
1.424999936052866
 31
0.0
  0
ARC
  5
64C
330
1F
100
AcDbEntity
  8
Part
100
AcDbCircle
 10
1.422547784587337
 20
1.404999936052895
 30
0.0
 40
0.0199999999999728
100
AcDbArc
 50
22.02431283697475
 51
90.00000000006004
  0
ARC
  5
64D
330
1F
100
AcDbEntity
  8
Part
100
AcDbCircle
 10
0.7149999999999679
 20
1.41249993605292
 30
0.0
 40
0.0124999999999999
100
AcDbArc
 50
0.0
 51
180.0
  0
ARC
  5
64E
330
1F
100
AcDbEntity
  8
Part
100
AcDbCircle
 10
0.6599999999999611
 20
1.41249993605292
 30
0.0
 40
0.0125
100
AcDbArc
 50
0.0
 51
180.0
  0
ARC
  5
64F
330
1F
100
AcDbEntity
  8
Part
100
AcDbCircle
 10
0.7699999999999747
 20
1.41249993605292
 30
0.0
 40
0.0125
100
AcDbArc
 50
0.0
 51
180.0
  0
ARC
  5
650
330
1F
100
AcDbEntity
  8
Part
100
AcDbCircle
 10
0.8249999999999815
 20
1.41249993605292
 30
0.0
 40
0.0124999999999999
100
AcDbArc
 50
0.0
 51
180.0
  0
ARC
  5
651
330
1F
100
AcDbEntity
  8
Part
100
AcDbCircle
 10
0.8799999999999883
 20
1.41249993605292
 30
0.0
 40
0.0125
100
AcDbArc
 50
0.0
 51
180.0
  0
ARC
  5
652
330
1F
100
AcDbEntity
  8
Part
100
AcDbCircle
 10
0.9349999999999951
 20
1.41249993605292
 30
0.0
 40
0.0125
100
AcDbArc
 50
0.0
 51
180.0
  0
ARC
  5
653
330
1F
100
AcDbEntity
  8
Part
100
AcDbCircle
 10
0.9900000000000019
 20
1.41249993605292
 30
0.0
 40
0.0124999999999999
100
AcDbArc
 50
0.0
 51
180.0
  0
ARC
  5
654
330
1F
100
AcDbEntity
  8
Part
100
AcDbCircle
 10
1.045000000000008
 20
1.41249993605292
 30
0.0
 40
0.0125
100
AcDbArc
 50
0.0
 51
180.0
  0
ARC
  5
655
330
1F
100
AcDbEntity
  8
Part
100
AcDbCircle
 10
1.100000000000015
 20
1.41249993605292
 30
0.0
 40
0.0124999999999999
100
AcDbArc
 50
0.0
 51
180.0
  0
ARC
  5
656
330
1F
100
AcDbEntity
  8
Part
100
AcDbCircle
 10
1.155000000000022
 20
1.41249993605292
 30
0.0
 40
0.0124999999999999
100
AcDbArc
 50
0.0
 51
180.0
  0
ARC
  5
657
330
1F
100
AcDbEntity
  8
Part
100
AcDbCircle
 10
1.210000000000029
 20
1.41249993605292
 30
0.0
 40
0.0125
100
AcDbArc
 50
0.0
 51
180.0
  0
ARC
  5
658
330
1F
100
AcDbEntity
  8
Part
100
AcDbCircle
 10
1.265000000000036
 20
1.41249993605292
 30
0.0
 40
0.0125000000000001
100
AcDbArc
 50
0.0
 51
180.0
  0
ARC
  5
659
330
1F
100
AcDbEntity
  8
Part
100
AcDbCircle
 10
1.320000000000042
 20
1.41249993605292
 30
0.0
 40
0.0125000000000001
100
AcDbArc
 50
0.0
 51
180.0
  0
ARC
  5
65A
330
1F
100
AcDbEntity
  8
Part
100
AcDbCircle
 10
0.4949999999999406
 20
1.41249993605292
 30
0.0
 40
0.0125
100
AcDbArc
 50
0.0
 51
180.0
  0
ARC
  5
65B
330
1F
100
AcDbEntity
  8
Part
100
AcDbCircle
 10
1.485000000000063
 20
1.41249993605292
 30
0.0
 40
0.0125000000000001
100
AcDbArc
 50
0.0
 51
180.0
  0
ARC
  5
65C
330
1F
100
AcDbEntity
  8
Part
100
AcDbCircle
 10
0.4949999999999406
 20
0.3674999360529618
 30
0.0
 40
0.0125
100
AcDbArc
 50
203.5781784764942
 51
306.869897644217
  0
ARC
  5
65D
330
1F
100
AcDbEntity
  8
Part
100
AcDbCircle
 10
1.485000000000063
 20
0.3674999360529618
 30
0.0
 40
0.0125
100
AcDbArc
 50
233.1301023525738
 51
336.4218215221861
  0
LINE
  5
65E
330
1F
100
AcDbEntity
  8
Part
100
AcDbLine
 10
0.4400000000000049
 20
0.9609999360529819
 30
0.0
 11
0.4400000000000049
 21
0.7839999360529824
 31
0.0
  0
LINE
  5
65F
330
1F
100
AcDbEntity
  8
Part
100
AcDbLine
 10
0.4400000000000049
 20
0.5629999360529823
 30
0.0
 11
0.4400000000000049
 21
0.2999999360529841
 31
0.0
  0
LINE
  5
660
330
1F
100
AcDbEntity
  8
Part
100
AcDbLine
 10
0.4400000000000049
 20
0.2999999360529841
 30
0.0
 11
1.539999999999999
 21
0.2999999360529841
 31
0.0
  0
LINE
  5
661
330
1F
100
AcDbEntity
  8
Part
100
AcDbLine
 10
1.539999999999999
 20
0.2999999360529841
 30
0.0
 11
1.539999999999999
 21
0.5629999360529823
 31
0.0
  0
LINE
  5
662
330
1F
100
AcDbEntity
  8
Part
100
AcDbLine
 10
1.539999999999999
 20
0.7839999360529824
 30
0.0
 11
1.539999999999999
 21
0.9609999360529819
 31
0.0
  0
LINE
  5
663
330
1F
100
AcDbEntity
  8
Part
100
AcDbLine
 10
1.539999999999999
 20
1.181999936052985
 30
0.0
 11
1.539999999999999
 21
1.44499993605298
 31
0.0
  0
LINE
  5
664
330
1F
100
AcDbEntity
  8
Part
100
AcDbLine
 10
1.539999999999999
 20
1.44499993605298
 30
0.0
 11
0.4400000000000049
 21
1.44499993605298
 31
0.0
  0
LINE
  5
665
330
1F
100
AcDbEntity
  8
Part
100
AcDbLine
 10
0.4400000000000049
 20
1.44499993605298
 30
0.0
 11
0.4400000000000049
 21
1.181999936052985
 31
0.0
  0
LINE
  5
666
330
1F
100
AcDbEntity
  8
Part
100
AcDbLine
 10
0.4400000000000049
 20
0.9609999360529819
 30
0.0
 11
0.4400000000000049
 21
1.035999936052984
 31
0.0
  0
LINE
  5
667
330
1F
100
AcDbEntity
  8
Part
100
AcDbLine
 10
0.4400000000000049
 20
1.106999936052986
 30
0.0
 11
0.4400000000000049
 21
1.181999936052985
 31
0.0
  0
LINE
  5
668
330
1F
100
AcDbEntity
  8
Part
100
AcDbLine
 10
1.539999999999999
 20
0.7839999360529824
 30
0.0
 11
1.539999999999999
 21
0.7089999360529795
 31
0.0
  0
LINE
  5
669
330
1F
100
AcDbEntity
  8
Part
100
AcDbLine
 10
1.539999999999999
 20
0.6379999360529816
 30
0.0
 11
1.539999999999999
 21
0.5629999360529823
 31
0.0
  0
LINE
  5
66A
330
1F
100
AcDbEntity
  8
Part
100
AcDbLine
 10
1.539999999999999
 20
1.181999936052985
 30
0.0
 11
1.539999999999999
 21
1.106999936052986
 31
0.0
  0
LINE
  5
66B
330
1F
100
AcDbEntity
  8
Part
100
AcDbLine
 10
1.539999999999999
 20
1.035999936052984
 30
0.0
 11
1.539999999999999
 21
0.9609999360529819
 31
0.0
  0
LINE
  5
66C
330
1F
100
AcDbEntity
  8
Part
100
AcDbLine
 10
0.4400000000000049
 20
0.5629999360529823
 30
0.0
 11
0.4400000000000049
 21
0.6379999360529816
 31
0.0
  0
LINE
  5
66D
330
1F
100
AcDbEntity
  8
Part
100
AcDbLine
 10
0.4400000000000049
 20
0.7089999360529795
 30
0.0
 11
0.4400000000000049
 21
0.7839999360529824
 31
0.0
  0
LINE
  5
66E
330
1F
100
AcDbEntity
  8
Part
100
AcDbLine
 10
0.4724999999999327
 20
1.382493334335318
 30
0.0
 11
0.4724999999999327
 21
1.382499936053115
 31
0.0
  0
LINE
  5
66F
330
1F
100
AcDbEntity
  8
Part
100
AcDbLine
 10
0.4724999999996556
 20
0.3624999360533074
 30
0.0
 11
0.4724999999996556
 21
0.3625065377711039
 31
0.0
  0
LINE
  5
670
330
1F
100
AcDbEntity
  8
Part
100
AcDbLine
 10
0.4724999999996556
 20
0.3624999360533074
 30
0.0
 11
0.5024999999996567
 21
0.3624999360533003
 31
0.0
  0
LINE
  5
671
330
1F
100
AcDbEntity
  8
Part
100
AcDbLine
 10
0.5024999999999338
 20
1.382499936053108
 30
0.0
 11
0.4724999999999327
 21
1.382499936053115
 31
0.0
  0
LINE
  5
672
330
1F
100
AcDbEntity
  8
Part
100
AcDbLine
 10
1.477499999999778
 20
0.3324999360530469
 30
0.0
 11
1.477499999999785
 21
0.3624999360530445
 31
0.0
  0
LINE
  5
673
330
1F
100
AcDbEntity
  8
Part
100
AcDbLine
 10
0.5024999999996567
 20
0.3624999360533003
 30
0.0
 11
0.5024999999996496
 21
0.3324999360532992
 31
0.0
  0
LINE
  5
674
330
1F
100
AcDbEntity
  8
Part
100
AcDbLine
 10
1.477499999999785
 20
0.347499936053044
 30
0.0
 11
1.507893398281986
 21
0.3474999360530369
 31
0.0
  0
LINE
  5
675
330
1F
100
AcDbEntity
  8
Part
100
AcDbLine
 10
0.5024999999996567
 20
0.3474999360532998
 30
0.0
 11
0.4721066017174494
 21
0.3474999360533069
 31
0.0
  0
LINE
  5
676
330
1F
100
AcDbEntity
  8
Part
100
AcDbLine
 10
0.4721066017174494
 20
0.3474999360533069
 30
0.0
 11
0.4721066017174423
 21
0.3324999360533063
 31
0.0
  0
LINE
  5
677
330
1F
100
AcDbEntity
  8
Part
100
AcDbLine
 10
0.4721066017174423
 20
0.3324999360533063
 30
0.0
 11
0.5024999999996496
 21
0.3324999360532992
 31
0.0
  0
LINE
  5
678
330
1F
100
AcDbEntity
  8
Part
100
AcDbLine
 10
1.477499999999778
 20
0.3324999360530469
 30
0.0
 11
1.507893398281979
 21
0.3324999360530363
 31
0.0
  0
LINE
  5
679
330
1F
100
AcDbEntity
  8
Part
100
AcDbLine
 10
1.507893398281986
 20
0.3474999360530369
 30
0.0
 11
1.507893398281979
 21
0.3324999360530363
 31
0.0
  0
LINE
  5
67A
330
1F
100
AcDbEntity
  8
Part
100
AcDbLine
 10
1.507499999999787
 20
0.3625065377708374
 30
0.0
 11
1.507499999999787
 21
0.3624999360530374
 31
0.0
  0
LINE
  5
67B
330
1F
100
AcDbEntity
  8
Part
100
AcDbLine
 10
1.507500000000071
 20
1.382499936052845
 30
0.0
 11
1.507500000000071
 21
1.382493334335045
 31
0.0
  0
LINE
  5
67C
330
1F
100
AcDbEntity
  8
Part
100
AcDbLine
 10
1.507500000000071
 20
1.382499936052845
 30
0.0
 11
1.47750000000007
 21
1.382499936052852
 31
0.0
  0
LINE
  5
67D
330
1F
100
AcDbEntity
  8
Part
100
AcDbLine
 10
1.477499999999785
 20
0.3624999360530445
 30
0.0
 11
1.507499999999787
 21
0.3624999360530374
 31
0.0
  0
LINE
  5
67E
330
1F
100
AcDbEntity
  8
Part
100
AcDbLine
 10
0.5024999999999409
 20
1.412499936053109
 30
0.0
 11
0.5024999999999338
 21
1.382499936053108
 31
0.0
  0
LINE
  5
67F
330
1F
100
AcDbEntity
  8
Part
100
AcDbLine
 10
1.47750000000007
 20
1.382499936052852
 30
0.0
 11
1.477500000000077
 21
1.412499936052853
 31
0.0
  0
LINE
  5
680
330
1F
100
AcDbEntity
  8
Part
100
AcDbLine
 10
0.5024999999999409
 20
1.397499936053108
 30
0.0
 11
0.4721066017177336
 21
1.397499936053115
 31
0.0
  0
LINE
  5
681
330
1F
100
AcDbEntity
  8
Part
100
AcDbLine
 10
1.477500000000077
 20
1.397499936052852
 30
0.0
 11
1.507893398282277
 21
1.397499936052842
 31
0.0
  0
LINE
  5
682
330
1F
100
AcDbEntity
  8
Part
100
AcDbLine
 10
1.507893398282277
 20
1.397499936052842
 30
0.0
 11
1.507893398282277
 21
1.412499936052842
 31
0.0
  0
LINE
  5
683
330
1F
100
AcDbEntity
  8
Part
100
AcDbLine
 10
1.507893398282277
 20
1.412499936052842
 30
0.0
 11
1.477500000000077
 21
1.412499936052853
 31
0.0
  0
LINE
  5
684
330
1F
100
AcDbEntity
  8
Part
100
AcDbLine
 10
0.5024999999999409
 20
1.412499936053109
 30
0.0
 11
0.4721066017177407
 21
1.412499936053116
 31
0.0
  0
LINE
  5
685
330
1F
100
AcDbEntity
  8
Part
100
AcDbLine
 10
0.4721066017177336
 20
1.397499936053115
 30
0.0
 11
0.4721066017177407
 21
1.412499936053116
 31
0.0
  0
LINE
  5
686
330
1F
100
AcDbEntity
  8
Part
100
AcDbLine
 10
0.4724999999996556
 20
0.3625065377711039
 30
0.0
 11
0.4724999999999327
 21
1.382493334335318
 31
0.0
  0
LINE
  5
687
330
1F
100
AcDbEntity
  8
Part
100
AcDbLine
 10
1.477499999999778
 20
0.3324999360530469
 30
0.0
 11
0.5024999999996496
 21
0.3324999360532992
 31
0.0
  0
LINE
  5
688
330
1F
100
AcDbEntity
  8
Part
100
AcDbLine
 10
1.507500000000071
 20
1.382493334335045
 30
0.0
 11
1.507499999999787
 21
0.3625065377708339
 31
0.0
  0
LINE
  5
689
330
1F
100
AcDbEntity
  8
Part
100
AcDbLine
 10
0.5024999999999409
 20
1.412499936053109
 30
0.0
 11
1.477500000000077
 21
1.412499936052853
 31
0.0
  0
TEXT
  5
68A
330
1F
100
AcDbEntity
  8
Part
100
AcDbText
 10
0.5120891641148911
 20
1.078771976746577
 30
0.0
 40
0.084375
  1
J1
  7
ARIAL
 72
     1
 11
0.5743344318502253
 21
1.120959476746577
 31
0.0
100
AcDbText
 73
     2
  0
TEXT
  5
68B
330
1F
100
AcDbEntity
  8
Part
100
AcDbText
 10
1.298396427055103
 20
1.043150440262267
 30
0.0
 40
0.084375
  1
J2
  7
ARIAL
 72
     1
 11
1.360641694790437
 21
1.085337940262267
 31
0.0
100
AcDbText
 73
     2
  0
TEXT
  5
68C
330
1F
100
AcDbEntity
  8
Part
100
AcDbText
 10
0.5105297137362764
 20
0.5643478484606569
 30
0.0
 40
0.084375
  1
J3
  7
ARIAL
 72
     1
 11
0.5727749814716106
 21
0.6065353484606569
 31
0.0
100
AcDbText
 73
     2
  0
MTEXT
  5
68D
330
1F
100
AcDbEntity
  8
Part
100
AcDbMText
 10
0.9610738318274769
 20
0.9005326146790437
 30
0.0
 40
0.081
 41
1.00497851006242
 71
     5
 72
     5
  1
{\fArial|b1|i1|c0|p34;Innovative\PIPP-8071\P2 - 100 MHZ}
  7
ARIAL
 73
     1
 44
1.0
1001
ACAD
1000
MTEXTBEGIN
1070
    73
1070
     1
1070
    44
1040
1.0
1070
    74
1070
     0
1000
MTEXTEND
1000
ACAD_MTEXT_DEFINED_HEIGHT_BEGIN
1070
    46
1040
0.2424239427012438
1000
ACAD_MTEXT_DEFINED_HEIGHT_END
  0
TEXT
  5
68E
330
1F
100
AcDbEntity
  8
Part
100
AcDbText
 10
1.304634206759076
 20
0.6004339075477148
 30
0.0
 40
0.084375
  1
J4
  7
ARIAL
 72
     1
 11
1.36687947449441
 21
0.6426214075477148
 31
0.0
100
AcDbText
 73
     2
  0
LWPOLYLINE
  5
68F
330
1F
100
AcDbEntity
  8
Part
100
AcDbPolyline
 90
        2
 70
     1
 43
0.025
 10
0.5599999999999952
 20
1.312499936052908
 42
1.0
 10
0.5850000000000009
 20
1.312499936052908
 42
1.0
  0
CIRCLE
  5
690
330
1F
100
AcDbEntity
  8
PCB_OUTLINE
100
AcDbCircle
 10
0.9900388269616051
 20
0.0569998946340462
 30
0.0
 40
0.015
  0
CIRCLE
  5
691
330
1F
100
AcDbEntity
  8
PCB_OUTLINE
100
AcDbCircle
 10
1.150038826961605
 20
0.0569998946340462
 30
0.0
 40
0.015
  0
CIRCLE
  5
692
330
1F
100
AcDbEntity
  8
PCB_OUTLINE
100
AcDbCircle
 10
1.230038826961603
 20
0.0569998946340462
 30
0.0
 40
0.015
  0
CIRCLE
  5
693
330
1F
100
AcDbEntity
  8
PCB_OUTLINE
100
AcDbCircle
 10
1.310038826961605
 20
0.0569998946340462
 30
0.0
 40
0.015
  0
CIRCLE
  5
694
330
1F
100
AcDbEntity
  8
PCB_OUTLINE
100
AcDbCircle
 10
1.070038826961603
 20
0.0569998946340462
 30
0.0
 40
0.015
  0
CIRCLE
  5
695
330
1F
100
AcDbEntity
  8
PCB_OUTLINE
100
AcDbCircle
 10
1.390038826961603
 20
0.0569998946340462
 30
0.0
 40
0.015
  0
MTEXT
  5
696
330
1F
100
AcDbEntity
  8
Text
100
AcDbMText
 10
0.990000044392179
 20
-0.2536425780024381
 30
0.0
 40
0.1
 41
2.0564
 71
     2
 72
     5
  1
Er=3.55, 2oz. Cu, Both Sides\P(.032" THK.)
  7
ARIAL
 73
     1
 44
1.0
1001
ACAD
1000
MTEXTBEGIN
1070
    73
1070
     1
1070
    44
1040
1.0
1070
    74
1070
     0
1000
MTEXTEND
  0
ENDSEC
  0
SECTION
  2
OBJECTS
  0
DICTIONARY
  5
C
330
0
100
AcDbDictionary
281
     1
  3
ACAD_CIP_PREVIOUS_PRODUCT_INFO
350
1A5
  3
ACAD_COLOR
350
73
  3
ACAD_DETAILVIEWSTYLE
350
1AB
  3
ACAD_GROUP
350
D
  3
ACAD_LAYOUT
350
1A
  3
ACAD_MATERIAL
350
72
  3
ACAD_MLEADERSTYLE
350
D7
  3
ACAD_MLINESTYLE
350
17
  3
ACAD_PLOTSETTINGS
350
19
  3
ACAD_PLOTSTYLENAME
350
E
  3
ACAD_SCALELIST
350
B6
  3
ACAD_SECTIONVIEWSTYLE
350
1A8
  3
ACAD_TABLESTYLE
350
86
  3
ACAD_VISUALSTYLE
350
99
  3
ACDB_RECOMPOSE_DATA
350
69D
  3
AcDbVariableDictionary
350
66
  3
AcDsDecomposeData
350
6A4
  3
DWGPROPS
350
69E
  0
DICTIONARY
  5
18E
330
2
100
AcDbDictionary
280
     1
281
     1
  3
ACAD_LAYERSTATES
360
18F
  0
DICTIONARY
  5
E6
330
10
100
AcDbDictionary
280
     1
281
     1
  0
DICTIONARY
  5
1C0
330
1BF
100
AcDbDictionary
280
     1
281
     1
  0
DICTIONARY
  5
1C2
330
1C1
100
AcDbDictionary
280
     1
281
     1
  0
DICTIONARY
  5
1C4
330
1C3
100
AcDbDictionary
280
     1
281
     1
  0
DICTIONARY
  5
1C6
330
1C5
100
AcDbDictionary
280
     1
281
     1
  0
DICTIONARY
  5
15D
330
1F
100
AcDbDictionary
280
     1
281
     1
  0
XRECORD
  5
1A5
102
{ACAD_REACTORS
330
C
102
}
330
C
100
AcDbXrecord
280
     1
300
AMECH_PP
300
2013
300
PDSP_F_S
  0
DICTIONARY
  5
73
102
{ACAD_REACTORS
330
C
102
}
330
C
100
AcDbDictionary
281
     1
  0
DICTIONARY
  5
1AB
102
{ACAD_REACTORS
330
C
102
}
330
C
100
AcDbDictionary
281
     1
  3
Imperial24
350
1AC
  0
DICTIONARY
  5
D
102
{ACAD_REACTORS
330
C
102
}
330
C
100
AcDbDictionary
281
     1
  0
DICTIONARY
  5
1A
102
{ACAD_REACTORS
330
C
102
}
330
C
100
AcDbDictionary
281
     1
  3
Layout1
350
59
  3
Layout2
350
5E
  3
Model
350
22
  0
DICTIONARY
  5
72
102
{ACAD_REACTORS
330
C
102
}
330
C
100
AcDbDictionary
281
     1
  3
ByBlock
350
97
  3
ByLayer
350
96
  3
Global
350
98
  0
DICTIONARY
  5
D7
102
{ACAD_REACTORS
330
C
102
}
330
C
100
AcDbDictionary
281
     1
  3
Standard
350
D8
  0
DICTIONARY
  5
17
102
{ACAD_REACTORS
330
C
102
}
330
C
100
AcDbDictionary
281
     1
  3
Standard
350
18
  0
DICTIONARY
  5
19
102
{ACAD_REACTORS
330
C
102
}
330
C
100
AcDbDictionary
281
     1
  0
ACDBDICTIONARYWDFLT
  5
E
102
{ACAD_REACTORS
330
C
102
}
330
C
100
AcDbDictionary
281
     1
  3
Normal
350
F
100
AcDbDictionaryWithDefault
340
F
  0
DICTIONARY
  5
B6
102
{ACAD_REACTORS
330
C
102
}
330
C
100
AcDbDictionary
281
     1
  3
A0
350
B7
  3
A1
350
124
  3
A2
350
125
  3
A3
350
126
  3
A4
350
127
  3
A5
350
128
  3
A6
350
129
  3
A7
350
12A
  3
A8
350
12B
  3
A9
350
12C
  3
B0
350
12D
  3
B1
350
12E
  3
B2
350
12F
  3
B3
350
130
  3
B4
350
131
  3
B5
350
132
  3
B6
350
133
  3
B7
350
134
  3
B8
350
135
  3
B9
350
136
  3
C0
350
137
  3
C1
350
138
  3
C2
350
139
  3
C3
350
13A
  3
C4
350
13B
  3
C5
350
13C
  3
C6
350
13D
  3
C7
350
13E
  3
C8
350
13F
  3
C9
350
140
  3
D0
350
141
  3
D1
350
142
  3
D2
350
143
  0
DICTIONARY
  5
1A8
102
{ACAD_REACTORS
330
C
102
}
330
C
100
AcDbDictionary
281
     1
  3
Imperial24
350
1AA
  0
DICTIONARY
  5
86
102
{ACAD_REACTORS
330
C
102
}
330
C
100
AcDbDictionary
281
     1
  3
Standard
350
87
  0
DICTIONARY
  5
99
102
{ACAD_REACTORS
330
C
102
}
330
C
100
AcDbDictionary
281
     1
  3
2dWireframe
350
9F
  3
Basic
350
9E
  3
Brighten
350
A5
  3
ColorChange
350
A9
  3
Conceptual
350
A2
  3
Dim
350
A4
  3
EdgeColorOff
350
175
  3
Facepattern
350
A8
  3
Flat
350
9A
  3
FlatWithEdges
350
9B
  3
Gouraud
350
9C
  3
GouraudWithEdges
350
9D
  3
Hidden
350
A1
  3
JitterOff
350
173
  3
Linepattern
350
A7
  3
OverhangOff
350
174
  3
Realistic
350
A3
  3
Shaded
350
182
  3
Shaded with edges
350
181
  3
Shades of Gray
350
17E
  3
Sketchy
350
17F
  3
Thicken
350
A6
  3
Wireframe
350
A0
  3
X-Ray
350
180
  0
XRECORD
  5
69D
102
{ACAD_REACTORS
330
C
102
}
330
C
100
AcDbXrecord
280
     1
 90
        1
330
87
  0
DICTIONARY
  5
66
102
{ACAD_REACTORS
330
C
102
}
330
C
100
AcDbDictionary
281
     1
  3
CANNOSCALE
350
F0
  3
CMLEADERSTYLE
350
EF
  3
CTABLESTYLE
350
89
  3
CVIEWDETAILSTYLE
350
1B7
  3
CVIEWSECTIONSTYLE
350
1B8
  3
DIMASSOC
350
67
  3
HIDETEXT
350
6B
  3
INDEXCTL
350
69A
  3
LAYEREVAL
350
14D
  3
LAYERNOTIFY
350
14E
  3
LIGHTINGUNITS
350
698
  3
MSLTSCALE
350
697
  3
SORTENTS
350
699
  3
XCLIPFRAME
350
69B
  0
DICTIONARY
  5
6A4
102
{ACAD_REACTORS
330
C
102
}
330
C
100
AcDbDictionary
281
     1
  3
AcDsRecords
350
6A6
  3
AcDsSchemas
350
6A5
1001
ACAD
1070
     2
  0
XRECORD
  5
69E
102
{ACAD_REACTORS
330
C
102
}
330
C
100
AcDbXrecord
280
     1
  1
DWGPROPS COOKIE
  2

  3

  4

  6

  7

  8
dguiffre
  9

300
=
301
=
302
=
303
=
304
=
305
=
306
=
307
=
308
=
309
=
 40
0.0003690625
 41
2456814.37175838
 42
2456814.372126725
  1

 90
        0
  0
DICTIONARY
  5
18F
102
{ACAD_REACTORS
330
18E
102
}
330
18E
100
AcDbDictionary
281
     1
  0
ACDBDETAILVIEWSTYLE
  5
1AC
102
{ACAD_REACTORS
330
1AB
102
}
330
1AB
100
AcDbModelDocViewStyle
 70
     0
  3
Imperial24
290
     0
100
AcDbDetailViewStyle
 70
     0
 71
     0
 90
        3
 71
     1
340
11
 40
0.24
340
0
 40
0.24
300

 40
0.36
280
     3
 71
     2
340
16
 90
       25
 71
     3
340
11
 40
0.24
 90
        1
 40
0.75
 90
        1
300
%<\AcVar ViewType \f "%tc1">% %<\AcVar ViewDetailId>%\PSCALE %<\AcVar ViewScale \f "%sn">%
 71
     4
340
16
 90
       25
340
16
 90
       25
280
     0
  0
LAYOUT
  5
59
102
{ACAD_XDICTIONARY
360
6A8
102
}
102
{ACAD_REACTORS
330
1A
102
}
330
1A
100
AcDbPlotSettings
  1

  2
None
  4

  6

 40
0.0
 41
0.0
 42
0.0
 43
0.0
 44
0.0
 45
0.0
 46
0.0
 47
0.0
 48
0.0
 49
0.0
140
0.0
141
0.0
142
1.0
143
1.0
 70
   688
 72
     0
 73
     0
 74
     5
  7

 75
    16
147
1.0
148
0.0
149
0.0
100
AcDbLayout
  1
Layout1
 70
     1
 71
     1
 10
0.0
 20
0.0
 11
12.0
 21
9.0
 12
0.0
 22
0.0
 32
0.0
 14
0.0
 24
0.0
 34
0.0
 15
0.0
 25
0.0
 35
0.0
146
0.0
 13
0.0
 23
0.0
 33
0.0
 16
1.0
 26
0.0
 36
0.0
 17
0.0
 27
1.0
 37
0.0
 76
     0
330
58
  0
LAYOUT
  5
5E
102
{ACAD_XDICTIONARY
360
6AA
102
}
102
{ACAD_REACTORS
330
1A
102
}
330
1A
100
AcDbPlotSettings
  1

  2
None
  4

  6

 40
0.0
 41
0.0
 42
0.0
 43
0.0
 44
0.0
 45
0.0
 46
0.0
 47
0.0
 48
0.0
 49
0.0
140
0.0
141
0.0
142
1.0
143
1.0
 70
   688
 72
     0
 73
     0
 74
     5
  7

 75
    16
147
1.0
148
0.0
149
0.0
100
AcDbLayout
  1
Layout2
 70
     1
 71
     2
 10
0.0
 20
0.0
 11
12.0
 21
9.0
 12
0.0
 22
0.0
 32
0.0
 14
0.0
 24
0.0
 34
0.0
 15
0.0
 25
0.0
 35
0.0
146
0.0
 13
0.0
 23
0.0
 33
0.0
 16
1.0
 26
0.0
 36
0.0
 17
0.0
 27
1.0
 37
0.0
 76
     0
330
5D
  0
LAYOUT
  5
22
102
{ACAD_XDICTIONARY
360
194
102
}
102
{ACAD_REACTORS
330
1A
102
}
330
1A
100
AcDbPlotSettings
  1

  2
none_device
  4
ANSI_A_(8.50_x_11.00_Inches)
  6

 40
6.349999904632568
 41
19.04999923706055
 42
6.350006103515625
 43
19.04998779296875
 44
215.8999938964844
 45
279.3999938964844
 46
0.0
 47
0.0
 48
0.0
 49
0.0
140
0.0
141
0.0
142
1.0
143
2.584895464708373
 70
 11952
 72
     0
 73
     1
 74
     0
  7

 75
     0
147
0.3868628397755418
148
0.0
149
0.0
100
AcDbLayout
  1
Model
 70
     1
 71
     0
 10
0.0
 20
0.0
 11
12.0
 21
9.0
 12
0.0
 22
0.0
 32
0.0
 14
0.0
 24
0.0
 34
0.0
 15
0.0
 25
0.0
 35
0.0
146
0.0
 13
0.0
 23
0.0
 33
0.0
 16
1.0
 26
0.0
 36
0.0
 17
0.0
 27
1.0
 37
0.0
 76
     0
330
1F
331
94
  0
MATERIAL
  5
97
102
{ACAD_XDICTIONARY
360
188
102
}
102
{ACAD_REACTORS
330
72
102
}
330
72
100
AcDbMaterial
  1
ByBlock
  0
MATERIAL
  5
96
102
{ACAD_XDICTIONARY
360
186
102
}
102
{ACAD_REACTORS
330
72
102
}
330
72
100
AcDbMaterial
  1
ByLayer
  0
MATERIAL
  5
98
102
{ACAD_XDICTIONARY
360
110
102
}
102
{ACAD_REACTORS
330
72
102
}
330
72
100
AcDbMaterial
  1
Global
 43
0.0208000000566244
 43
0.0
 43
0.0
 43
0.0
 43
0.0
 43
0.0208000000566244
 43
0.0
 43
0.0
 43
0.0
 43
0.0
 43
1.0
 43
0.0
 43
0.0
 43
0.0
 43
0.0
 43
1.0
 49
0.0208000000566244
 49
0.0
 49
0.0
 49
0.0
 49
0.0
 49
0.0208000000566244
 49
0.0
 49
0.0
 49
0.0
 49
0.0
 49
1.0
 49
0.0
 49
0.0
 49
0.0
 49
0.0
 49
1.0
142
0.0208000000566244
142
0.0
142
0.0
142
0.0
142
0.0
142
0.0208000000566244
142
0.0
142
0.0
142
0.0
142
0.0
142
1.0
142
0.0
142
0.0
142
0.0
142
0.0
142
1.0
144
0.0208000000566244
144
0.0
144
0.0
144
0.0
144
0.0
144
0.0208000000566244
144
0.0
144
0.0
144
0.0
144
0.0
144
1.0
144
0.0
144
0.0
144
0.0
144
0.0
144
1.0
1001
ACAD
1070
    -1
1070
     3
1070
     0
1000

1071
        0
1070
     0
  0
MLEADERSTYLE
  5
D8
102
{ACAD_REACTORS
330
D7
102
}
330
D7
100
AcDbMLeaderStyle
170
     2
171
     1
172
     0
 90
        2
 40
0.0
 41
0.0
173
     1
 91
-1056964608
340
14
 92
       -2
290
     1
 42
0.09
291
     1
 43
0.36
  3
Standard
 44
0.18
300

342
11
174
     1
178
     1
175
     1
176
     0
 93
-1056964608
 45
0.18
292
     0
297
     0
 46
0.18
 94
-1056964608
 47
1.0
 49
1.0
140
1.0
293
     1
141
0.0
294
     1
177
     0
142
1.0
295
     0
296
     0
143
0.125
1001
ACAD_MLEADERVER
1070
     2
  0
MLINESTYLE
  5
18
102
{ACAD_REACTORS
330
17
102
}
330
17
100
AcDbMlineStyle
  2
STANDARD
 70
     0
  3

 62
   256
 51
90.0
 52
90.0
 71
     2
 49
0.5
 62
   256
  6
BYLAYER
 49
-0.5
 62
   256
  6
BYLAYER
  0
ACDBPLACEHOLDER
  5
F
102
{ACAD_REACTORS
330
E
102
}
330
E
  0
SCALE
  5
B7
102
{ACAD_REACTORS
330
B6
102
}
330
B6
100
AcDbScale
 70
     0
300
1:1
140
1.0
141
1.0
290
     1
  0
SCALE
  5
124
102
{ACAD_REACTORS
330
B6
102
}
330
B6
100
AcDbScale
 70
     0
300
1:2
140
1.0
141
2.0
290
     0
  0
SCALE
  5
125
102
{ACAD_REACTORS
330
B6
102
}
330
B6
100
AcDbScale
 70
     0
300
1:4
140
1.0
141
4.0
290
     0
  0
SCALE
  5
126
102
{ACAD_REACTORS
330
B6
102
}
330
B6
100
AcDbScale
 70
     0
300
1:5
140
1.0
141
5.0
290
     0
  0
SCALE
  5
127
102
{ACAD_REACTORS
330
B6
102
}
330
B6
100
AcDbScale
 70
     0
300
1:8
140
1.0
141
8.0
290
     0
  0
SCALE
  5
128
102
{ACAD_REACTORS
330
B6
102
}
330
B6
100
AcDbScale
 70
     0
300
1:10
140
1.0
141
10.0
290
     0
  0
SCALE
  5
129
102
{ACAD_REACTORS
330
B6
102
}
330
B6
100
AcDbScale
 70
     0
300
1:16
140
1.0
141
16.0
290
     0
  0
SCALE
  5
12A
102
{ACAD_REACTORS
330
B6
102
}
330
B6
100
AcDbScale
 70
     0
300
1:20
140
1.0
141
20.0
290
     0
  0
SCALE
  5
12B
102
{ACAD_REACTORS
330
B6
102
}
330
B6
100
AcDbScale
 70
     0
300
1:30
140
1.0
141
30.0
290
     0
  0
SCALE
  5
12C
102
{ACAD_REACTORS
330
B6
102
}
330
B6
100
AcDbScale
 70
     0
300
1:40
140
1.0
141
40.0
290
     0
  0
SCALE
  5
12D
102
{ACAD_REACTORS
330
B6
102
}
330
B6
100
AcDbScale
 70
     0
300
1:50
140
1.0
141
50.0
290
     0
  0
SCALE
  5
12E
102
{ACAD_REACTORS
330
B6
102
}
330
B6
100
AcDbScale
 70
     0
300
1:100
140
1.0
141
100.0
290
     0
  0
SCALE
  5
12F
102
{ACAD_REACTORS
330
B6
102
}
330
B6
100
AcDbScale
 70
     0
300
2:1
140
2.0
141
1.0
290
     0
  0
SCALE
  5
130
102
{ACAD_REACTORS
330
B6
102
}
330
B6
100
AcDbScale
 70
     0
300
4:1
140
4.0
141
1.0
290
     0
  0
SCALE
  5
131
102
{ACAD_REACTORS
330
B6
102
}
330
B6
100
AcDbScale
 70
     0
300
8:1
140
8.0
141
1.0
290
     0
  0
SCALE
  5
132
102
{ACAD_REACTORS
330
B6
102
}
330
B6
100
AcDbScale
 70
     0
300
10:1
140
10.0
141
1.0
290
     0
  0
SCALE
  5
133
102
{ACAD_REACTORS
330
B6
102
}
330
B6
100
AcDbScale
 70
     0
300
100:1
140
100.0
141
1.0
290
     0
  0
SCALE
  5
134
102
{ACAD_REACTORS
330
B6
102
}
330
B6
100
AcDbScale
 70
     0
300
1/128" = 1'-0"
140
0.0078125
141
12.0
290
     0
  0
SCALE
  5
135
102
{ACAD_REACTORS
330
B6
102
}
330
B6
100
AcDbScale
 70
     0
300
1/64" = 1'-0"
140
0.015625
141
12.0
290
     0
  0
SCALE
  5
136
102
{ACAD_REACTORS
330
B6
102
}
330
B6
100
AcDbScale
 70
     0
300
1/32" = 1'-0"
140
0.03125
141
12.0
290
     0
  0
SCALE
  5
137
102
{ACAD_REACTORS
330
B6
102
}
330
B6
100
AcDbScale
 70
     0
300
1/16" = 1'-0"
140
0.0625
141
12.0
290
     0
  0
SCALE
  5
138
102
{ACAD_REACTORS
330
B6
102
}
330
B6
100
AcDbScale
 70
     0
300
3/32" = 1'-0"
140
0.09375
141
12.0
290
     0
  0
SCALE
  5
139
102
{ACAD_REACTORS
330
B6
102
}
330
B6
100
AcDbScale
 70
     0
300
1/8" = 1'-0"
140
0.125
141
12.0
290
     0
  0
SCALE
  5
13A
102
{ACAD_REACTORS
330
B6
102
}
330
B6
100
AcDbScale
 70
     0
300
3/16" = 1'-0"
140
0.1875
141
12.0
290
     0
  0
SCALE
  5
13B
102
{ACAD_REACTORS
330
B6
102
}
330
B6
100
AcDbScale
 70
     0
300
1/4" = 1'-0"
140
0.25
141
12.0
290
     0
  0
SCALE
  5
13C
102
{ACAD_REACTORS
330
B6
102
}
330
B6
100
AcDbScale
 70
     0
300
3/8" = 1'-0"
140
0.375
141
12.0
290
     0
  0
SCALE
  5
13D
102
{ACAD_REACTORS
330
B6
102
}
330
B6
100
AcDbScale
 70
     0
300
1/2" = 1'-0"
140
0.5
141
12.0
290
     0
  0
SCALE
  5
13E
102
{ACAD_REACTORS
330
B6
102
}
330
B6
100
AcDbScale
 70
     0
300
3/4" = 1'-0"
140
0.75
141
12.0
290
     0
  0
SCALE
  5
13F
102
{ACAD_REACTORS
330
B6
102
}
330
B6
100
AcDbScale
 70
     0
300
1" = 1'-0"
140
1.0
141
12.0
290
     0
  0
SCALE
  5
140
102
{ACAD_REACTORS
330
B6
102
}
330
B6
100
AcDbScale
 70
     0
300
1-1/2" = 1'-0"
140
1.5
141
12.0
290
     0
  0
SCALE
  5
141
102
{ACAD_REACTORS
330
B6
102
}
330
B6
100
AcDbScale
 70
     0
300
3" = 1'-0"
140
3.0
141
12.0
290
     0
  0
SCALE
  5
142
102
{ACAD_REACTORS
330
B6
102
}
330
B6
100
AcDbScale
 70
     0
300
6" = 1'-0"
140
6.0
141
12.0
290
     0
  0
SCALE
  5
143
102
{ACAD_REACTORS
330
B6
102
}
330
B6
100
AcDbScale
 70
     0
300
1'-0" = 1'-0"
140
12.0
141
12.0
290
     0
  0
ACDBSECTIONVIEWSTYLE
  5
1AA
102
{ACAD_REACTORS
330
1A8
102
}
330
1A8
100
AcDbModelDocViewStyle
 70
     0
  3
Imperial24
290
     0
100
AcDbSectionViewStyle
 70
     0
 71
     0
 90
       78
 71
     1
340
11
 40
0.24
340
0
340
0
 40
0.24
300
I, O, Q, S, X, Z
 40
0.48
 90
        3
 40
0.18
 90
        1
 71
     2
340
1A9
 90
       25
340
16
 90
       50
 40
0.24
 40
0.0
 40
0.24
 71
     3
340
11
 40
0.24
 90
        1
 40
0.75
 90
        1
300
%<\AcVar ViewType \f "%tc1">% %<\AcVar ViewSectionStartId>%-%<\AcVar ViewSectionEndId>%\PSCALE %<\AcVar ViewScale \f "%sn">%
 71
     4
300
ANSI31
 40
1.0
 90
        0
290
     0
290
     0
 90
        6
 40
0.0
 40
1.570796326794896
 40
0.2617993877991494
 40
1.308996938995747
 40
-0.2617993877991494
 40
1.832595714594046
  0
TABLESTYLE
  5
87
102
{ACAD_XDICTIONARY
360
104
102
}
102
{ACAD_REACTORS
330
86
102
}
330
86
100
AcDbTableStyle
  3
Standard
 70
     0
 71
     0
 40
0.06
 41
0.06
280
     0
281
     0
  7
Standard
140
0.18
170
     2
 62
     0
 63
     7
283
     0
274
    -2
284
     1
 64
     0
275
    -2
285
     1
 65
     0
276
    -2
286
     1
 66
     0
277
    -2
287
     1
 67
     0
278
    -2
288
     1
 68
     0
279
    -2
289
     1
 69
     0
  7
Standard
140
0.25
170
     5
 62
     0
 63
     7
283
     0
274
    -2
284
     1
 64
     0
275
    -2
285
     1
 65
     0
276
    -2
286
     1
 66
     0
277
    -2
287
     1
 67
     0
278
    -2
288
     1
 68
     0
279
    -2
289
     1
 69
     0
  7
Standard
140
0.18
170
     5
 62
     0
 63
     7
283
     0
274
    -2
284
     1
 64
     0
275
    -2
285
     1
 65
     0
276
    -2
286
     1
 66
     0
277
    -2
287
     1
 67
     0
278
    -2
288
     1
 68
     0
279
    -2
289
     1
 69
     0
  0
VISUALSTYLE
  5
9F
102
{ACAD_XDICTIONARY
360
6BA
102
}
102
{ACAD_REACTORS
330
99
102
}
330
99
100
AcDbVisualStyle
  2
2dWireframe
 70
     4
 71
     0
 72
     2
 73
     1
 90
        0
 40
-0.6
 41
-30.0
 62
     5
 63
     7
 74
     1
 91
        4
 64
     7
 65
   257
 75
     1
175
     1
 42
1.0
 92
        0
 66
   257
 43
1.0
 76
     1
 77
     6
 78
     2
 67
     7
 79
     5
170
     0
171
     0
290
     0
174
     0
 93
        1
 44
0.0
173
     0
291
     0
 45
0.0
1001
ACAD
1000
AcDbSavedByObjectVersion
1070
     0
  0
VISUALSTYLE
  5
9E
102
{ACAD_XDICTIONARY
360
6B8
102
}
102
{ACAD_REACTORS
330
99
102
}
330
99
100
AcDbVisualStyle
  2
Basic
 70
     7
 71
     1
 72
     0
 73
     1
 90
        0
 40
-0.6
 41
-30.0
 62
     5
 63
     7
 74
     0
 91
        4
 64
     7
 65
   257
 75
     1
175
     1
 42
1.0
 92
        8
 66
     7
 43
1.0
 76
     1
 77
     6
 78
     2
 67
     7
 79
     5
170
     0
171
     0
290
     0
174
     0
 93
        1
 44
0.0
173
     0
291
     1
 45
0.0
1001
ACAD
1000
AcDbSavedByObjectVersion
1070
     0
  0
VISUALSTYLE
  5
A5
102
{ACAD_XDICTIONARY
360
6C6
102
}
102
{ACAD_REACTORS
330
99
102
}
330
99
100
AcDbVisualStyle
  2
Brighten
 70
    12
 71
     2
 72
     2
 73
     1
 90
        0
 40
-0.6
 41
-30.0
 62
     5
 63
     7
 74
     1
 91
        4
 64
     7
 65
   257
 75
     1
175
     1
 42
1.0
 92
        8
 66
     7
 43
1.0
 76
     1
 77
     6
 78
     2
 67
     7
 79
     5
170
     0
171
     0
290
     0
174
     0
 93
        1
 44
50.0
173
     0
291
     1
 45
0.0
1001
ACAD
1000
AcDbSavedByObjectVersion
1070
     0
  0
VISUALSTYLE
  5
A9
102
{ACAD_XDICTIONARY
360
6CE
102
}
102
{ACAD_REACTORS
330
99
102
}
330
99
100
AcDbVisualStyle
  2
ColorChange
 70
    16
 71
     2
 72
     2
 73
     3
 90
        0
 40
-0.6
 41
-30.0
 62
     5
 63
     8
 74
     1
 91
        4
 64
     7
 65
   257
 75
     1
175
     1
 42
1.0
 92
        8
 66
     8
 43
1.0
 76
     1
 77
     6
 78
     2
 67
     7
 79
     5
170
     0
171
     0
290
     0
174
     0
 93
        1
 44
0.0
173
     0
291
     1
 45
0.0
1001
ACAD
1000
AcDbSavedByObjectVersion
1070
     0
  0
VISUALSTYLE
  5
A2
102
{ACAD_XDICTIONARY
360
6C0
102
}
102
{ACAD_REACTORS
330
99
102
}
330
99
100
AcDbVisualStyle
  2
Conceptual
 70
     9
 71
     3
 72
     2
 73
     1
 90
        0
 40
-0.6
 41
-30.0
 62
     5
 63
     7
 74
     2
 91
        2
 64
     7
 65
   257
 75
     1
175
     1
 42
40.0
 92
        8
 66
     7
 43
1.0
 76
     1
 77
     6
 78
     2
 67
     7
 79
     3
170
     0
171
     0
290
     0
174
     0
 93
        1
 44
0.0
173
     0
291
     0
 45
0.0
1001
ACAD
1000
AcDbSavedByObjectVersion
1070
     0
  0
VISUALSTYLE
  5
A4
102
{ACAD_XDICTIONARY
360
6C4
102
}
102
{ACAD_REACTORS
330
99
102
}
330
99
100
AcDbVisualStyle
  2
Dim
 70
    11
 71
     2
 72
     2
 73
     1
 90
        0
 40
-0.6
 41
-30.0
 62
     5
 63
     7
 74
     1
 91
        4
 64
     7
 65
   257
 75
     1
175
     1
 42
1.0
 92
        8
 66
     7
 43
1.0
 76
     1
 77
     6
 78
     2
 67
     7
 79
     5
170
     0
171
     0
290
     0
174
     0
 93
        1
 44
-50.0
173
     0
291
     1
 45
0.0
1001
ACAD
1000
AcDbSavedByObjectVersion
1070
     0
  0
VISUALSTYLE
  5
175
102
{ACAD_XDICTIONARY
360
6D4
102
}
102
{ACAD_REACTORS
330
99
102
}
330
99
100
AcDbVisualStyle
  2
EdgeColorOff
 70
    22
 71
     2
 72
     2
 73
     0
 90
        0
 40
-0.6
 41
-30.0
 62
     5
 63
     7
 74
     1
 91
        4
 64
     7
 65
   257
 75
     1
175
     1
 42
1.0
 92
        8
 66
     7
 43
1.0
 76
     1
 77
     6
 78
     2
 67
     7
 79
     5
170
     0
171
     0
290
     0
174
     0
 93
        1
 44
0.0
173
     0
291
     1
 45
0.0
1001
ACAD
1000
AcDbSavedByObjectVersion
1070
     0
  0
VISUALSTYLE
  5
A8
102
{ACAD_XDICTIONARY
360
6CC
102
}
102
{ACAD_REACTORS
330
99
102
}
330
99
100
AcDbVisualStyle
  2
Facepattern
 70
    15
 71
     2
 72
     2
 73
     1
 90
        0
 40
-0.6
 41
-30.0
 62
     5
 63
     7
 74
     1
 91
        4
 64
     7
 65
   257
 75
     1
175
     1
 42
1.0
 92
        8
 66
     7
 43
1.0
 76
     1
 77
     6
 78
     2
 67
     7
 79
     5
170
     0
171
     0
290
     0
174
     0
 93
        1
 44
0.0
173
     0
291
     1
 45
0.0
1001
ACAD
1000
AcDbSavedByObjectVersion
1070
     0
  0
VISUALSTYLE
  5
9A
102
{ACAD_XDICTIONARY
360
6B0
102
}
102
{ACAD_REACTORS
330
99
102
}
330
99
100
AcDbVisualStyle
  2
Flat
 70
     0
 71
     2
 72
     1
 73
     1
 90
        2
 40
-0.6
 41
30.0
 62
     5
 63
     7
 74
     0
 91
        0
 64
     7
 65
   257
 75
     1
175
     1
 42
1.0
 92
        8
 66
     7
 43
1.0
 76
     1
 77
     6
 78
     2
 67
     7
 79
     5
170
     0
171
     0
290
     0
174
     0
 93
       13
 44
0.0
173
     0
291
     1
 45
0.0
1001
ACAD
1000
AcDbSavedByObjectVersion
1070
     0
  0
VISUALSTYLE
  5
9B
102
{ACAD_XDICTIONARY
360
6B2
102
}
102
{ACAD_REACTORS
330
99
102
}
330
99
100
AcDbVisualStyle
  2
FlatWithEdges
 70
     1
 71
     2
 72
     1
 73
     1
 90
        2
 40
-0.6
 41
30.0
 62
     5
 63
     7
 74
     1
 91
        0
 64
     7
 65
   257
 75
     1
175
     1
 42
1.0
 92
        0
 66
   257
 43
1.0
 76
     1
 77
     6
 78
     2
 67
     7
 79
     5
170
     0
171
     0
290
     0
174
     0
 93
       13
 44
0.0
173
     0
291
     1
 45
0.0
1001
ACAD
1000
AcDbSavedByObjectVersion
1070
     0
  0
VISUALSTYLE
  5
9C
102
{ACAD_XDICTIONARY
360
6B4
102
}
102
{ACAD_REACTORS
330
99
102
}
330
99
100
AcDbVisualStyle
  2
Gouraud
 70
     2
 71
     2
 72
     2
 73
     1
 90
        2
 40
-0.6
 41
30.0
 62
     5
 63
     7
 74
     0
 91
        0
 64
     7
 65
   257
 75
     1
175
     1
 42
1.0
 92
        0
 66
     7
 43
1.0
 76
     1
 77
     6
 78
     2
 67
     7
 79
     5
170
     0
171
     0
290
     0
174
     0
 93
       13
 44
0.0
173
     0
291
     1
 45
0.0
1001
ACAD
1000
AcDbSavedByObjectVersion
1070
     0
  0
VISUALSTYLE
  5
9D
102
{ACAD_XDICTIONARY
360
6B6
102
}
102
{ACAD_REACTORS
330
99
102
}
330
99
100
AcDbVisualStyle
  2
GouraudWithEdges
 70
     3
 71
     2
 72
     2
 73
     1
 90
        2
 40
-0.6
 41
30.0
 62
     5
 63
     7
 74
     1
 91
        0
 64
     7
 65
   257
 75
     1
175
     1
 42
1.0
 92
        0
 66
   257
 43
1.0
 76
     1
 77
     6
 78
     2
 67
     7
 79
     5
170
     0
171
     0
290
     0
174
     0
 93
       13
 44
0.0
173
     0
291
     1
 45
0.0
1001
ACAD
1000
AcDbSavedByObjectVersion
1070
     0
  0
VISUALSTYLE
  5
A1
102
{ACAD_XDICTIONARY
360
6BE
102
}
102
{ACAD_REACTORS
330
99
102
}
330
99
100
AcDbVisualStyle
  2
Hidden
 70
     6
 71
     1
 72
     2
 73
     2
 90
        0
 40
-0.6
 41
-30.0
 62
     5
 63
     7
 74
     2
 91
        2
 64
     7
 65
   257
 75
     2
175
     1
 42
40.0
 92
        0
 66
   257
 43
1.0
 76
     1
 77
     6
 78
     2
 67
     7
 79
     3
170
     0
171
     0
290
     0
174
     0
 93
        1
 44
0.0
173
     0
291
     0
 45
0.0
1001
ACAD
1000
AcDbSavedByObjectVersion
1070
     0
  0
VISUALSTYLE
  5
173
102
{ACAD_XDICTIONARY
360
6D0
102
}
102
{ACAD_REACTORS
330
99
102
}
330
99
100
AcDbVisualStyle
  2
JitterOff
 70
    20
 71
     2
 72
     2
 73
     0
 90
        0
 40
-0.6
 41
-30.0
 62
     5
 63
     7
 74
     1
 91
        4
 64
     7
 65
   257
 75
     1
175
     1
 42
1.0
 92
       10
 66
     7
 43
1.0
 76
     1
 77
     6
 78
     2
 67
     7
 79
     5
170
     0
171
     0
290
     0
174
     0
 93
        1
 44
0.0
173
     0
291
     1
 45
0.0
1001
ACAD
1000
AcDbSavedByObjectVersion
1070
     0
  0
VISUALSTYLE
  5
A7
102
{ACAD_XDICTIONARY
360
6CA
102
}
102
{ACAD_REACTORS
330
99
102
}
330
99
100
AcDbVisualStyle
  2
Linepattern
 70
    14
 71
     2
 72
     2
 73
     1
 90
        0
 40
-0.6
 41
-30.0
 62
     5
 63
     7
 74
     1
 91
        4
 64
     7
 65
   257
 75
     7
175
     7
 42
1.0
 92
        8
 66
     7
 43
1.0
 76
     1
 77
     6
 78
     2
 67
     7
 79
     5
170
     0
171
     0
290
     0
174
     0
 93
        1
 44
0.0
173
     0
291
     1
 45
0.0
1001
ACAD
1000
AcDbSavedByObjectVersion
1070
     0
  0
VISUALSTYLE
  5
174
102
{ACAD_XDICTIONARY
360
6D2
102
}
102
{ACAD_REACTORS
330
99
102
}
330
99
100
AcDbVisualStyle
  2
OverhangOff
 70
    21
 71
     2
 72
     2
 73
     0
 90
        0
 40
-0.6
 41
-30.0
 62
     5
 63
     7
 74
     1
 91
        4
 64
     7
 65
   257
 75
     1
175
     1
 42
1.0
 92
        9
 66
     7
 43
1.0
 76
     1
 77
     6
 78
     2
 67
     7
 79
     5
170
     0
171
     0
290
     0
174
     0
 93
        1
 44
0.0
173
     0
291
     1
 45
0.0
1001
ACAD
1000
AcDbSavedByObjectVersion
1070
     0
  0
VISUALSTYLE
  5
A3
102
{ACAD_XDICTIONARY
360
6C2
102
}
102
{ACAD_REACTORS
330
99
102
}
330
99
100
AcDbVisualStyle
  2
Realistic
 70
     8
 71
     2
 72
     3
 73
     0
 90
        2
 40
-0.6
 41
30.0
 62
     5
 63
     7
 74
     0
 91
        0
 64
     7
 65
   257
 75
     1
175
     1
 42
1.0
 92
        8
 66
   257
 43
1.0
 76
     1
 77
     6
 78
     2
 67
     7
 79
     3
170
     0
171
     0
290
     0
174
     0
 93
       13
 44
0.0
173
     0
291
     0
 45
0.0
1001
ACAD
1000
AcDbSavedByObjectVersion
1070
     0
  0
VISUALSTYLE
  5
182
102
{ACAD_XDICTIONARY
360
6DE
102
}
102
{ACAD_REACTORS
330
99
102
}
330
99
100
AcDbVisualStyle
  2
Shaded
 70
    27
 71
     2
 72
     2
 73
     1
 90
        2
 40
-0.6
 41
30.0
 62
     5
 63
     7
 74
     0
 91
        4
 64
     7
 65
   257
 75
     1
175
     1
 42
1.0
 92
        8
 66
   257
 43
1.0
 76
     1
 77
     6
 78
     2
 67
     8
 79
     3
170
     0
171
     0
290
     0
174
     0
 93
        5
 44
0.0
173
     0
291
     0
 45
0.0
1001
ACAD
1000
AcDbSavedByObjectVersion
1070
     0
  0
VISUALSTYLE
  5
181
102
{ACAD_XDICTIONARY
360
6DC
102
}
102
{ACAD_REACTORS
330
99
102
}
330
99
100
AcDbVisualStyle
  2
Shaded with edges
 70
    26
 71
     2
 72
     2
 73
     1
 90
        2
 40
-0.6
 41
30.0
 62
     5
 63
     7
 74
     1
 91
       10
 64
     7
 65
   257
 75
     2
175
     1
 42
1.0
 92
        8
 66
   257
 43
1.0
 76
     1
 77
     6
 78
     2
 67
     7
 79
     3
170
     0
171
     0
290
     0
174
     0
 93
        5
 44
0.0
173
     0
291
     0
 45
0.0
1001
ACAD
1000
AcDbSavedByObjectVersion
1070
     0
  0
VISUALSTYLE
  5
17E
102
{ACAD_XDICTIONARY
360
6D6
102
}
102
{ACAD_REACTORS
330
99
102
}
330
99
100
AcDbVisualStyle
  2
Shades of Gray
 70
    23
 71
     2
 72
     2
 73
     3
 90
        0
 40
-0.6
 41
-30.0
 62
     5
 63
     7
 74
     2
 91
        2
 64
     7
 65
     7
 75
     1
175
     1
 42
40.0
 92
        8
 66
     7
 43
1.0
 76
     1
 77
     6
 78
     2
 67
     7
 79
     3
170
     0
171
     0
290
     0
174
     0
 93
        1
 44
0.0
173
     0
291
     0
 45
0.0
1001
ACAD
1000
AcDbSavedByObjectVersion
1070
     0
  0
VISUALSTYLE
  5
17F
102
{ACAD_XDICTIONARY
360
6D8
102
}
102
{ACAD_REACTORS
330
99
102
}
330
99
100
AcDbVisualStyle
  2
Sketchy
 70
    24
 71
     1
 72
     2
 73
     2
 90
        0
 40
-0.6
 41
-30.0
 62
     5
 63
     7
 74
     2
 91
        2
 64
     7
 65
     7
 75
     1
175
     1
 42
40.0
 92
       11
 66
     7
 43
1.0
 76
     1
 77
     6
 78
     2
 67
     7
 79
     6
170
     0
171
     0
290
     0
174
     0
 93
        1
 44
0.0
173
     0
291
     0
 45
0.0
1001
ACAD
1000
AcDbSavedByObjectVersion
1070
     0
  0
VISUALSTYLE
  5
A6
102
{ACAD_XDICTIONARY
360
6C8
102
}
102
{ACAD_REACTORS
330
99
102
}
330
99
100
AcDbVisualStyle
  2
Thicken
 70
    13
 71
     2
 72
     2
 73
     1
 90
        0
 40
-0.6
 41
-30.0
 62
     5
 63
     7
 74
     1
 91
        4
 64
     7
 65
   257
 75
     1
175
     1
 42
1.0
 92
       12
 66
     7
 43
1.0
 76
     1
 77
     6
 78
     2
 67
     7
 79
     5
170
     0
171
     0
290
     0
174
     0
 93
        1
 44
0.0
173
     0
291
     1
 45
0.0
1001
ACAD
1000
AcDbSavedByObjectVersion
1070
     0
  0
VISUALSTYLE
  5
A0
102
{ACAD_XDICTIONARY
360
6BC
102
}
102
{ACAD_REACTORS
330
99
102
}
330
99
100
AcDbVisualStyle
  2
Wireframe
 70
     5
 71
     0
 72
     2
 73
     0
 90
        0
 40
-0.6
 41
-30.0
 62
     5
 63
     7
 74
     1
 91
        4
 64
     7
 65
   257
 75
     1
175
     1
 42
1.0
 92
        0
 66
   257
 43
1.0
 76
     1
 77
     6
 78
     2
 67
     7
 79
     3
170
     0
171
     0
290
     0
174
     0
 93
        1
 44
0.0
173
     0
291
     0
 45
0.0
1001
ACAD
1000
AcDbSavedByObjectVersion
1070
     0
  0
VISUALSTYLE
  5
180
102
{ACAD_XDICTIONARY
360
6DA
102
}
102
{ACAD_REACTORS
330
99
102
}
330
99
100
AcDbVisualStyle
  2
X-Ray
 70
    25
 71
     2
 72
     2
 73
     1
 90
        1
 40
0.5
 41
-30.0
 62
     5
 63
     7
 74
     1
 91
        0
 64
     7
 65
   257
 75
     1
175
     1
 42
1.0
 92
        8
 66
     7
 43
1.0
 76
     1
 77
     6
 78
     2
 67
     7
 79
     3
170
     0
171
     0
290
     0
174
     0
 93
       13
 44
0.0
173
     0
291
     0
 45
0.0
1001
ACAD
1000
AcDbSavedByObjectVersion
1070
     0
  0
DICTIONARYVAR
  5
F0
102
{ACAD_REACTORS
330
66
102
}
330
66
100
DictionaryVariables
280
     0
  1
1:1
  0
DICTIONARYVAR
  5
EF
102
{ACAD_REACTORS
330
66
102
}
330
66
100
DictionaryVariables
280
     0
  1
STANDARD
  0
DICTIONARYVAR
  5
89
102
{ACAD_REACTORS
330
66
102
}
330
66
100
DictionaryVariables
280
     0
  1
STANDARD
  0
DICTIONARYVAR
  5
1B7
102
{ACAD_REACTORS
330
66
102
}
330
66
100
DictionaryVariables
280
     0
  1
Imperial24
  0
DICTIONARYVAR
  5
1B8
102
{ACAD_REACTORS
330
66
102
}
330
66
100
DictionaryVariables
280
     0
  1
Imperial24
  0
DICTIONARYVAR
  5
67
102
{ACAD_REACTORS
330
66
102
}
330
66
100
DictionaryVariables
280
     0
  1
2
  0
DICTIONARYVAR
  5
6B
102
{ACAD_REACTORS
330
66
102
}
330
66
100
DictionaryVariables
280
     0
  1
1
  0
DICTIONARYVAR
  5
69A
102
{ACAD_REACTORS
330
66
102
}
330
66
100
DictionaryVariables
280
     0
  1
0
  0
DICTIONARYVAR
  5
14D
102
{ACAD_REACTORS
330
66
102
}
330
66
100
DictionaryVariables
280
     0
  1
0
  0
DICTIONARYVAR
  5
14E
102
{ACAD_REACTORS
330
66
102
}
330
66
100
DictionaryVariables
280
     0
  1
0
  0
DICTIONARYVAR
  5
698
102
{ACAD_REACTORS
330
66
102
}
330
66
100
DictionaryVariables
280
     0
  1
2
  0
DICTIONARYVAR
  5
697
102
{ACAD_REACTORS
330
66
102
}
330
66
100
DictionaryVariables
280
     0
  1
1
  0
DICTIONARYVAR
  5
699
102
{ACAD_REACTORS
330
66
102
}
330
66
100
DictionaryVariables
280
     0
  1
127
  0
DICTIONARYVAR
  5
69B
102
{ACAD_REACTORS
330
66
102
}
330
66
100
DictionaryVariables
280
     0
  1
2
  0
DICTIONARY
  5
6A6
102
{ACAD_REACTORS
330
6A4
102
}
330
6A4
100
AcDbDictionary
281
     1
  0
DICTIONARY
  5
6A5
102
{ACAD_REACTORS
330
6A4
102
}
330
6A4
100
AcDbDictionary
281
     1
  3
2129829816
350
69F
  3
2129850368
350
6A0
  3
2129850376
350
6A1
  3
2129850384
350
6A2
  3
2129850392
350
6A3
  0
DICTIONARY
  5
6A8
330
59
100
AcDbDictionary
280
     1
281
     1
  3
ACAD_XREC_ROUNDTRIP
360
6A9
  0
DICTIONARY
  5
6AA
330
5E
100
AcDbDictionary
280
     1
281
     1
  3
ACAD_XREC_ROUNDTRIP
360
6AB
  0
DICTIONARY
  5
194
330
22
100
AcDbDictionary
280
     1
281
     1
  3
ACAD_XREC_ROUNDTRIP
360
6A7
  0
DICTIONARY
  5
188
330
97
100
AcDbDictionary
280
     1
281
     1
  3
ACAD_XREC_ROUNDTRIP
360
6AE
  3
FBXASSET
360
189
  0
DICTIONARY
  5
186
330
96
100
AcDbDictionary
280
     1
281
     1
  3
ACAD_XREC_ROUNDTRIP
360
6AD
  3
FBXASSET
360
187
  0
DICTIONARY
  5
110
330
98
100
AcDbDictionary
280
     1
281
     1
  3
ACAD_XREC_ROUNDTRIP
360
6AF
  3
BUMPTILE
360
112
  3
DIFFUSETILE
360
111
  3
FBXASSET
360
18A
  3
OPACITYTILE
360
113
  3
REFLECTIONTILE
360
114
  0
DICTIONARY
  5
104
330
87
100
AcDbDictionary
280
     1
281
     1
  3
ACAD_ROUNDTRIP_2008_TABLESTYLE_CELLSTYLEMAP
360
69C
  3
ACAD_XREC_ROUNDTRIP
360
6AC
  0
DICTIONARY
  5
6BA
330
9F
100
AcDbDictionary
280
     1
281
     1
  3
ACAD_XREC_ROUNDTRIP
360
6BB
  0
DICTIONARY
  5
6B8
330
9E
100
AcDbDictionary
280
     1
281
     1
  3
ACAD_XREC_ROUNDTRIP
360
6B9
  0
DICTIONARY
  5
6C6
330
A5
100
AcDbDictionary
280
     1
281
     1
  3
ACAD_XREC_ROUNDTRIP
360
6C7
  0
DICTIONARY
  5
6CE
330
A9
100
AcDbDictionary
280
     1
281
     1
  3
ACAD_XREC_ROUNDTRIP
360
6CF
  0
DICTIONARY
  5
6C0
330
A2
100
AcDbDictionary
280
     1
281
     1
  3
ACAD_XREC_ROUNDTRIP
360
6C1
  0
DICTIONARY
  5
6C4
330
A4
100
AcDbDictionary
280
     1
281
     1
  3
ACAD_XREC_ROUNDTRIP
360
6C5
  0
DICTIONARY
  5
6D4
330
175
100
AcDbDictionary
280
     1
281
     1
  3
ACAD_XREC_ROUNDTRIP
360
6D5
  0
DICTIONARY
  5
6CC
330
A8
100
AcDbDictionary
280
     1
281
     1
  3
ACAD_XREC_ROUNDTRIP
360
6CD
  0
DICTIONARY
  5
6B0
330
9A
100
AcDbDictionary
280
     1
281
     1
  3
ACAD_XREC_ROUNDTRIP
360
6B1
  0
DICTIONARY
  5
6B2
330
9B
100
AcDbDictionary
280
     1
281
     1
  3
ACAD_XREC_ROUNDTRIP
360
6B3
  0
DICTIONARY
  5
6B4
330
9C
100
AcDbDictionary
280
     1
281
     1
  3
ACAD_XREC_ROUNDTRIP
360
6B5
  0
DICTIONARY
  5
6B6
330
9D
100
AcDbDictionary
280
     1
281
     1
  3
ACAD_XREC_ROUNDTRIP
360
6B7
  0
DICTIONARY
  5
6BE
330
A1
100
AcDbDictionary
280
     1
281
     1
  3
ACAD_XREC_ROUNDTRIP
360
6BF
  0
DICTIONARY
  5
6D0
330
173
100
AcDbDictionary
280
     1
281
     1
  3
ACAD_XREC_ROUNDTRIP
360
6D1
  0
DICTIONARY
  5
6CA
330
A7
100
AcDbDictionary
280
     1
281
     1
  3
ACAD_XREC_ROUNDTRIP
360
6CB
  0
DICTIONARY
  5
6D2
330
174
100
AcDbDictionary
280
     1
281
     1
  3
ACAD_XREC_ROUNDTRIP
360
6D3
  0
DICTIONARY
  5
6C2
330
A3
100
AcDbDictionary
280
     1
281
     1
  3
ACAD_XREC_ROUNDTRIP
360
6C3
  0
DICTIONARY
  5
6DE
330
182
100
AcDbDictionary
280
     1
281
     1
  3
ACAD_XREC_ROUNDTRIP
360
6DF
  0
DICTIONARY
  5
6DC
330
181
100
AcDbDictionary
280
     1
281
     1
  3
ACAD_XREC_ROUNDTRIP
360
6DD
  0
DICTIONARY
  5
6D6
330
17E
100
AcDbDictionary
280
     1
281
     1
  3
ACAD_XREC_ROUNDTRIP
360
6D7
  0
DICTIONARY
  5
6D8
330
17F
100
AcDbDictionary
280
     1
281
     1
  3
ACAD_XREC_ROUNDTRIP
360
6D9
  0
DICTIONARY
  5
6C8
330
A6
100
AcDbDictionary
280
     1
281
     1
  3
ACAD_XREC_ROUNDTRIP
360
6C9
  0
DICTIONARY
  5
6BC
330
A0
100
AcDbDictionary
280
     1
281
     1
  3
ACAD_XREC_ROUNDTRIP
360
6BD
  0
DICTIONARY
  5
6DA
330
180
100
AcDbDictionary
280
     1
281
     1
  3
ACAD_XREC_ROUNDTRIP
360
6DB
  0
XRECORD
  5
69F
102
{ACAD_REACTORS
330
6A5
102
}
330
6A5
100
AcDbXrecord
280
     1
  1
AcDb_Thumbnail_Schema
102
{ATTRRECORD
341
6A0
  2
AcDbDs::TreatedAsObjectData
280
     1
291
     1
102
ATTRRECORD}
102
{ATTRRECORD
341
6A1
  2
AcDbDs::Legacy
280
     1
291
     1
102
ATTRRECORD}
  2
AcDbDs::ID
280
    10
 91
        8
102
{ATTRRECORD
341
6A2
  2
AcDs:Indexable
280
     1
291
     1
102
ATTRRECORD}
102
{ATTRRECORD
341
6A3
  2
AcDbDs::HandleAttribute
280
     7
282
     1
102
ATTRRECORD}
  2
Thumbnail_Data
280
    15
 91
        0
  0
XRECORD
  5
6A0
102
{ACAD_REACTORS
330
6A5
102
}
330
6A5
100
AcDbXrecord
280
     1
  1
AcDbDs::TreatedAsObjectDataSchema
  2
AcDbDs::TreatedAsObjectData
280
     1
 91
        0
  0
XRECORD
  5
6A1
102
{ACAD_REACTORS
330
6A5
102
}
330
6A5
100
AcDbXrecord
280
     1
  1
AcDbDs::LegacySchema
  2
AcDbDs::Legacy
280
     1
 91
        0
  0
XRECORD
  5
6A2
102
{ACAD_REACTORS
330
6A5
102
}
330
6A5
100
AcDbXrecord
280
     1
  1
AcDbDs::IndexedPropertySchema
  2
AcDs:Indexable
280
     1
 91
        0
  0
XRECORD
  5
6A3
102
{ACAD_REACTORS
330
6A5
102
}
330
6A5
100
AcDbXrecord
280
     1
  1
AcDbDs::HandleAttributeSchema
  2
AcDbDs::HandleAttribute
280
     7
 91
        1
284
     1
  0
XRECORD
  5
6A9
102
{ACAD_REACTORS
330
6A8
102
}
330
6A8
100
AcDbXrecord
280
     1
102
SHADEPLOT
 70
     0
102
SHADEPLOTRESLEVEL
 70
     2
102
SHADEPLOTCUSTOMDPI
 70
   300
  0
XRECORD
  5
6AB
102
{ACAD_REACTORS
330
6AA
102
}
330
6AA
100
AcDbXrecord
280
     1
102
SHADEPLOT
 70
     0
102
SHADEPLOTRESLEVEL
 70
     2
102
SHADEPLOTCUSTOMDPI
 70
   300
  0
XRECORD
  5
6A7
102
{ACAD_REACTORS
330
194
102
}
330
194
100
AcDbXrecord
280
     1
102
SHADEPLOT
 70
     0
102
SHADEPLOTRESLEVEL
 70
     2
102
SHADEPLOTCUSTOMDPI
 70
   300
  0
XRECORD
  5
6AE
102
{ACAD_REACTORS
330
188
102
}
330
188
100
AcDbXrecord
280
     1
102
MATERIAL
148
0.0
149
0.0
149
0.0
 93
        0
 94
       63
282
     0
 72
     1
 77
     1
171
     1
175
     1
179
     1
273
     0
  0
XRECORD
  5
189
102
{ACAD_REACTORS
330
188
102
}
330
188
100
AcDbXrecord
280
     1
 70
     1
 90
429727718
  1
508B35C9-AEE7-456F-BE74-D52651303AC6
310
504B03040A0000080000B670623B3DEE336E79000000790000001B0000006175746F6465736B2D64657369676E2D7061636B6167652E786D6C3C3F786D6C2076657273696F6E3D22312E302220656E636F64696E673D227574662D3822203F3E3C666F726D6174733E3C666F726D61743E687474703A2F2F736368656D612E
310
6175746F6465736B2E636F6D2F64657369676E2D7061636B6167652F323030393C2F666F726D61743E3C2F666F726D6174733E504B0304140006080800B670623BD486FD9CA0000000F4000000130000005B436F6E74656E745F54797065735D2E786D6C7D8EC10E82300C865F65E91D8A1E8C310C0EEA1BF002731658846E
310
D98AC1B77784ABF1D8FE5FBFBF75BBCE937A534CCEB38643598122B6FEE978D0B0485F9C41B54DDD7D022595594E1A469170414C76A4D9A4D207E29CF43ECE46F218070CC6BECC4078ACAA135ACF422C856C0E68EA1BF5669944DDD7BCDE7B1F8E415D77AECB980613C2E4AC91FC167A2B244592486606FC29C8FD7F045B9A
310
EF7053A7E60B504B0304140006080800B670623B28ED286BEB0000007C01000008000000636F72652E786D6C8D90416EC3201045AF82665B6183218D6D61A254764FD00B204C5C94182C03558F5F9C3852BBEB6A467FFE9B197D71FA9E6FE8CBACC17AD7012D0820E3B41FAD9B3A48F1826B40272956EFE32F1B20A766D3C1
310
268314D3EAD3B24BDABB685CCCAAF3A3D94515828980F42D371D04FD696655A814B3235C8B45E9AB9A4C419F5D8653B2237A1CB163DE672FD6AC209BF3C08E0D1B30EB19C3FC9D72FCC6EB231EFA33EDE96BDD341517E5064B11EDFCBCAF57A3A2194156843498524CAA0FCA5B7268F9E185D42D21A2DCEC7FA0B48CFF8492
310
759155FBBB0F2C80A4F991FB408A72CB22977B50B96EB9C91F504B0304140006080800B670623B55019EA25F0000007C00000007000000636E782E786D6C4DCB3B0E80201045D1AD90E915ED2CF8AC45050C11660C8261F98AB1B07AC9C97D42D718D865D3E909258CFD00CCE24AC6E326A164D74DC0B4128928FF32603847
310
2BA13128B1252AC747C6BAB984FC68F0B87FE8960A5C09FE86CFB69FBA01504B0304140006080800B670623B7BC41AC871010000D40300000C0000006662782F636F72652E786D6CC553ED6E8320147D15C2DF4501B56B6D90A64BBB27D80B50A5CE54C120983EFEAE1F4DD7A56BBA5FF3879273EEE59E7310BE393735EA95
310
ED2AA333CC428A91D2B9292A5D66D8BB63B0C26823B835C67D2BC348CB46657880B1E0A535BE9DA1DC68A7B403549B42CDA0EC3AE530CA6B5864B8CB3F552343E91D5474A7B095F949962A6421D0502778E72C0840D390E18DC5F170E664C205F7BE2A66B62A605A75AC94C522DDEEE3651AEF837817C741F2CE92E02D592D
310
83FD6ECB76EC7595A651C2C9D02CB8AB9A8BBADC2AE954814544691A3016D0E883256BBA58278B17BA5A53CAC9507ED3E4DBE2C9265F691747B3DCA9ADC382819091F8E1162272A8933DE82182932144F88C09DF060D8140C84E1EEA8B8F1340BDCA9DB1093085F157AA97B557309586747CD0EF0B4EA64E983A6E0EAEEFCE
310
889E9EF17847386AA94B30211D2C0FDE0D3AF9A4610EAD5536E8DD1969631B593F67E381C33F5157F17725E5A636F6BF1491F980C8FC7B90E13E8A2F504B0304140006080800B670623B70102A487D0000009D0000000B0000006662782F636E782E786D6C4DCCD10A83201886E15B91FFDC95A5C30335ACCDFB886521330D
310
A76397BF1A1DECE883878F57749FD5A3B74D2F17830472A901D9F088930B8B849267CC01754AA418F3DF0D5018572BE160506249B16C274D761E8BCFBB7A179E27F65CB39A0F14D396184C9921B81F34C3ACA1B4B99ABB6E6F062A25AA5F69DF23ACBE504B0304140006080800B670623B3610CA3329010000120200003100
310
00006662782F42384135303843342D343331462D343546312D424341352D3532343432364645413344462F636F72652E786D6C8D515B6EC32010BC0AE22B55850D0E446E848992B43E412FE000495162B07854397EA176A4F62F3F2C9A9D991D58BEBB8F37F0AD7D30CE76905418026DA553C65E3A98E219B510EC04F7CEC5
310
3F3408EC30EA0E16180A7EF12E4D0B249D8DDAC68C5AA7F4020E21E80881BCE54B0783FCD2E3500D296646B856D320AFC34557A4CAEDCC133C449F0380794839A138B47B86DB2345744D7A44594FD0E1B867883594369BFE63BF7EEF793D0B054FC9A8456E548E63CE46FB674D8A58F068C6477CE9F510B582A2C1F80D1182
310
70F349E816B32D65AFB8DD62CCEB42FF274A937A52948C8DEB66893BCB021484D7734370E5D2E9F608A3EF93F3119479ABA0E50B14B8C298119A43CCC4FCFCECB8A18B6388CEE7EF5D5D4F994BD86CBBA182D76543B9FCAE2FD7B24DF103504B0304140006080800B670623B1B8617914E0100003303000030000000666278
310
2F42384135303843342D343331462D343546312D424341352D3532343432364645413344462F636E782E786D6CD593C16EC32010447F0571AD6CE3D489D20813A9877E410FBD62D82434182CC055F3F75D1292E692438FBD206B7698593D61BEFD1E2DF982108D773D6D6B460938E5B571FB9ECE6957AD29D90A1EBC4F7736
310
4A9C1CA1A759A682EF839FA72269D8C9D92654AD71C72206887E0E0A22CAF926B15E498B01E0AA19451807D01A34B919F16B070157417138917400F2F6FA41FCF0092A45DEE414C19BDC21783E4BD39D891265658C3D8DEA00A3ACE59CBC8678ACB54CB26EEB6BD7839D7E9348BE70AD9C8321B9BCA7F9A4A26C542347DEE0
310
50F09802D22BA6749A800A394DD62899107273365E3C82CFC6A55557BC06C10774B7ABE7AEC3B0F34CF06446280E154026D0542C187BA9DAB6628BF7B6DBB0E5A65B3EB1F58631DE64BBE083F7B65CC218087E22CABB042E51D1F2268F1FE12B3EA24D40D63E9CFE00120194D60B9D5BC67FE6D39CDF37E20AF817881F504B
310
0304140006080800B670623BBFEF2E3B690500003C100000340000006662782F42384135303843342D343331462D343546312D424341352D3532343432364645413344462F6F626A656374732E786D6CAD575D739B3814FD2B0CFB0C98D84E931D4227B6938EA793B6534F3BFB90198F0099B001899144EAECAFDF231018B0
310
D37A3FFC609090EEE7B94757C1FB7D915B2F54C88CB31BDB7727B64559CC938CA53776A576CE956DBD0F03C1B9EA2DB32D460A7A63EB693B0C52C1ABD24C257447AA5C8D66EF177F5832A68CDA569C13296F6C193FD182B8A4523CA1F2D94D88226EBADBBBBEDB2C1C8A4D05299F46424B222853B014F30C52ACC6287F389C
310
D85E1878FA7B18E87FB36AFAF62AAFF667A83F635211161F291B8999FAB3D5DDC5FCDA99CF6653677679E13B8BFBC5CAF1DF4D27CBCBE5F2FAF6EE1A8AA51290642C117467871F101B91C581D77CEA2C36869F3229E68CD1B8F61F1ED6361B89092D294B90C78C4A68EB793D190E7D1D9BDEE7A91E1B95FDE9F3BCEAEFE809
310
6A6D6F9F7D4B79F4275C90E7A04248AA51D5C4C738DAE06F72885AC4796EBE65D22A88A22223B995679120E2D50EB1542F098381188D4EA111AE3DB043FF20AF6F2B4AE3D7D83D65E5AECA730D4D3BAC91BD05FEA992B565D95F549CD6069B90AB2A63EACA38A45E4B6A87D781574F86817E4C2FCCC72690D62E2729520E37
310
9BAF234797BAF6D62B3BFC781FED37BA1E4F2B2F052FA9501A3E80569BB8F6A9A364D4FA67654E6F803383981F82F21591FF84F23D9882BC896C3FDBCF8C162508933B2E0AE4C69DD43F6BD2BE38DDDBF10BF86CB4FA784D37F3AF16075E67EC9030DECA1FC0A55373F5DFF3378C591FA9BDF485C10B0A8C8BA909E5262639
310
A8E72163488806A595734C81CB77D1DE0ED7604A303B76913CEC0272F412782FF88EFF4636D8AA56DF7B322474C4B767303F625997056C7B032C473C592B36CEBD15F3F9FF5233B7ABCDC74D257624A60F8658567497B14CE1EC3C80B76FD02011038F9EE9EB0F2E12387A9C844D3F09855125116D1D731DF8B43D2CF4E0A0
310
79A020C6BE946BCE0B7EA1E1219331CD73C228AF5A2DDD31A4B1DA918CE91350854D40A71723140BFA92E94E62B0626016CEFA5864A50E5977E8753CEDBEE1CBB7F52780D20E17AF0BA0F5F9B02A3AD07DCC732EB6D1EBB661421BE0C39E21BABF0FE16D22EA6929407C8DE596724C88B749B6DB5512BC7B228ADFD7CB7EA6
310
3A22397E690BA8D5D8D4E40CEC8CDA23C2C0B7D5898640101CEC9C6D331CE328CB93CAFBBAC70A642DF70DF95155945B52F08AA973C23469FD69ADEF84F7BB18F983A8F8C90E37F5D35980B2139A1C523540813E824EF83448CF7C72B598CE97D7CEEDDDDD3B6736BFBC771677EF66CE6A7E7139F7A793E9EDF2B2B3A8B624
310
0CDA13AA5F8388264EC4A0129909F3B7F5A16CEDF08128E97D680ACA4B9BE7B7B58BB638F0B00700EF36AE8B32A705658A68F83EE897FC2B41573190D1CCAF0B92D233A47CFEB019D9809933F67DD1A5467F8CF69AD9A5AE859342D45355448C64F968A371DC2D596ADC6E43D93D1B466F877A64E2893E54F23C4B40388995
310
525E5005DA3983ED45412510D3EFCA13737B3863F74BD30F2A12E5B4B5E489A025CE25500DB855B11ACE5BBFA185D35DD48D8DC3CE7DC69F2944DB42AA6F6CF09BCA622ADD08C7A36E7C6AE18000BAB08E040135C2D21C9D75B3A91B77BB746C403F38018DFE6EC939DD92F16B40BC05294B9CDA035AAD6D330AE27FE4786B
310
8E45145EA34A75BE1C263A676A35A8ACC6297337400BF16C54EF515F3F77CB77EB3583889C754FFA29081AA98E2222ADEF05DA3E63D2EDEA8B8756C05A7FB6CABC4A91CBF325398202CC952E70A008A830324BA200D5E5EF8F5F04C75DB4B0EE3340E071C98B823333B83577596BF3849B69F2085AA0FAFA212F26BEFF5877
310
FDE622B28D88A42E49E43326DA82D31E8CB006401E1DA726059ECEC168F97A6599036306A135688F9AD2E61A6EA178F4CD51974A9F2CCB9F36FE5EBD14601068D9C3BF01504B0304140006080000B670623B000000000000000000000000350000006662782F42384135303843342D343331462D343546312D424341352D35
310
32343432364645413344462F76657274696365732E62696E504B0304140006080800B670623BF270F1330600000004000000360000006662782F42384135303843342D343331462D343546312D424341352D3532343432364645413344462F747269616E676C65732E62696E636660600000504B0304140006080000B67062
310
3B000000000000000000000000370000006662782F42384135303843342D343331462D343546312D424341352D3532343432364645413344462F617474726962757465732E62696E504B0304140006080800B670623B08DA0BD19000000041010000360000006662782F42384135303843342D343331462D343546312D4243
310
41352D3532343432364645413344462F6469726563746F72792E786D6C858F410AC3201045AF22B36F53E9A60B35CBEEBAE80D244E44489C6234F4F835464A48035D0DF398FF9F8AF63D0E6CC63039F212F8F9020C7D47C6792B21C5FE7403D62A1188E2E60C98D7234A5830286103A55745067B9D86B8A3CF9C7F90C11DE6
310
07FB144396D7B6A82D282E9A152AD114D5EF2CB866EEE831B8EEA07A7BB5A8D7D61A2BAAEB7FD5F70921FF497D00504B0304140006080800B670623B3B4606F3FE000000A00100003B0000006662782F42384135303843342D343331462D343546312D424341352D3532343432364645413344462F7265736F75726365732F
310
636F72652E786D6C8D504B6E833010BD0A9A6D65B08134808CA354A427E8052C332156828DFCA97AFC9A40A576D7CDCCE87D344F8F9FBEE647F689CE6B6B7A6039850C8DB2A336530F315C4903D94970676DF82583CCC8197B5861107C72362E3BA4AC096842428D1D7107A5F71820538F74F4E0D50D6799CB1892C2DFF345
310
AABB9C306779A2934E701F5C0A906D4FD609C2A1B7D129F4BCD858C163D4E3AED163FAA9AF1A1D88F67CA98E6D35906AA82A52BFB39ABCD5CD915C86331BD86BD3B665CD8BD52C78D0F34F46E550061C419494B6843142CB0F5677F4D0D58717DA7494F26295FF31C565FCA7296A13AA728FBBD93C0896823C09C18BB5AFB4
310
9E65A6BD762BBE01504B010214000A0000080000B670623B3DEE336E79000000790000001B00000000000000000000000000000000006175746F6465736B2D64657369676E2D7061636B6167652E786D6C504B01021400140006080800B670623BD486FD9CA0000000F40000001300000000000000000000000000B2000000
310
5B436F6E74656E745F54797065735D2E786D6C504B01021400140006080800B670623B28ED286BEB0000007C010000080000000000000000000000000083010000636F72652E786D6C504B01021400140006080800B670623B55019EA25F0000007C000000070000000000000000000000000094020000636E782E786D6C50
310
4B01021400140006080800B670623B7BC41AC871010000D40300000C00000000000000000000000000180300006662782F636F72652E786D6C504B01021400140006080800B670623B70102A487D0000009D0000000B00000000000000000000000000B30400006662782F636E782E786D6C504B01021400140006080800B6
310
70623B3610CA3329010000120200003100000000000000000000000000590500006662782F42384135303843342D343331462D343546312D424341352D3532343432364645413344462F636F72652E786D6C504B01021400140006080800B670623B1B8617914E010000330300003000000000000000000000000000D10600
310
006662782F42384135303843342D343331462D343546312D424341352D3532343432364645413344462F636E782E786D6C504B01021400140006080800B670623BBFEF2E3B690500003C10000034000000000000000000000000006D0800006662782F42384135303843342D343331462D343546312D424341352D35323434
310
32364645413344462F6F626A656374732E786D6C504B01021400140006080000B670623B0000000000000000000000003500000000000000000000000000280E00006662782F42384135303843342D343331462D343546312D424341352D3532343432364645413344462F76657274696365732E62696E504B010214001400
310
06080800B670623BF270F133060000000400000036000000000000000000000000007B0E00006662782F42384135303843342D343331462D343546312D424341352D3532343432364645413344462F747269616E676C65732E62696E504B01021400140006080000B670623B00000000000000000000000037000000000000
310
00000000000000D50E00006662782F42384135303843342D343331462D343546312D424341352D3532343432364645413344462F617474726962757465732E62696E504B01021400140006080800B670623B08DA0BD1900000004101000036000000000000000000000000002A0F00006662782F42384135303843342D3433
310
31462D343546312D424341352D3532343432364645413344462F6469726563746F72792E786D6C504B01021400140006080800B670623B3B4606F3FE000000A00100003B000000000000000000000000000E1000006662782F42384135303843342D343331462D343546312D424341352D3532343432364645413344462F72
310
65736F75726365732F636F72652E786D6C504B0506000000000E000E0080040000651100000000
  0
XRECORD
  5
6AD
102
{ACAD_REACTORS
330
186
102
}
330
186
100
AcDbXrecord
280
     1
102
MATERIAL
148
0.0
149
0.0
149
0.0
 93
        0
 94
       63
282
     0
 72
     1
 77
     1
171
     1
175
     1
179
     1
273
     0
  0
XRECORD
  5
187
102
{ACAD_REACTORS
330
186
102
}
330
186
100
AcDbXrecord
280
     1
 70
     1
 90
429727718
  1
887D55A9-D0DD-414E-B741-A7DCD4DA2B4C
310
504B03040A0000080000B670623B3DEE336E79000000790000001B0000006175746F6465736B2D64657369676E2D7061636B6167652E786D6C3C3F786D6C2076657273696F6E3D22312E302220656E636F64696E673D227574662D3822203F3E3C666F726D6174733E3C666F726D61743E687474703A2F2F736368656D612E
310
6175746F6465736B2E636F6D2F64657369676E2D7061636B6167652F323030393C2F666F726D61743E3C2F666F726D6174733E504B0304140006080800B670623BD486FD9CA0000000F4000000130000005B436F6E74656E745F54797065735D2E786D6C7D8EC10E82300C865F65E91D8A1E8C310C0EEA1BF002731658846E
310
D98AC1B77784ABF1D8FE5FBFBF75BBCE937A534CCEB38643598122B6FEE978D0B0485F9C41B54DDD7D022595594E1A469170414C76A4D9A4D207E29CF43ECE46F218070CC6BECC4078ACAA135ACF422C856C0E68EA1BF5669944DDD7BCDE7B1F8E415D77AECB980613C2E4AC91FC167A2B244592486606FC29C8FD7F045B9A
310
EF7053A7E60B504B0304140006080800B670623BBC1638F5EC0000007C01000008000000636F72652E786D6C8D90416EC3201045AF82665B61836BE2D8C24471DB9CA01740401C94182C03558F5F9C3852BBEB6A467FFE9B197D7EF89E6EE8CB2CC17AD7032D0820E394D7D68D3DA478C67B4007C117EFE32F1B202727D3C3
310
2A83E0E3E2D3BC49CABB685CCCAAF3DA6CA20CC14440EA969B1E82BA98491632C5EC08D76296EA2A4753D06797E194AC468F2356E77DF66CCD02825543D50CACC62D39ED70FDC68EB8FD68F6F8787A6784342D1DDA1D2F5758F068A7E77DB518198D065111D2624A31A93E69DD11D6D5EC85EC3B4278B9DAFF4069D6FF8492
310
75F1B5DADE7D600104CD8FDC0782976B16B9DC83CA75CD4DFC00504B0304140006080800B670623B55019EA25F0000007C00000007000000636E782E786D6C4DCB3B0E80201045D1AD90E915ED2CF8AC45050C11660C8261F98AB1B07AC9C97D42D718D865D3E909258CFD00CCE24AC6E326A164D74DC0B4128928FF326038
310
472BA13128B1252AC747C6BAB984FC68F0B87FE8960A5C09FE86CFB69FBA01504B0304140006080800B670623B3586FFB671010000D40300000C0000006662782F636F72652E786D6CC553ED6E8320147D15C2DF4541A76D6D90A6DDD627D80B50A4CE54C120983EFEAE1F4DD7A55BBA5FF3879273EEE59E7310B6393735EA
310
95ED2AA3731C851423A5A5292A5DE6D8BB63B0C268C39935C67D29C3488B46E578803167A535BE9D2169B453DA01AA4DA16650749D7218C91A1639EEE4876A4428BC838AEE14B6429E44A9C228041AEA38EB9C0501681A32BC313F1ECE8C4C3867DE57C5CC56054CAB8E95B298A7F12E5EEED224C8E87E11242FE936C8DE96
310
AB60BB7F4D295D66D12E5B30323473E6AAE6A24E5A259C2A308F29CD82280A68FC1E256B9AAE93F489AED694323294DF34F9B678B0C957DA3DC7B3DCA9ADC33C022123F1CD2D44E450277AD04338234388F01913BE0D1A0281909D38D4171F27807A259DB1093085F157AA17B557309586747CD0CF0B46A64E983A6E0EAEEF
310
CE881F9EF1FB8E70D44297604238581EBC1B74B249C31C5AAB6CD0BB33D2C636A27ECCC62F0EFF445DC5DF95244D6DEC7F2922F30191F9F720C37DE49F504B0304140006080800B670623B4220A0FF7D0000009D0000000B0000006662782F636E782E786D6C4DCCD10A83201886E15B91FFDCE542CB0335D0EC3E6259C84A
310
C3E9D8E5AF46073BFAE0E1E315DD675BD1DBA5978F41C2FD4600B9F088930F8B849267CC01754AA418F3DF0D50183727E164506249B1EC174D6E1ECB9A0F5D7D785E68DB8151CD286E5A5363CA6B8A39E90D36D40E96B086F55A43A544F52B1D7B86D517504B0304140006080800B670623B2FA3FEDE290100001202000031
310
0000006662782F45374635344235342D363743322D343832342D383044432D4334454645303536354442422F636F72652E786D6C8D515B6EC32010BC0AE22B55850D2E386E848994D7097A0117488A1283C5A3CAF10BB523B57FF961D1ECCCECC0F2ED7DBC816FED8371B687A4C210682B9D32F6D2C314CFA883602BB8772E
310
FEA141608751F7B0C050F08B77695A20E96CD43666D43AA5177008414708E42D5F7A18E4971E876A483133C2B59A06791D2EBA22556E679EE021FA1C00CC43CA09C5717D6274C7286AD7FB06D1AEA1A8C3873DDAD3E3E98859CB0EBB1DAF67A1E02919B5C88DCA71CCD968FFAC49110B1ECDF8882FBD1EA256503418BF2342
310
106E3E08DD60B6A1EC15771B8C795DE8FF4469524F8A92B1F1AD59E2CEB20005E1F5DC105CB9F4797B84D1F7C9F908CABC55D0F2050A5C61CC1AD2F27A26E6E767C7962E8E213A9FBF7775FDCC5CC266DB960A5E970DE5F2BBBE5CCB36C50F504B0304140006080800B670623B1B8617914E01000033030000300000006662
310
782F45374635344235342D363743322D343832342D383044432D4334454645303536354442422F636E782E786D6CD593C16EC32010447F0571AD6CE3D489D20813A9877E410FBD62D82434182CC055F3F75D1292E692438FBD206B7698593D61BEFD1E2DF982108D773D6D6B460938E5B571FB9ECE6957AD29D90A1EBC4F77
310
364A9C1CA1A759A682EF839FA72269D8C9D92654AD71C72206887E0E0A22CAF926B15E498B01E0AA19451807D01A34B919F16B070157417138917400F2F6FA41FCF0092A45DEE414C19BDC21783E4BD39D891265658C3D8DEA00A3ACE59CBC8678ACB54CB26EEB6BD7839D7E9348BE70AD9C8321B9BCA7F9A4A26C542347DE
310
E050F09802D22BA6749A800A394DD62899107273365E3C82CFC6A55557BC06C10774B7ABE7AEC3B0F34CF06446280E154026D0542C187BA9DAB6628BF7B6DBB0E5A65B3EB1F58631DE64BBE083F7B65CC218087E22CABB042E51D1F2268F1FE12B3EA24D40D63E9CFE00120194D60B9D5BC67FE6D39CDF37E20AF817881F50
310
4B0304140006080800B670623B29652116630500003C100000340000006662782F45374635344235342D363743322D343832342D383044432D4334454645303536354442422F6F626A656374732E786D6CAD575D739B3814FD2B0CFB0C989834C90EA1639B24E3E9A6EDD4D3CE3E64C623834CD8006224913AFDF57B040203
310
B65BEF871F0C12D2FD3CF7E8CA7FBFCB33E3957291B2E2D674ED8969D02262715A24B76625B7D6B569BC0F7CCE98EC2D338D82E4F4D654D366E0279C55A59E8AE99654991CCDDECFFF3444440B6A1A514684B83545F44C7362934AB2988A173B2692D8C97667BB76B3702836E1A47C1E092D09A78584A5982F20C5688C7287
310
C389E904BEA3BE07BEFAD7ABA6A75739B53F43FD69212429A20365233153D70BEF2E2E6FAC4BCF9B5ADEBB0BD79ADFCF43CBBD9A4E16EF168B9BD9DD0D140BC921495BC2E9D60C1E101B9E46BED37CEA2CD6861F3329624541A3DA7F7858DBAC25C6B4A4458C3CA654405BCFEBC970E8AAD8F43E4FD558ABEC4F9FE7557F47
310
4F506B7BFBEC5BCA367FC105710E2AB8A00A554D7CB4A30DFE26FBA86D18CBF4B75418399194A72433B274C3097F33032C554B027F2046A1932B842B0FCCC0DDCBEBDB8AD2F835768F59B9ADB24C41D30C6A64AF817F2A456D59FA83F2E3DA60137255A585BCD60EC9B7929AC18DEFD49381AF1ED30BFDB109A4B1CD488294
310
C3CDE6EBC8D185AABD6568061FEE37BB95AAC7E3CA4BCE4ACAA5820FA0D526AE7DAA2869B5EE5999531BE0CC20E6FBA07C41E43FA27CF7A6206F3CDD793B4F6B919C1462CB788EDCD893FA674CDA17AB7B3B7C019F8D561FAEE966FED562DFE98C1D12C6A9FC015C2A35D7FF3D7FC398F591DA4B5FE0BFA2C0189FEA50AE22
310
92817A1ED3020951A03432862970F976B33383259812CC8E5D240BBA801CBCF8CE2BBEE3BF910DB6AAD5F79E05123AE2DB33981FB1ACCB02B69D00CB014FD68AB573A7627EF9BFD4CC2C5C7D58557C4B22FAA88925A4DBB44825CECE3D78FB060D1231F0E885BE7D673C86A3874958F593906B5502D1563157814FDAC3420D
310
F69A070A22EC4B98E23CFF171A1E5311D12C23056555ABA53B8614563B92D17D02AAB009E8F46284624E5F53D5490C560CCCC2591FF1B45421EB0EBD8EA7ED13BE7C5D7E0428CD60FEF60779EB13E6664FF711CB185F6FDED60D139A001FF60CD1FD6D086F1D51474901E26B2CB794A343BC8ED3EDB612E0DD2351FCB65CF4
310
33D511C9E14B5B40ADC6A6263DB0336A8F700DDF56271A024E70B0B3629DE21847591E55DED73D56206AB927E46FAABC5C939C55853C274C93D69FD6FA4E78BF8B11DF898C9ECD60553FAD39283BA6F18984AA23E8884F83F45C5F5F859797B31B2B9C84A1E5B9DE9D35BFF25C6B76152E422F9C5DCC3D847F5801ED09D5AF
310
41441327A25FF15487F9EB725FB666F048A4701E9A827292E6F97569A32DF61DEC01C0BB8DCBBCCC684E0B49147C1FD54BF685A0AB18C868E6973949E819523E3DAC463660E68C7D9F55A9D1EFA3BD7A76A16AE1A810F95CE59B82A4D968A376DC2E8B44BBDD86B27B368CDE0ED548C7137DA860591A83706223A12CA712B4
310
7306DBF39C0A20A6DF95C7FAF670C6EED7A61F946493D1D6926782963813403548A78AE470DEF80D2D9CEAA26E4D1C76F60BFE74219A06527D6B82DF641A51616F703CAAC6A7160E08A00BEB4810A0274592A1B36E3675E36E978A0DE80727A0D6DF2D39A75BD27E0D8837276589537B40ABB56D5A41F48F1C6FCD3188C4EB
310
A6929D2FFB89CE995A4D00AE813BDD032DC48B56BD437DFDDC2DD7AED70C2272D63DE9A72068A45A92F0A4BE17A8A06B9366E16707AD80B1FC649459952097E74BB23805982B55E0401150A165964402AA8BDF9F3E7386BB686EDCA780C0D382E5392BF460A6EFB2C6EA1937D3F809B440D5F5435C4C5CF7A9EEFAF54564BD
310
2182DA24162F98680B4E7930C21A0079709CEAEB99A372305ABE0C0D7D6078105A83F6A0296DAEE1068A47DD1C55A9F4C9B2FC69E3EFD44B81028E963DF81B504B0304140006080000B670623B000000000000000000000000350000006662782F45374635344235342D363743322D343832342D383044432D433445464530
310
3536354442422F76657274696365732E62696E504B0304140006080800B670623BF270F1330600000004000000360000006662782F45374635344235342D363743322D343832342D383044432D4334454645303536354442422F747269616E676C65732E62696E636660600000504B0304140006080000B670623B00000000
310
0000000000000000370000006662782F45374635344235342D363743322D343832342D383044432D4334454645303536354442422F617474726962757465732E62696E504B0304140006080800B670623B08DA0BD19000000041010000360000006662782F45374635344235342D363743322D343832342D383044432D4334
310
454645303536354442422F6469726563746F72792E786D6C858F410AC3201045AF22B36F53E9A60B35CBEEBAE80D244E44489C6234F4F835464A48035D0DF398FF9F8AF63D0E6CC63039F212F8F9020C7D47C6792B21C5FE7403D62A1188E2E60C98D7234A5830286103A55745067B9D86B8A3CF9C7F90C11DE607FB144396
310
D7B6A82D282E9A152AD114D5EF2CB866EEE831B8EEA07A7BB5A8D7D61A2BAAEB7FD5F70921FF497D00504B0304140006080800B670623B6378F24DFF000000A00100003B0000006662782F45374635344235342D363743322D343832342D383044432D4334454645303536354442422F7265736F75726365732F636F72652E
310
786D6C8D504B6E833010BD0A9A6D65B0094E42641C85B639412F6099496225D8C89FAAC7AF09546A77DDCC8CDE47F3F4C4F16B7C149FE88371B603565228D06A37187BED20C50BD9437194C23B177FC9A0B06AC40E6618A4B87A97A615D2CE46B431A3D60DB8822A048C50E8473E3A08FA86A32A558A5911EEE5A4F45D5DB1
310
6465A6B34E8A107D0E502C4FE609D26370C96B0CA25A58295232C3AA3143FE692E063D485EF7F5AEE71BD2D2F39634AFFC44DAF7DD9E9CCE6F9CD25DCBFA762BAAD92C4534E34F46ED51451C40D694B6843142EB0FD61C283F34FC85EE0F948A6A96FF31A569F8A729191B37F51A77B105902C0779125254735F793DCBCC7B
310
EE567E03504B010214000A0000080000B670623B3DEE336E79000000790000001B00000000000000000000000000000000006175746F6465736B2D64657369676E2D7061636B6167652E786D6C504B01021400140006080800B670623BD486FD9CA0000000F40000001300000000000000000000000000B20000005B436F6E
310
74656E745F54797065735D2E786D6C504B01021400140006080800B670623BBC1638F5EC0000007C010000080000000000000000000000000083010000636F72652E786D6C504B01021400140006080800B670623B55019EA25F0000007C000000070000000000000000000000000095020000636E782E786D6C504B010214
310
00140006080800B670623B3586FFB671010000D40300000C00000000000000000000000000190300006662782F636F72652E786D6C504B01021400140006080800B670623B4220A0FF7D0000009D0000000B00000000000000000000000000B40400006662782F636E782E786D6C504B01021400140006080800B670623B2F
310
A3FEDE290100001202000031000000000000000000000000005A0500006662782F45374635344235342D363743322D343832342D383044432D4334454645303536354442422F636F72652E786D6C504B01021400140006080800B670623B1B8617914E010000330300003000000000000000000000000000D2060000666278
310
2F45374635344235342D363743322D343832342D383044432D4334454645303536354442422F636E782E786D6C504B01021400140006080800B670623B29652116630500003C10000034000000000000000000000000006E0800006662782F45374635344235342D363743322D343832342D383044432D4334454645303536
310
354442422F6F626A656374732E786D6C504B01021400140006080000B670623B0000000000000000000000003500000000000000000000000000230E00006662782F45374635344235342D363743322D343832342D383044432D4334454645303536354442422F76657274696365732E62696E504B01021400140006080800
310
B670623BF270F13306000000040000003600000000000000000000000000760E00006662782F45374635344235342D363743322D343832342D383044432D4334454645303536354442422F747269616E676C65732E62696E504B01021400140006080000B670623B0000000000000000000000003700000000000000000000
310
000000D00E00006662782F45374635344235342D363743322D343832342D383044432D4334454645303536354442422F617474726962757465732E62696E504B01021400140006080800B670623B08DA0BD190000000410100003600000000000000000000000000250F00006662782F45374635344235342D363743322D34
310
3832342D383044432D4334454645303536354442422F6469726563746F72792E786D6C504B01021400140006080800B670623B6378F24DFF000000A00100003B00000000000000000000000000091000006662782F45374635344235342D363743322D343832342D383044432D4334454645303536354442422F7265736F75
310
726365732F636F72652E786D6C504B0506000000000E000E0080040000611100000000
  0
XRECORD
  5
6AF
102
{ACAD_REACTORS
330
110
102
}
330
110
100
AcDbXrecord
280
     1
102
MATERIAL
148
0.0
149
0.0
149
0.0
 93
        0
 94
       63
282
     0
 72
     1
 77
     1
171
     1
175
     1
179
     1
273
     0
  0
XRECORD
  5
112
102
{ACAD_REACTORS
330
110
102
}
330
110
100
AcDbXrecord
280
     1
270
     1
271
     1
  0
XRECORD
  5
111
102
{ACAD_REACTORS
330
110
102
}
330
110
100
AcDbXrecord
280
     1
270
     1
271
     1
  0
XRECORD
  5
18A
102
{ACAD_REACTORS
330
110
102
}
330
110
100
AcDbXrecord
280
     1
 70
     0
 90
1778669749
  1
9BF507EE-FAF7-4A99-A33D-4EE51894BC40
310
504B03040A0000080000B670623B3DEE336E79000000790000001B0000006175746F6465736B2D64657369676E2D7061636B6167652E786D6C3C3F786D6C2076657273696F6E3D22312E302220656E636F64696E673D227574662D3822203F3E3C666F726D6174733E3C666F726D61743E687474703A2F2F736368656D612E
310
6175746F6465736B2E636F6D2F64657369676E2D7061636B6167652F323030393C2F666F726D61743E3C2F666F726D6174733E504B0304140006080800B670623BD486FD9CA0000000F4000000130000005B436F6E74656E745F54797065735D2E786D6C7D8EC10E82300C865F65E91D8A1E8C310C0EEA1BF002731658846E
310
D98AC1B77784ABF1D8FE5FBFBF75BBCE937A534CCEB38643598122B6FEE978D0B0485F9C41B54DDD7D022595594E1A469170414C76A4D9A4D207E29CF43ECE46F218070CC6BECC4078ACAA135ACF422C856C0E68EA1BF5669944DDD7BCDE7B1F8E415D77AECB980613C2E4AC91FC167A2B244592486606FC29C8FD7F045B9A
310
EF7053A7E60B504B0304140006080800B670623BCA089DFFEC0000007C01000008000000636F72652E786D6C8D90416E83301045AF62CDB632D8402020E32882F604BD80653BC44AB011B6AB1EBF262152BBEB6A467FFE9B197D76FA9EEFE84BAFDE38DB03CD08206DA553C64E3DC470C1474027CE56E7C22F1B202B66DDC3
310
260367D3EAE2B24BD2D9A06D48AA754AEFA2F05E0740F29E9A1EBCBCEA59642286E4F0B76C11F226269DD15797E0188D42CF2346A57DE662F40ABCAEC77628C6120F654571D50C04B7F5B9C1E3997CD4F550BE3745C3F20DE62C98F9755FAE5A04AD801784B498524C8A4F5A75E4D055873772EC0861F966FF03C545FD138A
310
C686B2D8DF7D621E384D8F3C069CE55B16A93C824A75CB8DFF00504B0304140006080800B670623B55019EA25F0000007C00000007000000636E782E786D6C4DCB3B0E80201045D1AD90E915ED2CF8AC45050C11660C8261F98AB1B07AC9C97D42D718D865D3E909258CFD00CCE24AC6E326A164D74DC0B4128928FF326038
310
472BA13128B1252AC747C6BAB984FC68F0B87FE8960A5C09FE86CFB69FBA01504B0304140006080800B670623B68FC0B7272010000D40300000C0000006662782F636F72652E786D6CC5535B6E833010BC8AE5DF0A6C1E8124328E22D29EA01770C0A128602363A31CBFCB234A53A555FA553EC09AD9F5CE8C31DB5DDA060D
310
D2F4B556190E7C8A9154852E6B5565D8D993B7C668C799D1DA7E29C3488956667884316795D1AE5BA0422B2B950554E9522EA0E87B69312A1A5864B82F3E642B7CE12C54F467BF13C55954D20F7CA0A18EB3DE1A1080E621E31BF3D3F1C2C88C73E65C5D2E6C5DC2B4FA544B8379921C36797888BC3C8A032F4E73EA6D927D
310
EA1DF6F42D49F2E8350D5346C666CE6CDD5ED515460A2B4BCC434A375E1078347C0FE22D5D6DE3D50B5D6F2965642CBF6B725DF96493AB958DC245EEDCD6631E809089F8E61622B2A81703E8219C913144F84C09DF070D8140C8561C9BAB8F3340832CAC363130A576376A108D933095FA747AD0CF0B46E64E983A6D0EAE1F
310
CE089F9EF1FB8E70D44255604258581E9D1D75B259C3125A278D37D80B52DAB4A279CEC62F0EFF44DDC43F9454E8469BFF5244960322CBEF41C6FBC83F01504B0304140006080800B670623B0F71DDB67E0000009D0000000B0000006662782F636E782E786D6C4DCCD10A83201886E15B91FFDCA54DB73F502386BB8F5816
310
32D3703976F9ABD1C18E3E78F87855FB990379BBFCF2296AE02706C4C5471A7C9C349475A408A4352AA7B4FEDD80C47E761A7606A3A69CCA72D0E0C6BE8475D3E0E3F3409428EA6B27A84079A782899AA2EC1A7AE3ECCC2FD858CB2D544655BFD2B67BD87C01504B0304140006080800B670623BE134B4FB28010000120200
310
00310000006662782F38353834323741342D343835462D343034322D383541392D4331303331363839454531452F636F72652E786D6C8D515B6EC32010BC0AE22B55850D0EA424C24451959EA0172086A42831583CAA1CBF503B52FB971F16CDCECC0EACD8DFC71BF836215AEF7A481A0C817183D7D65D7A98D3197108F652
310
04EFD31F1A044E8DA6871586525C82CFD3020DDE25E352419DD76601558C264130DCCAA58771F832A36A544E8511AFCDA486ABBA988634A55D7852C4144A00300FA927949C71DABD1D28A29C7D208A6987383B6CD13BC16BB2E1DBE3911C453B0BA5C8D9EA456E758963CFD684674DAA588A64C747FC2118958C86B2C3788B
310
0841B8FB247487D98EB257CC77188BB6D2FF89F2A49F1465EBD2BA5BE2CEB2082511EDDC9042FB7CBA3DC298FBE4430275DE2A9AE1054ADC60CC08E3A29D89E5F9C5714317C7987C28DFBBBA9E0A97B0D97643A568EB864AF95D5FA9759BF207504B0304140006080800B670623B1B8617914E010000330300003000000066
310
62782F38353834323741342D343835462D343034322D383541392D4331303331363839454531452F636E782E786D6CD593C16EC32010447F0571AD6CE3D489D20813A9877E410FBD62D82434182CC055F3F75D1292E692438FBD206B7698593D61BEFD1E2DF982108D773D6D6B460938E5B571FB9ECE6957AD29D90A1EBC4F
310
77364A9C1CA1A759A682EF839FA72269D8C9D92654AD71C72206887E0E0A22CAF926B15E498B01E0AA19451807D01A34B919F16B070157417138917400F2F6FA41FCF0092A45DEE414C19BDC21783E4BD39D891265658C3D8DEA00A3ACE59CBC8678ACB54CB26EEB6BD7839D7E9348BE70AD9C8321B9BCA7F9A4A26C542347
310
DEE050F09802D22BA6749A800A394DD62899107273365E3C82CFC6A55557BC06C10774B7ABE7AEC3B0F34CF06446280E154026D0542C187BA9DAB6628BF7B6DBB0E5A65B3EB1F58631DE64BBE083F7B65CC218087E22CABB042E51D1F2268F1FE12B3EA24D40D63E9CFE00120194D60B9D5BC67FE6D39CDF37E20AF817881F
310
504B0304140006080800B670623B5933D422630500003B100000340000006662782F38353834323741342D343835462D343034322D383541392D4331303331363839454531452F6F626A656374732E786D6CAD575B6FA33814FE2B887D0642934E9B156594264D158D3A534DD4D13E548A0C38942D60649B4EBABF7E3F8321
310
40924EF6928780CDF1B97EE762EFF32E4B8D37CA45C2F21BD3B547A641F39045491EDF98A5DC5AD7A6F1D9F73863B243661A39C9E88DA9B64DDF8B392B0BBD15D12D295339D85DDEFE618890E6D434C2940871638AF08566C426A5641115AF764424B1E3EDCE76ED9AB0CF36E6A47819302D08A7B984A6D8CFC1C5A89572FB
310
CB91E9F89EA3BEFB9EFAD754E3D3544E654F5F7E920B49F2F040D880CDD89D2CEE2E2EA7D6E56432B6269F2E5CEB7679BBB0DCABF168FE693E9FCEEEA6102C240727AD09A75BD3BF876F78127A4EFDA9D5582B7E4CA590E5390D2BFB6161A5B3E618D182E611E2985001691DAB47FDA5AB7CD3F93C566B2DB2BB7D9E55DD13
310
1D468DEECDB3AB290BFE8409E21C54704115AA6AFF68436BFC8DF65E0B184BF5B74418199194272435D224E084BF9B3E481589EFF5D828747285706581E9BB7B7E5D5D911ABFC6EE312DB7659A2A689A7E85EC0DF04FA5A8344BFEA2FCB834E8845895492EAFB541F2BDA0A63FF59C6AD3F7D4637CA13FD68E34B629891172
310
98597F1D183A57B9B75A98FE9765B05BAB7C3C2EBCE0ACA05C2AF8005A4DE09AA7F29216EB9E15397500C6F47CBE77CA7778FE2BD277AF0AE2C693DD6437D1522427B9D8329E2136F6A8FA19A3E6C56ADF0E5F50CF06D48734EDCEBF22F69C56D97EC138153F804B85E6FABFC7AFEFB32E523BE1F3BD372418E363EDCA7548
310
52949E8724474014288D94610BB57C1BEC4C7F854A89CA8E5324F55B871CBC78CE1BBEE3BFE68D6A5589EF3C730474506FCFA8FCF0659516D0ED04580EEA6425581B77CAE797FF4BCECC16EB2FEB926F49481F746159D06D922712BD730FDEAE42BD40F42C7AA5EF3F198F60E86110D6DD20645A9480B795CF95E3E3A659A8
310
C55E724F408873315335CFFB8584874484344D494E59D94869DB90C26A5B64F49C802CAC1D3ABE18A098D3B7444D123D8A9E5AE8F5214F0AE5B2B6E9B575DA3E61CBD3EA2B4009FA940524DD1305FB6A1FB294F14DF0BEA90BA109ECE1481FDC3FFAE8D60E75141700BE82725371B4873751B2DD960265F788137FACE6DD40
310
B575E4F0A5C99F46629D92131467A41EE11ABD8D4CCC039CA0AFB37C93A08B232B8F0AEFCA1E0A1015DF13FC83322B362463652ECF71D3A8B1A7D1BE65DE1D62C44F22C317D35F574FEB16153BA2D13E543D10A80E74C4A65E78A6B7CBCBD1D5DD9DB59C2DAFACC96C3AB566E3F1C29ADCDD5DBAD7D3C9ED7C822ED74F80A6
310
41755310DE4443F44A9E68373FADF6596BFA0F440AE7BECE2727AE9F4F2B1B53B1E7E00CF0DD1E5C65454A339A4BA2D0FBA05ED2EF0443458F47BDBFCA484CCFE0F2ED7E3DD0013B679C7B5499467F0ECEEADDB9CA85A34CE44B99053949D2C1416DB85DE4B136BB7165FBAC0B7AB3542BED4F8CA182A549847A1319316519
310
95A83A67147B9E5101C47487F2485F1ECE38FD568F839204296D3479219888530154036E6528FBFBC66F98E0D4107563A2D7D9AFF8D389681A08F58D89F22693900A3B407754734FC51C10C010D6D640809EE4718AC1BA3ED4AEDB53CA37283F68805A7E4B72CEB0A4EDEAD5DD8C14059A76AFAA56BA6901E13F32BC51C720
310
12AF41295B5BF61BAD3195181FB506E6B40F4C10AF5AF40EF9F5B159AE5DD1F43C72D635E94310D45C2D49785C5D0B94D3B54AB3C5A38349C0587D338AB48C11CBF339599C02CCA54A70A008A8D03C0B2201D5F9EFCF8F9CE12A9A19CB0410789EB32C63B95ECCF455D658BFE0621A3DA32C5075FB101723D77DAE867E7D0F
310
D90444509B44E2151B4DC2290B065803200FBAA9BE9D392A0603F2D5C2D00D6302A615680F66D2FA166E2079D4C551A54AB758161FCEFD4E450A14704CECFEDF504B0304140006080000B670623B000000000000000000000000350000006662782F38353834323741342D343835462D343034322D383541392D4331303331
310
363839454531452F76657274696365732E62696E504B0304140006080800B670623BF270F1330600000004000000360000006662782F38353834323741342D343835462D343034322D383541392D4331303331363839454531452F747269616E676C65732E62696E636660600000504B0304140006080000B670623B000000
310
000000000000000000370000006662782F38353834323741342D343835462D343034322D383541392D4331303331363839454531452F617474726962757465732E62696E504B0304140006080800B670623B08DA0BD19000000041010000360000006662782F38353834323741342D343835462D343034322D383541392D43
310
31303331363839454531452F6469726563746F72792E786D6C858F410AC3201045AF22B36F53E9A60B35CBEEBAE80D244E44489C6234F4F835464A48035D0DF398FF9F8AF63D0E6CC63039F212F8F9020C7D47C6792B21C5FE7403D62A1188E2E60C98D7234A5830286103A55745067B9D86B8A3CF9C7F90C11DE607FB1443
310
96D7B6A82D282E9A152AD114D5EF2CB866EEE831B8EEA07A7BB5A8D7D61A2BAAEB7FD5F70921FF497D00504B0304140006080800B670623BD9A3B367FE000000A00100003B0000006662782F38353834323741342D343835462D343034322D383541392D4331303331363839454531452F7265736F75726365732F636F7265
310
2E786D6C8D504B6E833010BD0A9A6D65B01D0201194711694FD00B586642AD043BF2A7EAF16B122AB5BB6E6646EFA3797AE2F8B5DC8A4FF4C1383B002B291468B59B8C9D0748F1420E501CA5F0CEC55F3228AC5A708015062966EFD27D83B4B3116DCCA875136EA00A012314FA968F0182FEC045952AC5AC08D7F2AEF455CD
310
58B232D3592745883E07289E4FD609D26370C96B0CA27AB252A464A64D63A6FCD35C0C7A904D73EE467EE664DCD58CD4ED4849D79C5A723ED1B7A61977AF2D6F45B59AA58866F9C9A83DAA8813484E6947182394BFB3BAA7FBBEDEBFD0434FA9A856F91F53BA4FFF342563E38E6F719FB60092E5200F428A6AED2BAF479979
310
AFDDCA6F504B010214000A0000080000B670623B3DEE336E79000000790000001B00000000000000000000000000000000006175746F6465736B2D64657369676E2D7061636B6167652E786D6C504B01021400140006080800B670623BD486FD9CA0000000F40000001300000000000000000000000000B20000005B436F6E
310
74656E745F54797065735D2E786D6C504B01021400140006080800B670623BCA089DFFEC0000007C010000080000000000000000000000000083010000636F72652E786D6C504B01021400140006080800B670623B55019EA25F0000007C000000070000000000000000000000000095020000636E782E786D6C504B010214
310
00140006080800B670623B68FC0B7272010000D40300000C00000000000000000000000000190300006662782F636F72652E786D6C504B01021400140006080800B670623B0F71DDB67E0000009D0000000B00000000000000000000000000B50400006662782F636E782E786D6C504B01021400140006080800B670623BE1
310
34B4FB280100001202000031000000000000000000000000005C0500006662782F38353834323741342D343835462D343034322D383541392D4331303331363839454531452F636F72652E786D6C504B01021400140006080800B670623B1B8617914E010000330300003000000000000000000000000000D3060000666278
310
2F38353834323741342D343835462D343034322D383541392D4331303331363839454531452F636E782E786D6C504B01021400140006080800B670623B5933D422630500003B10000034000000000000000000000000006F0800006662782F38353834323741342D343835462D343034322D383541392D4331303331363839
310
454531452F6F626A656374732E786D6C504B01021400140006080000B670623B0000000000000000000000003500000000000000000000000000240E00006662782F38353834323741342D343835462D343034322D383541392D4331303331363839454531452F76657274696365732E62696E504B01021400140006080800
310
B670623BF270F13306000000040000003600000000000000000000000000770E00006662782F38353834323741342D343835462D343034322D383541392D4331303331363839454531452F747269616E676C65732E62696E504B01021400140006080000B670623B0000000000000000000000003700000000000000000000
310
000000D10E00006662782F38353834323741342D343835462D343034322D383541392D4331303331363839454531452F617474726962757465732E62696E504B01021400140006080800B670623B08DA0BD190000000410100003600000000000000000000000000260F00006662782F38353834323741342D343835462D34
310
3034322D383541392D4331303331363839454531452F6469726563746F72792E786D6C504B01021400140006080800B670623BD9A3B367FE000000A00100003B000000000000000000000000000A1000006662782F38353834323741342D343835462D343034322D383541392D4331303331363839454531452F7265736F75
310
726365732F636F72652E786D6C504B0506000000000E000E0080040000611100000000
  0
XRECORD
  5
113
102
{ACAD_REACTORS
330
110
102
}
330
110
100
AcDbXrecord
280
     1
270
     1
271
     1
  0
XRECORD
  5
114
102
{ACAD_REACTORS
330
110
102
}
330
110
100
AcDbXrecord
280
     1
270
     1
271
     1
  0
CELLSTYLEMAP
  5
69C
102
{ACAD_REACTORS
330
104
102
}
330
104
100
AcDbCellStyleMap
 90
        3
300
CELLSTYLE
  1
TABLEFORMAT_BEGIN
 90
        5
170
     1
 91
        0
 92
    32768
 62
   257
 93
        1
300
CONTENTFORMAT
  1
CONTENTFORMAT_BEGIN
 90
        0
 91
        0
 92
      512
 93
        0
300

 40
0.0
140
1.0
 94
        5
 62
     0
340
11
144
0.25
309
CONTENTFORMAT_END
171
     1
301
MARGIN
  1
CELLMARGIN_BEGIN
 40
0.06
 40
0.06
 40
0.06
 40
0.06
 40
0.18
 40
0.18
309
CELLMARGIN_END
 94
        6
 95
        1
302
GRIDFORMAT
  1
GRIDFORMAT_BEGIN
 90
        0
 91
        1
 62
     0
 92
       -2
340
0
 93
        0
 40
0.045
309
GRIDFORMAT_END
 95
        2
302
GRIDFORMAT
  1
GRIDFORMAT_BEGIN
 90
        0
 91
        1
 62
     0
 92
       -2
340
0
 93
        0
 40
0.045
309
GRIDFORMAT_END
 95
        4
302
GRIDFORMAT
  1
GRIDFORMAT_BEGIN
 90
        0
 91
        1
 62
     0
 92
       -2
340
0
 93
        0
 40
0.045
309
GRIDFORMAT_END
 95
        8
302
GRIDFORMAT
  1
GRIDFORMAT_BEGIN
 90
        0
 91
        1
 62
     0
 92
       -2
340
0
 93
        0
 40
0.045
309
GRIDFORMAT_END
 95
       16
302
GRIDFORMAT
  1
GRIDFORMAT_BEGIN
 90
        0
 91
        1
 62
     0
 92
       -2
340
0
 93
        0
 40
0.045
309
GRIDFORMAT_END
 95
       32
302
GRIDFORMAT
  1
GRIDFORMAT_BEGIN
 90
        0
 91
        1
 62
     0
 92
       -2
340
0
 93
        0
 40
0.045
309
GRIDFORMAT_END
309
TABLEFORMAT_END
  1
CELLSTYLE_BEGIN
 90
        1
 91
        1
300
_TITLE
309
CELLSTYLE_END
300
CELLSTYLE
  1
TABLEFORMAT_BEGIN
 90
        5
170
     1
 91
        0
 92
        0
 62
   257
 93
        1
300
CONTENTFORMAT
  1
CONTENTFORMAT_BEGIN
 90
        0
 91
        0
 92
      512
 93
        0
300

 40
0.0
140
1.0
 94
        5
 62
     0
340
11
144
0.18
309
CONTENTFORMAT_END
171
     1
301
MARGIN
  1
CELLMARGIN_BEGIN
 40
0.06
 40
0.06
 40
0.06
 40
0.06
 40
0.18
 40
0.18
309
CELLMARGIN_END
 94
        6
 95
        1
302
GRIDFORMAT
  1
GRIDFORMAT_BEGIN
 90
        0
 91
        1
 62
     0
 92
       -2
340
0
 93
        0
 40
0.045
309
GRIDFORMAT_END
 95
        2
302
GRIDFORMAT
  1
GRIDFORMAT_BEGIN
 90
        0
 91
        1
 62
     0
 92
       -2
340
0
 93
        0
 40
0.045
309
GRIDFORMAT_END
 95
        4
302
GRIDFORMAT
  1
GRIDFORMAT_BEGIN
 90
        0
 91
        1
 62
     0
 92
       -2
340
0
 93
        0
 40
0.045
309
GRIDFORMAT_END
 95
        8
302
GRIDFORMAT
  1
GRIDFORMAT_BEGIN
 90
        0
 91
        1
 62
     0
 92
       -2
340
0
 93
        0
 40
0.045
309
GRIDFORMAT_END
 95
       16
302
GRIDFORMAT
  1
GRIDFORMAT_BEGIN
 90
        0
 91
        1
 62
     0
 92
       -2
340
0
 93
        0
 40
0.045
309
GRIDFORMAT_END
 95
       32
302
GRIDFORMAT
  1
GRIDFORMAT_BEGIN
 90
        0
 91
        1
 62
     0
 92
       -2
340
0
 93
        0
 40
0.045
309
GRIDFORMAT_END
309
TABLEFORMAT_END
  1
CELLSTYLE_BEGIN
 90
        2
 91
        1
300
_HEADER
309
CELLSTYLE_END
300
CELLSTYLE
  1
TABLEFORMAT_BEGIN
 90
        5
170
     1
 91
        0
 92
        0
 62
   257
 93
        1
300
CONTENTFORMAT
  1
CONTENTFORMAT_BEGIN
 90
        0
 91
        0
 92
      512
 93
        0
300

 40
0.0
140
1.0
 94
        2
 62
     0
340
11
144
0.18
309
CONTENTFORMAT_END
171
     1
301
MARGIN
  1
CELLMARGIN_BEGIN
 40
0.06
 40
0.06
 40
0.06
 40
0.06
 40
0.18
 40
0.18
309
CELLMARGIN_END
 94
        6
 95
        1
302
GRIDFORMAT
  1
GRIDFORMAT_BEGIN
 90
        0
 91
        1
 62
     0
 92
       -2
340
0
 93
        0
 40
0.045
309
GRIDFORMAT_END
 95
        2
302
GRIDFORMAT
  1
GRIDFORMAT_BEGIN
 90
        0
 91
        1
 62
     0
 92
       -2
340
0
 93
        0
 40
0.045
309
GRIDFORMAT_END
 95
        4
302
GRIDFORMAT
  1
GRIDFORMAT_BEGIN
 90
        0
 91
        1
 62
     0
 92
       -2
340
0
 93
        0
 40
0.045
309
GRIDFORMAT_END
 95
        8
302
GRIDFORMAT
  1
GRIDFORMAT_BEGIN
 90
        0
 91
        1
 62
     0
 92
       -2
340
0
 93
        0
 40
0.045
309
GRIDFORMAT_END
 95
       16
302
GRIDFORMAT
  1
GRIDFORMAT_BEGIN
 90
        0
 91
        1
 62
     0
 92
       -2
340
0
 93
        0
 40
0.045
309
GRIDFORMAT_END
 95
       32
302
GRIDFORMAT
  1
GRIDFORMAT_BEGIN
 90
        0
 91
        1
 62
     0
 92
       -2
340
0
 93
        0
 40
0.045
309
GRIDFORMAT_END
309
TABLEFORMAT_END
  1
CELLSTYLE_BEGIN
 90
        3
 91
        2
300
_DATA
309
CELLSTYLE_END
  0
XRECORD
  5
6AC
102
{ACAD_REACTORS
330
104
102
}
330
104
100
AcDbXrecord
280
     1
102
ACAD_ROUNDTRIP_PRE2007_TABLESTYLE
 90
      512
 91
        0
  1

 92
      512
 93
        0
  2

 94
      512
 95
        0
  3

  0
XRECORD
  5
6BB
102
{ACAD_REACTORS
330
6BA
102
}
330
6BA
100
AcDbXrecord
280
     1
102
RTVSPost2010Prop28
280
     1
102
RTVSPost2010PropOp28
 70
     1
102
RTVSPost2010Prop29
280
     1
102
RTVSPost2010PropOp29
 70
     1
102
RTVSPost2010Prop30
280
     0
102
RTVSPost2010PropOp30
 70
     1
102
RTVSPost2010Prop31
280
     0
102
RTVSPost2010PropOp31
 70
     1
102
RTVSPost2010Prop32
280
     0
102
RTVSPost2010PropOp32
 70
     1
102
RTVSPost2010Prop33
280
     0
102
RTVSPost2010PropOp33
 70
     1
102
RTVSPost2010Prop34
280
     0
102
RTVSPost2010PropOp34
 70
     1
102
RTVSPost2010Prop35
280
     0
102
RTVSPost2010PropOp35
 70
     1
102
RTVSPost2010Prop36
280
     0
102
RTVSPost2010PropOp36
 70
     1
102
RTVSPost2010Prop37
 90
       50
102
RTVSPost2010PropOp37
 70
     1
102
RTVSPost2010Prop38
140
0.0
102
RTVSPost2010PropOp38
 70
     1
102
RTVSPost2010Prop39
140
1.0
102
RTVSPost2010PropOp39
 70
     1
102
RTVSPost2010Prop40
 90
        0
102
RTVSPost2010PropOp40
 70
     1
102
RTVSPost2010Prop41ColorIndex
 90
       18
102
RTVSPost2010Prop41ColorRGB
 90
        0
102
RTVSPost2010PropOp41
 70
     1
102
RTVSPost2010Prop42
 90
       50
102
RTVSPost2010PropOp42
 70
     1
102
RTVSPost2010Prop43
 90
        3
102
RTVSPost2010PropOp43
 70
     1
102
RTVSPost2010Prop44ColorIndex
 90
        5
102
RTVSPost2010Prop44ColorRGB
 90
      255
102
RTVSPost2010PropOp44
 70
     1
102
RTVSPost2010Prop45
280
     0
102
RTVSPost2010PropOp45
 70
     1
102
RTVSPost2010Prop46
 90
       50
102
RTVSPost2010PropOp46
 70
     1
102
RTVSPost2010Prop47
 90
       50
102
RTVSPost2010PropOp47
 70
     1
102
RTVSPost2010Prop48
 90
       50
102
RTVSPost2010PropOp48
 70
     1
102
RTVSPost2010Prop49
280
     0
102
RTVSPost2010PropOp49
 70
     1
102
RTVSPost2010Prop50
 90
       50
102
RTVSPost2010PropOp50
 70
     1
102
RTVSPost2010Prop51ColorIndex
 90
      256
102
RTVSPost2010Prop51ColorRGB
 90
-16777216
102
RTVSPost2010PropOp51
 70
     0
102
RTVSPost2010Prop52
140
1.0
102
RTVSPost2010PropOp52
 70
     0
102
RTVSPost2010Prop53
 90
        2
102
RTVSPost2010PropOp53
 70
     1
102
RTVSPost2010Prop54
  1
strokes_ogs.tif
102
RTVSPost2010PropOp54
 70
     1
102
RTVSPost2010Prop55
280
     0
102
RTVSPost2010PropOp55
 70
     1
102
RTVSPost2010Prop56
140
1.0
102
RTVSPost2010PropOp56
 70
     1
102
RTVSPost2010Prop57
140
1.0
102
RTVSPost2010PropOp57
 70
     1
102
RTVSPropertyOp0
 70
     1
102
RTVSPropertyOp1
 70
     1
102
RTVSPropertyOp2
 70
     1
102
RTVSPropertyOp3
 70
     1
102
RTVSPropertyOp4
 70
     1
102
RTVSPropertyOp5
 70
     1
102
RTVSPropertyOp6
 70
     1
102
RTVSPropertyOp7
 70
     1
102
RTVSPropertyOp8
 70
     1
102
RTVSPropertyOp9
 70
     1
102
RTVSPropertyOp10
 70
     1
102
RTVSPropertyOp11
 70
     1
102
RTVSPropertyOp12
 70
     1
102
RTVSPropertyOp13
 70
     1
102
RTVSPropertyOp14
 70
     1
102
RTVSPropertyOp15
 70
     1
102
RTVSPropertyOp16
 70
     1
102
RTVSPropertyOp17
 70
     1
102
RTVSPropertyOp18
 70
     1
102
RTVSPropertyOp19
 70
     1
102
RTVSPropertyOp20
 70
     1
102
RTVSPropertyOp21
 70
     1
102
RTVSPropertyOp22
 70
     1
102
RTVSPropertyOp23
 70
     1
102
RTVSPropertyOp24
 70
     1
102
RTVSPropertyOp25
 70
     1
102
RTVSPropertyOp26
 70
     1
102
RTVSPropertyOp27
 70
     1
102
RTVSPropertyOp28
 70
     1
102
RTVSPropertyOp29
 70
     1
102
RTVSPropertyOp30
 70
     1
102
RTVSPropertyOp31
 70
     1
102
RTVSPropertyOp32
 70
     1
102
RTVSPropertyOp33
 70
     1
102
RTVSPropertyOp34
 70
     1
102
RTVSPropertyOp35
 70
     1
102
RTVSPropertyOp36
 70
     1
102
RTVSPropertyOp37
 70
     1
102
RTVSPropertyOp38
 70
     1
102
RTVSPropertyOp39
 70
     1
102
RTVSPropertyOp40
 70
     1
102
RTVSPropertyOp41
 70
     1
102
RTVSPropertyOp42
 70
     1
102
RTVSPropertyOp43
 70
     1
102
RTVSPropertyOp44
 70
     1
102
RTVSPropertyOp45
 70
     1
102
RTVSPropertyOp46
 70
     1
102
RTVSPropertyOp47
 70
     1
102
RTVSPropertyOp48
 70
     1
102
RTVSPropertyOp49
 70
     1
102
RTVSPropertyOp50
 70
     1
102
RTVSPropertyOp51
 70
     0
102
RTVSPropertyOp52
 70
     0
102
RTVSPropertyOp53
 70
     1
102
RTVSPropertyOp54
 70
     1
102
RTVSPropertyOp55
 70
     1
102
RTVSPropertyOp56
 70
     1
102
RTVSPropertyOp57
 70
     1
102
RTVSPropertyOp58
 70
     1
102
RTVSPropertyOp59
 70
     1
102
RTVSPropertyOp60
 70
     1
102
RTVSPropertyOp61
 70
     1
102
RTVSPropertyOp62
 70
     1
  0
XRECORD
  5
6B9
102
{ACAD_REACTORS
330
6B8
102
}
330
6B8
100
AcDbXrecord
280
     1
102
RTVSPost2010Prop28
280
     0
102
RTVSPost2010PropOp28
 70
     1
102
RTVSPost2010Prop29
280
     1
102
RTVSPost2010PropOp29
 70
     1
102
RTVSPost2010Prop30
280
     1
102
RTVSPost2010PropOp30
 70
     1
102
RTVSPost2010Prop31
280
     0
102
RTVSPost2010PropOp31
 70
     1
102
RTVSPost2010Prop32
280
     0
102
RTVSPost2010PropOp32
 70
     1
102
RTVSPost2010Prop33
280
     0
102
RTVSPost2010PropOp33
 70
     1
102
RTVSPost2010Prop34
280
     0
102
RTVSPost2010PropOp34
 70
     1
102
RTVSPost2010Prop35
280
     0
102
RTVSPost2010PropOp35
 70
     1
102
RTVSPost2010Prop36
280
     0
102
RTVSPost2010PropOp36
 70
     1
102
RTVSPost2010Prop37
 90
       50
102
RTVSPost2010PropOp37
 70
     1
102
RTVSPost2010Prop38
140
0.0
102
RTVSPost2010PropOp38
 70
     1
102
RTVSPost2010Prop39
140
1.0
102
RTVSPost2010PropOp39
 70
     1
102
RTVSPost2010Prop40
 90
        0
102
RTVSPost2010PropOp40
 70
     1
102
RTVSPost2010Prop41ColorIndex
 90
       18
102
RTVSPost2010Prop41ColorRGB
 90
        0
102
RTVSPost2010PropOp41
 70
     1
102
RTVSPost2010Prop42
 90
       50
102
RTVSPost2010PropOp42
 70
     1
102
RTVSPost2010Prop43
 90
        3
102
RTVSPost2010PropOp43
 70
     1
102
RTVSPost2010Prop44ColorIndex
 90
        5
102
RTVSPost2010Prop44ColorRGB
 90
      255
102
RTVSPost2010PropOp44
 70
     1
102
RTVSPost2010Prop45
280
     0
102
RTVSPost2010PropOp45
 70
     1
102
RTVSPost2010Prop46
 90
       50
102
RTVSPost2010PropOp46
 70
     1
102
RTVSPost2010Prop47
 90
       50
102
RTVSPost2010PropOp47
 70
     1
102
RTVSPost2010Prop48
 90
       50
102
RTVSPost2010PropOp48
 70
     1
102
RTVSPost2010Prop49
280
     0
102
RTVSPost2010PropOp49
 70
     1
102
RTVSPost2010Prop50
 90
       50
102
RTVSPost2010PropOp50
 70
     1
102
RTVSPost2010Prop51ColorIndex
 90
      256
102
RTVSPost2010Prop51ColorRGB
 90
-16777216
102
RTVSPost2010PropOp51
 70
     0
102
RTVSPost2010Prop52
140
1.0
102
RTVSPost2010PropOp52
 70
     0
102
RTVSPost2010Prop53
 90
        2
102
RTVSPost2010PropOp53
 70
     1
102
RTVSPost2010Prop54
  1
strokes_ogs.tif
102
RTVSPost2010PropOp54
 70
     1
102
RTVSPost2010Prop55
280
     0
102
RTVSPost2010PropOp55
 70
     1
102
RTVSPost2010Prop56
140
1.0
102
RTVSPost2010PropOp56
 70
     1
102
RTVSPost2010Prop57
140
1.0
102
RTVSPost2010PropOp57
 70
     1
102
RTVSPropertyOp0
 70
     1
102
RTVSPropertyOp1
 70
     1
102
RTVSPropertyOp2
 70
     1
102
RTVSPropertyOp3
 70
     1
102
RTVSPropertyOp4
 70
     1
102
RTVSPropertyOp5
 70
     1
102
RTVSPropertyOp6
 70
     1
102
RTVSPropertyOp7
 70
     1
102
RTVSPropertyOp8
 70
     1
102
RTVSPropertyOp9
 70
     1
102
RTVSPropertyOp10
 70
     1
102
RTVSPropertyOp11
 70
     1
102
RTVSPropertyOp12
 70
     1
102
RTVSPropertyOp13
 70
     1
102
RTVSPropertyOp14
 70
     1
102
RTVSPropertyOp15
 70
     1
102
RTVSPropertyOp16
 70
     1
102
RTVSPropertyOp17
 70
     1
102
RTVSPropertyOp18
 70
     1
102
RTVSPropertyOp19
 70
     1
102
RTVSPropertyOp20
 70
     1
102
RTVSPropertyOp21
 70
     1
102
RTVSPropertyOp22
 70
     1
102
RTVSPropertyOp23
 70
     1
102
RTVSPropertyOp24
 70
     1
102
RTVSPropertyOp25
 70
     1
102
RTVSPropertyOp26
 70
     1
102
RTVSPropertyOp27
 70
     1
102
RTVSPropertyOp28
 70
     1
102
RTVSPropertyOp29
 70
     1
102
RTVSPropertyOp30
 70
     1
102
RTVSPropertyOp31
 70
     1
102
RTVSPropertyOp32
 70
     1
102
RTVSPropertyOp33
 70
     1
102
RTVSPropertyOp34
 70
     1
102
RTVSPropertyOp35
 70
     1
102
RTVSPropertyOp36
 70
     1
102
RTVSPropertyOp37
 70
     1
102
RTVSPropertyOp38
 70
     1
102
RTVSPropertyOp39
 70
     1
102
RTVSPropertyOp40
 70
     1
102
RTVSPropertyOp41
 70
     1
102
RTVSPropertyOp42
 70
     1
102
RTVSPropertyOp43
 70
     1
102
RTVSPropertyOp44
 70
     1
102
RTVSPropertyOp45
 70
     1
102
RTVSPropertyOp46
 70
     1
102
RTVSPropertyOp47
 70
     1
102
RTVSPropertyOp48
 70
     1
102
RTVSPropertyOp49
 70
     1
102
RTVSPropertyOp50
 70
     1
102
RTVSPropertyOp51
 70
     0
102
RTVSPropertyOp52
 70
     0
102
RTVSPropertyOp53
 70
     1
102
RTVSPropertyOp54
 70
     1
102
RTVSPropertyOp55
 70
     1
102
RTVSPropertyOp56
 70
     1
102
RTVSPropertyOp57
 70
     1
102
RTVSPropertyOp58
 70
     1
102
RTVSPropertyOp59
 70
     1
102
RTVSPropertyOp60
 70
     1
102
RTVSPropertyOp61
 70
     1
102
RTVSPropertyOp62
 70
     1
  0
XRECORD
  5
6C7
102
{ACAD_REACTORS
330
6C6
102
}
330
6C6
100
AcDbXrecord
280
     1
102
RTVSPost2010Prop28
280
     0
102
RTVSPost2010PropOp28
 70
     1
102
RTVSPost2010Prop29
280
     1
102
RTVSPost2010PropOp29
 70
     1
102
RTVSPost2010Prop30
280
     1
102
RTVSPost2010PropOp30
 70
     1
102
RTVSPost2010Prop31
280
     0
102
RTVSPost2010PropOp31
 70
     1
102
RTVSPost2010Prop32
280
     0
102
RTVSPost2010PropOp32
 70
     1
102
RTVSPost2010Prop33
280
     0
102
RTVSPost2010PropOp33
 70
     1
102
RTVSPost2010Prop34
280
     0
102
RTVSPost2010PropOp34
 70
     1
102
RTVSPost2010Prop35
280
     0
102
RTVSPost2010PropOp35
 70
     1
102
RTVSPost2010Prop36
280
     0
102
RTVSPost2010PropOp36
 70
     1
102
RTVSPost2010Prop37
 90
       50
102
RTVSPost2010PropOp37
 70
     1
102
RTVSPost2010Prop38
140
0.0
102
RTVSPost2010PropOp38
 70
     1
102
RTVSPost2010Prop39
140
1.0
102
RTVSPost2010PropOp39
 70
     1
102
RTVSPost2010Prop40
 90
        0
102
RTVSPost2010PropOp40
 70
     1
102
RTVSPost2010Prop41ColorIndex
 90
       18
102
RTVSPost2010Prop41ColorRGB
 90
        0
102
RTVSPost2010PropOp41
 70
     1
102
RTVSPost2010Prop42
 90
       50
102
RTVSPost2010PropOp42
 70
     1
102
RTVSPost2010Prop43
 90
        3
102
RTVSPost2010PropOp43
 70
     1
102
RTVSPost2010Prop44ColorIndex
 90
        5
102
RTVSPost2010Prop44ColorRGB
 90
      255
102
RTVSPost2010PropOp44
 70
     1
102
RTVSPost2010Prop45
280
     0
102
RTVSPost2010PropOp45
 70
     1
102
RTVSPost2010Prop46
 90
       50
102
RTVSPost2010PropOp46
 70
     1
102
RTVSPost2010Prop47
 90
       50
102
RTVSPost2010PropOp47
 70
     1
102
RTVSPost2010Prop48
 90
       50
102
RTVSPost2010PropOp48
 70
     1
102
RTVSPost2010Prop49
280
     0
102
RTVSPost2010PropOp49
 70
     1
102
RTVSPost2010Prop50
 90
       50
102
RTVSPost2010PropOp50
 70
     1
102
RTVSPost2010Prop51ColorIndex
 90
      256
102
RTVSPost2010Prop51ColorRGB
 90
-16777216
102
RTVSPost2010PropOp51
 70
     0
102
RTVSPost2010Prop52
140
1.0
102
RTVSPost2010PropOp52
 70
     0
102
RTVSPost2010Prop53
 90
        2
102
RTVSPost2010PropOp53
 70
     1
102
RTVSPost2010Prop54
  1
strokes_ogs.tif
102
RTVSPost2010PropOp54
 70
     1
102
RTVSPost2010Prop55
280
     0
102
RTVSPost2010PropOp55
 70
     1
102
RTVSPost2010Prop56
140
1.0
102
RTVSPost2010PropOp56
 70
     1
102
RTVSPost2010Prop57
140
1.0
102
RTVSPost2010PropOp57
 70
     1
102
RTVSPropertyOp0
 70
     1
102
RTVSPropertyOp1
 70
     1
102
RTVSPropertyOp2
 70
     1
102
RTVSPropertyOp3
 70
     1
102
RTVSPropertyOp4
 70
     1
102
RTVSPropertyOp5
 70
     1
102
RTVSPropertyOp6
 70
     1
102
RTVSPropertyOp7
 70
     1
102
RTVSPropertyOp8
 70
     1
102
RTVSPropertyOp9
 70
     1
102
RTVSPropertyOp10
 70
     1
102
RTVSPropertyOp11
 70
     1
102
RTVSPropertyOp12
 70
     1
102
RTVSPropertyOp13
 70
     1
102
RTVSPropertyOp14
 70
     1
102
RTVSPropertyOp15
 70
     1
102
RTVSPropertyOp16
 70
     1
102
RTVSPropertyOp17
 70
     1
102
RTVSPropertyOp18
 70
     1
102
RTVSPropertyOp19
 70
     1
102
RTVSPropertyOp20
 70
     1
102
RTVSPropertyOp21
 70
     1
102
RTVSPropertyOp22
 70
     1
102
RTVSPropertyOp23
 70
     1
102
RTVSPropertyOp24
 70
     1
102
RTVSPropertyOp25
 70
     1
102
RTVSPropertyOp26
 70
     1
102
RTVSPropertyOp27
 70
     1
102
RTVSPropertyOp28
 70
     1
102
RTVSPropertyOp29
 70
     1
102
RTVSPropertyOp30
 70
     1
102
RTVSPropertyOp31
 70
     1
102
RTVSPropertyOp32
 70
     1
102
RTVSPropertyOp33
 70
     1
102
RTVSPropertyOp34
 70
     1
102
RTVSPropertyOp35
 70
     1
102
RTVSPropertyOp36
 70
     1
102
RTVSPropertyOp37
 70
     1
102
RTVSPropertyOp38
 70
     1
102
RTVSPropertyOp39
 70
     1
102
RTVSPropertyOp40
 70
     1
102
RTVSPropertyOp41
 70
     1
102
RTVSPropertyOp42
 70
     1
102
RTVSPropertyOp43
 70
     1
102
RTVSPropertyOp44
 70
     1
102
RTVSPropertyOp45
 70
     1
102
RTVSPropertyOp46
 70
     1
102
RTVSPropertyOp47
 70
     1
102
RTVSPropertyOp48
 70
     1
102
RTVSPropertyOp49
 70
     1
102
RTVSPropertyOp50
 70
     1
102
RTVSPropertyOp51
 70
     0
102
RTVSPropertyOp52
 70
     0
102
RTVSPropertyOp53
 70
     1
102
RTVSPropertyOp54
 70
     1
102
RTVSPropertyOp55
 70
     1
102
RTVSPropertyOp56
 70
     1
102
RTVSPropertyOp57
 70
     1
102
RTVSPropertyOp58
 70
     1
102
RTVSPropertyOp59
 70
     1
102
RTVSPropertyOp60
 70
     1
102
RTVSPropertyOp61
 70
     1
102
RTVSPropertyOp62
 70
     1
  0
XRECORD
  5
6CF
102
{ACAD_REACTORS
330
6CE
102
}
330
6CE
100
AcDbXrecord
280
     1
102
RTVSPost2010Prop28
280
     0
102
RTVSPost2010PropOp28
 70
     1
102
RTVSPost2010Prop29
280
     1
102
RTVSPost2010PropOp29
 70
     1
102
RTVSPost2010Prop30
280
     1
102
RTVSPost2010PropOp30
 70
     1
102
RTVSPost2010Prop31
280
     0
102
RTVSPost2010PropOp31
 70
     1
102
RTVSPost2010Prop32
280
     0
102
RTVSPost2010PropOp32
 70
     1
102
RTVSPost2010Prop33
280
     0
102
RTVSPost2010PropOp33
 70
     1
102
RTVSPost2010Prop34
280
     0
102
RTVSPost2010PropOp34
 70
     1
102
RTVSPost2010Prop35
280
     0
102
RTVSPost2010PropOp35
 70
     1
102
RTVSPost2010Prop36
280
     0
102
RTVSPost2010PropOp36
 70
     1
102
RTVSPost2010Prop37
 90
       50
102
RTVSPost2010PropOp37
 70
     1
102
RTVSPost2010Prop38
140
0.0
102
RTVSPost2010PropOp38
 70
     1
102
RTVSPost2010Prop39
140
1.0
102
RTVSPost2010PropOp39
 70
     1
102
RTVSPost2010Prop40
 90
        0
102
RTVSPost2010PropOp40
 70
     1
102
RTVSPost2010Prop41ColorIndex
 90
       18
102
RTVSPost2010Prop41ColorRGB
 90
        0
102
RTVSPost2010PropOp41
 70
     1
102
RTVSPost2010Prop42
 90
       50
102
RTVSPost2010PropOp42
 70
     1
102
RTVSPost2010Prop43
 90
        3
102
RTVSPost2010PropOp43
 70
     1
102
RTVSPost2010Prop44ColorIndex
 90
        5
102
RTVSPost2010Prop44ColorRGB
 90
      255
102
RTVSPost2010PropOp44
 70
     1
102
RTVSPost2010Prop45
280
     0
102
RTVSPost2010PropOp45
 70
     1
102
RTVSPost2010Prop46
 90
       50
102
RTVSPost2010PropOp46
 70
     1
102
RTVSPost2010Prop47
 90
       50
102
RTVSPost2010PropOp47
 70
     1
102
RTVSPost2010Prop48
 90
       50
102
RTVSPost2010PropOp48
 70
     1
102
RTVSPost2010Prop49
280
     0
102
RTVSPost2010PropOp49
 70
     1
102
RTVSPost2010Prop50
 90
       50
102
RTVSPost2010PropOp50
 70
     1
102
RTVSPost2010Prop51ColorIndex
 90
      256
102
RTVSPost2010Prop51ColorRGB
 90
-16777216
102
RTVSPost2010PropOp51
 70
     0
102
RTVSPost2010Prop52
140
1.0
102
RTVSPost2010PropOp52
 70
     0
102
RTVSPost2010Prop53
 90
        2
102
RTVSPost2010PropOp53
 70
     1
102
RTVSPost2010Prop54
  1
strokes_ogs.tif
102
RTVSPost2010PropOp54
 70
     1
102
RTVSPost2010Prop55
280
     0
102
RTVSPost2010PropOp55
 70
     1
102
RTVSPost2010Prop56
140
1.0
102
RTVSPost2010PropOp56
 70
     1
102
RTVSPost2010Prop57
140
1.0
102
RTVSPost2010PropOp57
 70
     1
102
RTVSPropertyOp0
 70
     1
102
RTVSPropertyOp1
 70
     1
102
RTVSPropertyOp2
 70
     1
102
RTVSPropertyOp3
 70
     1
102
RTVSPropertyOp4
 70
     1
102
RTVSPropertyOp5
 70
     1
102
RTVSPropertyOp6
 70
     1
102
RTVSPropertyOp7
 70
     1
102
RTVSPropertyOp8
 70
     1
102
RTVSPropertyOp9
 70
     1
102
RTVSPropertyOp10
 70
     1
102
RTVSPropertyOp11
 70
     1
102
RTVSPropertyOp12
 70
     1
102
RTVSPropertyOp13
 70
     1
102
RTVSPropertyOp14
 70
     1
102
RTVSPropertyOp15
 70
     1
102
RTVSPropertyOp16
 70
     1
102
RTVSPropertyOp17
 70
     1
102
RTVSPropertyOp18
 70
     1
102
RTVSPropertyOp19
 70
     1
102
RTVSPropertyOp20
 70
     1
102
RTVSPropertyOp21
 70
     1
102
RTVSPropertyOp22
 70
     1
102
RTVSPropertyOp23
 70
     1
102
RTVSPropertyOp24
 70
     1
102
RTVSPropertyOp25
 70
     1
102
RTVSPropertyOp26
 70
     1
102
RTVSPropertyOp27
 70
     1
102
RTVSPropertyOp28
 70
     1
102
RTVSPropertyOp29
 70
     1
102
RTVSPropertyOp30
 70
     1
102
RTVSPropertyOp31
 70
     1
102
RTVSPropertyOp32
 70
     1
102
RTVSPropertyOp33
 70
     1
102
RTVSPropertyOp34
 70
     1
102
RTVSPropertyOp35
 70
     1
102
RTVSPropertyOp36
 70
     1
102
RTVSPropertyOp37
 70
     1
102
RTVSPropertyOp38
 70
     1
102
RTVSPropertyOp39
 70
     1
102
RTVSPropertyOp40
 70
     1
102
RTVSPropertyOp41
 70
     1
102
RTVSPropertyOp42
 70
     1
102
RTVSPropertyOp43
 70
     1
102
RTVSPropertyOp44
 70
     1
102
RTVSPropertyOp45
 70
     1
102
RTVSPropertyOp46
 70
     1
102
RTVSPropertyOp47
 70
     1
102
RTVSPropertyOp48
 70
     1
102
RTVSPropertyOp49
 70
     1
102
RTVSPropertyOp50
 70
     1
102
RTVSPropertyOp51
 70
     0
102
RTVSPropertyOp52
 70
     0
102
RTVSPropertyOp53
 70
     1
102
RTVSPropertyOp54
 70
     1
102
RTVSPropertyOp55
 70
     1
102
RTVSPropertyOp56
 70
     1
102
RTVSPropertyOp57
 70
     1
102
RTVSPropertyOp58
 70
     1
102
RTVSPropertyOp59
 70
     1
102
RTVSPropertyOp60
 70
     1
102
RTVSPropertyOp61
 70
     1
102
RTVSPropertyOp62
 70
     1
  0
XRECORD
  5
6C1
102
{ACAD_REACTORS
330
6C0
102
}
330
6C0
100
AcDbXrecord
280
     1
102
RTVSPost2010Prop28
280
     0
102
RTVSPost2010PropOp28
 70
     1
102
RTVSPost2010Prop29
280
     1
102
RTVSPost2010PropOp29
 70
     1
102
RTVSPost2010Prop30
280
     1
102
RTVSPost2010PropOp30
 70
     1
102
RTVSPost2010Prop31
280
     0
102
RTVSPost2010PropOp31
 70
     1
102
RTVSPost2010Prop32
280
     0
102
RTVSPost2010PropOp32
 70
     1
102
RTVSPost2010Prop33
280
     0
102
RTVSPost2010PropOp33
 70
     1
102
RTVSPost2010Prop34
280
     0
102
RTVSPost2010PropOp34
 70
     1
102
RTVSPost2010Prop35
280
     0
102
RTVSPost2010PropOp35
 70
     1
102
RTVSPost2010Prop36
280
     0
102
RTVSPost2010PropOp36
 70
     1
102
RTVSPost2010Prop37
 90
       50
102
RTVSPost2010PropOp37
 70
     1
102
RTVSPost2010Prop38
140
0.0
102
RTVSPost2010PropOp38
 70
     1
102
RTVSPost2010Prop39
140
1.0
102
RTVSPost2010PropOp39
 70
     1
102
RTVSPost2010Prop40
 90
        0
102
RTVSPost2010PropOp40
 70
     1
102
RTVSPost2010Prop41ColorIndex
 90
       18
102
RTVSPost2010Prop41ColorRGB
 90
        0
102
RTVSPost2010PropOp41
 70
     1
102
RTVSPost2010Prop42
 90
       50
102
RTVSPost2010PropOp42
 70
     1
102
RTVSPost2010Prop43
 90
        3
102
RTVSPost2010PropOp43
 70
     1
102
RTVSPost2010Prop44ColorIndex
 90
        5
102
RTVSPost2010Prop44ColorRGB
 90
      255
102
RTVSPost2010PropOp44
 70
     1
102
RTVSPost2010Prop45
280
     0
102
RTVSPost2010PropOp45
 70
     1
102
RTVSPost2010Prop46
 90
       50
102
RTVSPost2010PropOp46
 70
     1
102
RTVSPost2010Prop47
 90
       50
102
RTVSPost2010PropOp47
 70
     1
102
RTVSPost2010Prop48
 90
       50
102
RTVSPost2010PropOp48
 70
     1
102
RTVSPost2010Prop49
280
     0
102
RTVSPost2010PropOp49
 70
     1
102
RTVSPost2010Prop50
 90
       50
102
RTVSPost2010PropOp50
 70
     1
102
RTVSPost2010Prop51ColorIndex
 90
      256
102
RTVSPost2010Prop51ColorRGB
 90
-16777216
102
RTVSPost2010PropOp51
 70
     0
102
RTVSPost2010Prop52
140
1.0
102
RTVSPost2010PropOp52
 70
     0
102
RTVSPost2010Prop53
 90
        2
102
RTVSPost2010PropOp53
 70
     1
102
RTVSPost2010Prop54
  1
strokes_ogs.tif
102
RTVSPost2010PropOp54
 70
     1
102
RTVSPost2010Prop55
280
     0
102
RTVSPost2010PropOp55
 70
     1
102
RTVSPost2010Prop56
140
1.0
102
RTVSPost2010PropOp56
 70
     1
102
RTVSPost2010Prop57
140
1.0
102
RTVSPost2010PropOp57
 70
     1
102
RTVSPropertyOp0
 70
     1
102
RTVSPropertyOp1
 70
     1
102
RTVSPropertyOp2
 70
     1
102
RTVSPropertyOp3
 70
     1
102
RTVSPropertyOp4
 70
     1
102
RTVSPropertyOp5
 70
     1
102
RTVSPropertyOp6
 70
     1
102
RTVSPropertyOp7
 70
     1
102
RTVSPropertyOp8
 70
     1
102
RTVSPropertyOp9
 70
     1
102
RTVSPropertyOp10
 70
     1
102
RTVSPropertyOp11
 70
     1
102
RTVSPropertyOp12
 70
     1
102
RTVSPropertyOp13
 70
     1
102
RTVSPropertyOp14
 70
     1
102
RTVSPropertyOp15
 70
     1
102
RTVSPropertyOp16
 70
     1
102
RTVSPropertyOp17
 70
     1
102
RTVSPropertyOp18
 70
     1
102
RTVSPropertyOp19
 70
     1
102
RTVSPropertyOp20
 70
     1
102
RTVSPropertyOp21
 70
     1
102
RTVSPropertyOp22
 70
     1
102
RTVSPropertyOp23
 70
     1
102
RTVSPropertyOp24
 70
     1
102
RTVSPropertyOp25
 70
     1
102
RTVSPropertyOp26
 70
     1
102
RTVSPropertyOp27
 70
     1
102
RTVSPropertyOp28
 70
     1
102
RTVSPropertyOp29
 70
     1
102
RTVSPropertyOp30
 70
     1
102
RTVSPropertyOp31
 70
     1
102
RTVSPropertyOp32
 70
     1
102
RTVSPropertyOp33
 70
     1
102
RTVSPropertyOp34
 70
     1
102
RTVSPropertyOp35
 70
     1
102
RTVSPropertyOp36
 70
     1
102
RTVSPropertyOp37
 70
     1
102
RTVSPropertyOp38
 70
     1
102
RTVSPropertyOp39
 70
     1
102
RTVSPropertyOp40
 70
     1
102
RTVSPropertyOp41
 70
     1
102
RTVSPropertyOp42
 70
     1
102
RTVSPropertyOp43
 70
     1
102
RTVSPropertyOp44
 70
     1
102
RTVSPropertyOp45
 70
     1
102
RTVSPropertyOp46
 70
     1
102
RTVSPropertyOp47
 70
     1
102
RTVSPropertyOp48
 70
     1
102
RTVSPropertyOp49
 70
     1
102
RTVSPropertyOp50
 70
     1
102
RTVSPropertyOp51
 70
     0
102
RTVSPropertyOp52
 70
     0
102
RTVSPropertyOp53
 70
     1
102
RTVSPropertyOp54
 70
     1
102
RTVSPropertyOp55
 70
     1
102
RTVSPropertyOp56
 70
     1
102
RTVSPropertyOp57
 70
     1
102
RTVSPropertyOp58
 70
     1
102
RTVSPropertyOp59
 70
     1
102
RTVSPropertyOp60
 70
     1
102
RTVSPropertyOp61
 70
     1
102
RTVSPropertyOp62
 70
     1
  0
XRECORD
  5
6C5
102
{ACAD_REACTORS
330
6C4
102
}
330
6C4
100
AcDbXrecord
280
     1
102
RTVSPost2010Prop28
280
     0
102
RTVSPost2010PropOp28
 70
     1
102
RTVSPost2010Prop29
280
     1
102
RTVSPost2010PropOp29
 70
     1
102
RTVSPost2010Prop30
280
     1
102
RTVSPost2010PropOp30
 70
     1
102
RTVSPost2010Prop31
280
     0
102
RTVSPost2010PropOp31
 70
     1
102
RTVSPost2010Prop32
280
     0
102
RTVSPost2010PropOp32
 70
     1
102
RTVSPost2010Prop33
280
     0
102
RTVSPost2010PropOp33
 70
     1
102
RTVSPost2010Prop34
280
     0
102
RTVSPost2010PropOp34
 70
     1
102
RTVSPost2010Prop35
280
     0
102
RTVSPost2010PropOp35
 70
     1
102
RTVSPost2010Prop36
280
     0
102
RTVSPost2010PropOp36
 70
     1
102
RTVSPost2010Prop37
 90
       50
102
RTVSPost2010PropOp37
 70
     1
102
RTVSPost2010Prop38
140
0.0
102
RTVSPost2010PropOp38
 70
     1
102
RTVSPost2010Prop39
140
1.0
102
RTVSPost2010PropOp39
 70
     1
102
RTVSPost2010Prop40
 90
        0
102
RTVSPost2010PropOp40
 70
     1
102
RTVSPost2010Prop41ColorIndex
 90
       18
102
RTVSPost2010Prop41ColorRGB
 90
        0
102
RTVSPost2010PropOp41
 70
     1
102
RTVSPost2010Prop42
 90
       50
102
RTVSPost2010PropOp42
 70
     1
102
RTVSPost2010Prop43
 90
        3
102
RTVSPost2010PropOp43
 70
     1
102
RTVSPost2010Prop44ColorIndex
 90
        5
102
RTVSPost2010Prop44ColorRGB
 90
      255
102
RTVSPost2010PropOp44
 70
     1
102
RTVSPost2010Prop45
280
     0
102
RTVSPost2010PropOp45
 70
     1
102
RTVSPost2010Prop46
 90
       50
102
RTVSPost2010PropOp46
 70
     1
102
RTVSPost2010Prop47
 90
       50
102
RTVSPost2010PropOp47
 70
     1
102
RTVSPost2010Prop48
 90
       50
102
RTVSPost2010PropOp48
 70
     1
102
RTVSPost2010Prop49
280
     0
102
RTVSPost2010PropOp49
 70
     1
102
RTVSPost2010Prop50
 90
       50
102
RTVSPost2010PropOp50
 70
     1
102
RTVSPost2010Prop51ColorIndex
 90
      256
102
RTVSPost2010Prop51ColorRGB
 90
-16777216
102
RTVSPost2010PropOp51
 70
     0
102
RTVSPost2010Prop52
140
1.0
102
RTVSPost2010PropOp52
 70
     0
102
RTVSPost2010Prop53
 90
        2
102
RTVSPost2010PropOp53
 70
     1
102
RTVSPost2010Prop54
  1
strokes_ogs.tif
102
RTVSPost2010PropOp54
 70
     1
102
RTVSPost2010Prop55
280
     0
102
RTVSPost2010PropOp55
 70
     1
102
RTVSPost2010Prop56
140
1.0
102
RTVSPost2010PropOp56
 70
     1
102
RTVSPost2010Prop57
140
1.0
102
RTVSPost2010PropOp57
 70
     1
102
RTVSPropertyOp0
 70
     1
102
RTVSPropertyOp1
 70
     1
102
RTVSPropertyOp2
 70
     1
102
RTVSPropertyOp3
 70
     1
102
RTVSPropertyOp4
 70
     1
102
RTVSPropertyOp5
 70
     1
102
RTVSPropertyOp6
 70
     1
102
RTVSPropertyOp7
 70
     1
102
RTVSPropertyOp8
 70
     1
102
RTVSPropertyOp9
 70
     1
102
RTVSPropertyOp10
 70
     1
102
RTVSPropertyOp11
 70
     1
102
RTVSPropertyOp12
 70
     1
102
RTVSPropertyOp13
 70
     1
102
RTVSPropertyOp14
 70
     1
102
RTVSPropertyOp15
 70
     1
102
RTVSPropertyOp16
 70
     1
102
RTVSPropertyOp17
 70
     1
102
RTVSPropertyOp18
 70
     1
102
RTVSPropertyOp19
 70
     1
102
RTVSPropertyOp20
 70
     1
102
RTVSPropertyOp21
 70
     1
102
RTVSPropertyOp22
 70
     1
102
RTVSPropertyOp23
 70
     1
102
RTVSPropertyOp24
 70
     1
102
RTVSPropertyOp25
 70
     1
102
RTVSPropertyOp26
 70
     1
102
RTVSPropertyOp27
 70
     1
102
RTVSPropertyOp28
 70
     1
102
RTVSPropertyOp29
 70
     1
102
RTVSPropertyOp30
 70
     1
102
RTVSPropertyOp31
 70
     1
102
RTVSPropertyOp32
 70
     1
102
RTVSPropertyOp33
 70
     1
102
RTVSPropertyOp34
 70
     1
102
RTVSPropertyOp35
 70
     1
102
RTVSPropertyOp36
 70
     1
102
RTVSPropertyOp37
 70
     1
102
RTVSPropertyOp38
 70
     1
102
RTVSPropertyOp39
 70
     1
102
RTVSPropertyOp40
 70
     1
102
RTVSPropertyOp41
 70
     1
102
RTVSPropertyOp42
 70
     1
102
RTVSPropertyOp43
 70
     1
102
RTVSPropertyOp44
 70
     1
102
RTVSPropertyOp45
 70
     1
102
RTVSPropertyOp46
 70
     1
102
RTVSPropertyOp47
 70
     1
102
RTVSPropertyOp48
 70
     1
102
RTVSPropertyOp49
 70
     1
102
RTVSPropertyOp50
 70
     1
102
RTVSPropertyOp51
 70
     0
102
RTVSPropertyOp52
 70
     0
102
RTVSPropertyOp53
 70
     1
102
RTVSPropertyOp54
 70
     1
102
RTVSPropertyOp55
 70
     1
102
RTVSPropertyOp56
 70
     1
102
RTVSPropertyOp57
 70
     1
102
RTVSPropertyOp58
 70
     1
102
RTVSPropertyOp59
 70
     1
102
RTVSPropertyOp60
 70
     1
102
RTVSPropertyOp61
 70
     1
102
RTVSPropertyOp62
 70
     1
  0
XRECORD
  5
6D5
102
{ACAD_REACTORS
330
6D4
102
}
330
6D4
100
AcDbXrecord
280
     1
102
RTVSPost2010Prop28
280
     0
102
RTVSPost2010PropOp28
 70
     1
102
RTVSPost2010Prop29
280
     1
102
RTVSPost2010PropOp29
 70
     1
102
RTVSPost2010Prop30
280
     1
102
RTVSPost2010PropOp30
 70
     1
102
RTVSPost2010Prop31
280
     0
102
RTVSPost2010PropOp31
 70
     1
102
RTVSPost2010Prop32
280
     0
102
RTVSPost2010PropOp32
 70
     1
102
RTVSPost2010Prop33
280
     0
102
RTVSPost2010PropOp33
 70
     1
102
RTVSPost2010Prop34
280
     0
102
RTVSPost2010PropOp34
 70
     1
102
RTVSPost2010Prop35
280
     0
102
RTVSPost2010PropOp35
 70
     1
102
RTVSPost2010Prop36
280
     0
102
RTVSPost2010PropOp36
 70
     1
102
RTVSPost2010Prop37
 90
       50
102
RTVSPost2010PropOp37
 70
     1
102
RTVSPost2010Prop38
140
0.0
102
RTVSPost2010PropOp38
 70
     1
102
RTVSPost2010Prop39
140
1.0
102
RTVSPost2010PropOp39
 70
     1
102
RTVSPost2010Prop40
 90
        0
102
RTVSPost2010PropOp40
 70
     1
102
RTVSPost2010Prop41ColorIndex
 90
       18
102
RTVSPost2010Prop41ColorRGB
 90
        0
102
RTVSPost2010PropOp41
 70
     1
102
RTVSPost2010Prop42
 90
       50
102
RTVSPost2010PropOp42
 70
     1
102
RTVSPost2010Prop43
 90
        3
102
RTVSPost2010PropOp43
 70
     1
102
RTVSPost2010Prop44ColorIndex
 90
        5
102
RTVSPost2010Prop44ColorRGB
 90
      255
102
RTVSPost2010PropOp44
 70
     1
102
RTVSPost2010Prop45
280
     0
102
RTVSPost2010PropOp45
 70
     1
102
RTVSPost2010Prop46
 90
       50
102
RTVSPost2010PropOp46
 70
     1
102
RTVSPost2010Prop47
 90
       50
102
RTVSPost2010PropOp47
 70
     1
102
RTVSPost2010Prop48
 90
       50
102
RTVSPost2010PropOp48
 70
     1
102
RTVSPost2010Prop49
280
     0
102
RTVSPost2010PropOp49
 70
     1
102
RTVSPost2010Prop50
 90
       50
102
RTVSPost2010PropOp50
 70
     1
102
RTVSPost2010Prop51ColorIndex
 90
      256
102
RTVSPost2010Prop51ColorRGB
 90
-16777216
102
RTVSPost2010PropOp51
 70
     0
102
RTVSPost2010Prop52
140
1.0
102
RTVSPost2010PropOp52
 70
     0
102
RTVSPost2010Prop53
 90
        2
102
RTVSPost2010PropOp53
 70
     1
102
RTVSPost2010Prop54
  1
strokes_ogs.tif
102
RTVSPost2010PropOp54
 70
     1
102
RTVSPost2010Prop55
280
     0
102
RTVSPost2010PropOp55
 70
     1
102
RTVSPost2010Prop56
140
1.0
102
RTVSPost2010PropOp56
 70
     1
102
RTVSPost2010Prop57
140
1.0
102
RTVSPost2010PropOp57
 70
     1
102
RTVSPropertyOp0
 70
     0
102
RTVSPropertyOp1
 70
     0
102
RTVSPropertyOp2
 70
     0
102
RTVSPropertyOp3
 70
     0
102
RTVSPropertyOp4
 70
     0
102
RTVSPropertyOp5
 70
     0
102
RTVSPropertyOp6
 70
     0
102
RTVSPropertyOp7
 70
     0
102
RTVSPropertyOp8
 70
     0
102
RTVSPropertyOp9
 70
     0
102
RTVSPropertyOp10
 70
     0
102
RTVSPropertyOp11
 70
     0
102
RTVSPropertyOp12
 70
     0
102
RTVSPropertyOp13
 70
     0
102
RTVSPropertyOp14
 70
     2
102
RTVSPropertyOp15
 70
     0
102
RTVSPropertyOp16
 70
     0
102
RTVSPropertyOp17
 70
     0
102
RTVSPropertyOp18
 70
     0
102
RTVSPropertyOp19
 70
     0
102
RTVSPropertyOp20
 70
     0
102
RTVSPropertyOp21
 70
     0
102
RTVSPropertyOp22
 70
     0
102
RTVSPropertyOp23
 70
     0
102
RTVSPropertyOp24
 70
     0
102
RTVSPropertyOp25
 70
     0
102
RTVSPropertyOp26
 70
     0
102
RTVSPropertyOp27
 70
     0
102
RTVSPropertyOp28
 70
     1
102
RTVSPropertyOp29
 70
     1
102
RTVSPropertyOp30
 70
     1
102
RTVSPropertyOp31
 70
     1
102
RTVSPropertyOp32
 70
     1
102
RTVSPropertyOp33
 70
     1
102
RTVSPropertyOp34
 70
     1
102
RTVSPropertyOp35
 70
     1
102
RTVSPropertyOp36
 70
     1
102
RTVSPropertyOp37
 70
     1
102
RTVSPropertyOp38
 70
     1
102
RTVSPropertyOp39
 70
     1
102
RTVSPropertyOp40
 70
     1
102
RTVSPropertyOp41
 70
     1
102
RTVSPropertyOp42
 70
     1
102
RTVSPropertyOp43
 70
     1
102
RTVSPropertyOp44
 70
     1
102
RTVSPropertyOp45
 70
     1
102
RTVSPropertyOp46
 70
     1
102
RTVSPropertyOp47
 70
     1
102
RTVSPropertyOp48
 70
     1
102
RTVSPropertyOp49
 70
     1
102
RTVSPropertyOp50
 70
     1
102
RTVSPropertyOp51
 70
     0
102
RTVSPropertyOp52
 70
     0
102
RTVSPropertyOp53
 70
     1
102
RTVSPropertyOp54
 70
     1
102
RTVSPropertyOp55
 70
     1
102
RTVSPropertyOp56
 70
     1
102
RTVSPropertyOp57
 70
     1
102
RTVSPropertyOp58
 70
     1
102
RTVSPropertyOp59
 70
     1
102
RTVSPropertyOp60
 70
     1
102
RTVSPropertyOp61
 70
     1
102
RTVSPropertyOp62
 70
     1
  0
XRECORD
  5
6CD
102
{ACAD_REACTORS
330
6CC
102
}
330
6CC
100
AcDbXrecord
280
     1
102
RTVSPost2010Prop28
280
     0
102
RTVSPost2010PropOp28
 70
     1
102
RTVSPost2010Prop29
280
     1
102
RTVSPost2010PropOp29
 70
     1
102
RTVSPost2010Prop30
280
     1
102
RTVSPost2010PropOp30
 70
     1
102
RTVSPost2010Prop31
280
     0
102
RTVSPost2010PropOp31
 70
     1
102
RTVSPost2010Prop32
280
     0
102
RTVSPost2010PropOp32
 70
     1
102
RTVSPost2010Prop33
280
     0
102
RTVSPost2010PropOp33
 70
     1
102
RTVSPost2010Prop34
280
     0
102
RTVSPost2010PropOp34
 70
     1
102
RTVSPost2010Prop35
280
     0
102
RTVSPost2010PropOp35
 70
     1
102
RTVSPost2010Prop36
280
     0
102
RTVSPost2010PropOp36
 70
     1
102
RTVSPost2010Prop37
 90
       50
102
RTVSPost2010PropOp37
 70
     1
102
RTVSPost2010Prop38
140
0.0
102
RTVSPost2010PropOp38
 70
     1
102
RTVSPost2010Prop39
140
1.0
102
RTVSPost2010PropOp39
 70
     1
102
RTVSPost2010Prop40
 90
        0
102
RTVSPost2010PropOp40
 70
     1
102
RTVSPost2010Prop41ColorIndex
 90
       18
102
RTVSPost2010Prop41ColorRGB
 90
        0
102
RTVSPost2010PropOp41
 70
     1
102
RTVSPost2010Prop42
 90
       50
102
RTVSPost2010PropOp42
 70
     1
102
RTVSPost2010Prop43
 90
        3
102
RTVSPost2010PropOp43
 70
     1
102
RTVSPost2010Prop44ColorIndex
 90
        5
102
RTVSPost2010Prop44ColorRGB
 90
      255
102
RTVSPost2010PropOp44
 70
     1
102
RTVSPost2010Prop45
280
     0
102
RTVSPost2010PropOp45
 70
     1
102
RTVSPost2010Prop46
 90
       50
102
RTVSPost2010PropOp46
 70
     1
102
RTVSPost2010Prop47
 90
       50
102
RTVSPost2010PropOp47
 70
     1
102
RTVSPost2010Prop48
 90
       50
102
RTVSPost2010PropOp48
 70
     1
102
RTVSPost2010Prop49
280
     0
102
RTVSPost2010PropOp49
 70
     1
102
RTVSPost2010Prop50
 90
       50
102
RTVSPost2010PropOp50
 70
     1
102
RTVSPost2010Prop51ColorIndex
 90
      256
102
RTVSPost2010Prop51ColorRGB
 90
-16777216
102
RTVSPost2010PropOp51
 70
     0
102
RTVSPost2010Prop52
140
1.0
102
RTVSPost2010PropOp52
 70
     0
102
RTVSPost2010Prop53
 90
        2
102
RTVSPost2010PropOp53
 70
     1
102
RTVSPost2010Prop54
  1
strokes_ogs.tif
102
RTVSPost2010PropOp54
 70
     1
102
RTVSPost2010Prop55
280
     0
102
RTVSPost2010PropOp55
 70
     1
102
RTVSPost2010Prop56
140
1.0
102
RTVSPost2010PropOp56
 70
     1
102
RTVSPost2010Prop57
140
1.0
102
RTVSPost2010PropOp57
 70
     1
102
RTVSPropertyOp0
 70
     1
102
RTVSPropertyOp1
 70
     1
102
RTVSPropertyOp2
 70
     1
102
RTVSPropertyOp3
 70
     1
102
RTVSPropertyOp4
 70
     1
102
RTVSPropertyOp5
 70
     1
102
RTVSPropertyOp6
 70
     1
102
RTVSPropertyOp7
 70
     1
102
RTVSPropertyOp8
 70
     1
102
RTVSPropertyOp9
 70
     1
102
RTVSPropertyOp10
 70
     1
102
RTVSPropertyOp11
 70
     1
102
RTVSPropertyOp12
 70
     1
102
RTVSPropertyOp13
 70
     1
102
RTVSPropertyOp14
 70
     1
102
RTVSPropertyOp15
 70
     1
102
RTVSPropertyOp16
 70
     1
102
RTVSPropertyOp17
 70
     1
102
RTVSPropertyOp18
 70
     1
102
RTVSPropertyOp19
 70
     1
102
RTVSPropertyOp20
 70
     1
102
RTVSPropertyOp21
 70
     1
102
RTVSPropertyOp22
 70
     1
102
RTVSPropertyOp23
 70
     1
102
RTVSPropertyOp24
 70
     1
102
RTVSPropertyOp25
 70
     1
102
RTVSPropertyOp26
 70
     1
102
RTVSPropertyOp27
 70
     1
102
RTVSPropertyOp28
 70
     1
102
RTVSPropertyOp29
 70
     1
102
RTVSPropertyOp30
 70
     1
102
RTVSPropertyOp31
 70
     1
102
RTVSPropertyOp32
 70
     1
102
RTVSPropertyOp33
 70
     1
102
RTVSPropertyOp34
 70
     1
102
RTVSPropertyOp35
 70
     1
102
RTVSPropertyOp36
 70
     1
102
RTVSPropertyOp37
 70
     1
102
RTVSPropertyOp38
 70
     1
102
RTVSPropertyOp39
 70
     1
102
RTVSPropertyOp40
 70
     1
102
RTVSPropertyOp41
 70
     1
102
RTVSPropertyOp42
 70
     1
102
RTVSPropertyOp43
 70
     1
102
RTVSPropertyOp44
 70
     1
102
RTVSPropertyOp45
 70
     1
102
RTVSPropertyOp46
 70
     1
102
RTVSPropertyOp47
 70
     1
102
RTVSPropertyOp48
 70
     1
102
RTVSPropertyOp49
 70
     1
102
RTVSPropertyOp50
 70
     1
102
RTVSPropertyOp51
 70
     0
102
RTVSPropertyOp52
 70
     0
102
RTVSPropertyOp53
 70
     1
102
RTVSPropertyOp54
 70
     1
102
RTVSPropertyOp55
 70
     1
102
RTVSPropertyOp56
 70
     1
102
RTVSPropertyOp57
 70
     1
102
RTVSPropertyOp58
 70
     1
102
RTVSPropertyOp59
 70
     1
102
RTVSPropertyOp60
 70
     1
102
RTVSPropertyOp61
 70
     1
102
RTVSPropertyOp62
 70
     1
  0
XRECORD
  5
6B1
102
{ACAD_REACTORS
330
6B0
102
}
330
6B0
100
AcDbXrecord
280
     1
102
RTVSPost2010Prop28
280
     0
102
RTVSPost2010PropOp28
 70
     1
102
RTVSPost2010Prop29
280
     1
102
RTVSPost2010PropOp29
 70
     1
102
RTVSPost2010Prop30
280
     1
102
RTVSPost2010PropOp30
 70
     1
102
RTVSPost2010Prop31
280
     0
102
RTVSPost2010PropOp31
 70
     1
102
RTVSPost2010Prop32
280
     0
102
RTVSPost2010PropOp32
 70
     1
102
RTVSPost2010Prop33
280
     0
102
RTVSPost2010PropOp33
 70
     1
102
RTVSPost2010Prop34
280
     0
102
RTVSPost2010PropOp34
 70
     1
102
RTVSPost2010Prop35
280
     0
102
RTVSPost2010PropOp35
 70
     1
102
RTVSPost2010Prop36
280
     0
102
RTVSPost2010PropOp36
 70
     1
102
RTVSPost2010Prop37
 90
       50
102
RTVSPost2010PropOp37
 70
     1
102
RTVSPost2010Prop38
140
0.0
102
RTVSPost2010PropOp38
 70
     1
102
RTVSPost2010Prop39
140
1.0
102
RTVSPost2010PropOp39
 70
     1
102
RTVSPost2010Prop40
 90
        0
102
RTVSPost2010PropOp40
 70
     1
102
RTVSPost2010Prop41ColorIndex
 90
       18
102
RTVSPost2010Prop41ColorRGB
 90
        0
102
RTVSPost2010PropOp41
 70
     1
102
RTVSPost2010Prop42
 90
       50
102
RTVSPost2010PropOp42
 70
     1
102
RTVSPost2010Prop43
 90
        3
102
RTVSPost2010PropOp43
 70
     1
102
RTVSPost2010Prop44ColorIndex
 90
        5
102
RTVSPost2010Prop44ColorRGB
 90
      255
102
RTVSPost2010PropOp44
 70
     1
102
RTVSPost2010Prop45
280
     0
102
RTVSPost2010PropOp45
 70
     1
102
RTVSPost2010Prop46
 90
       50
102
RTVSPost2010PropOp46
 70
     1
102
RTVSPost2010Prop47
 90
       50
102
RTVSPost2010PropOp47
 70
     1
102
RTVSPost2010Prop48
 90
       50
102
RTVSPost2010PropOp48
 70
     1
102
RTVSPost2010Prop49
280
     0
102
RTVSPost2010PropOp49
 70
     1
102
RTVSPost2010Prop50
 90
       50
102
RTVSPost2010PropOp50
 70
     1
102
RTVSPost2010Prop51ColorIndex
 90
      256
102
RTVSPost2010Prop51ColorRGB
 90
-16777216
102
RTVSPost2010PropOp51
 70
     0
102
RTVSPost2010Prop52
140
1.0
102
RTVSPost2010PropOp52
 70
     0
102
RTVSPost2010Prop53
 90
        2
102
RTVSPost2010PropOp53
 70
     1
102
RTVSPost2010Prop54
  1
strokes_ogs.tif
102
RTVSPost2010PropOp54
 70
     1
102
RTVSPost2010Prop55
280
     0
102
RTVSPost2010PropOp55
 70
     1
102
RTVSPost2010Prop56
140
1.0
102
RTVSPost2010PropOp56
 70
     1
102
RTVSPost2010Prop57
140
1.0
102
RTVSPost2010PropOp57
 70
     1
102
RTVSPropertyOp0
 70
     1
102
RTVSPropertyOp1
 70
     1
102
RTVSPropertyOp2
 70
     1
102
RTVSPropertyOp3
 70
     1
102
RTVSPropertyOp4
 70
     1
102
RTVSPropertyOp5
 70
     1
102
RTVSPropertyOp6
 70
     1
102
RTVSPropertyOp7
 70
     1
102
RTVSPropertyOp8
 70
     1
102
RTVSPropertyOp9
 70
     1
102
RTVSPropertyOp10
 70
     1
102
RTVSPropertyOp11
 70
     1
102
RTVSPropertyOp12
 70
     1
102
RTVSPropertyOp13
 70
     1
102
RTVSPropertyOp14
 70
     1
102
RTVSPropertyOp15
 70
     1
102
RTVSPropertyOp16
 70
     1
102
RTVSPropertyOp17
 70
     1
102
RTVSPropertyOp18
 70
     1
102
RTVSPropertyOp19
 70
     1
102
RTVSPropertyOp20
 70
     1
102
RTVSPropertyOp21
 70
     1
102
RTVSPropertyOp22
 70
     1
102
RTVSPropertyOp23
 70
     1
102
RTVSPropertyOp24
 70
     1
102
RTVSPropertyOp25
 70
     1
102
RTVSPropertyOp26
 70
     1
102
RTVSPropertyOp27
 70
     1
102
RTVSPropertyOp28
 70
     1
102
RTVSPropertyOp29
 70
     1
102
RTVSPropertyOp30
 70
     1
102
RTVSPropertyOp31
 70
     1
102
RTVSPropertyOp32
 70
     1
102
RTVSPropertyOp33
 70
     1
102
RTVSPropertyOp34
 70
     1
102
RTVSPropertyOp35
 70
     1
102
RTVSPropertyOp36
 70
     1
102
RTVSPropertyOp37
 70
     1
102
RTVSPropertyOp38
 70
     1
102
RTVSPropertyOp39
 70
     1
102
RTVSPropertyOp40
 70
     1
102
RTVSPropertyOp41
 70
     1
102
RTVSPropertyOp42
 70
     1
102
RTVSPropertyOp43
 70
     1
102
RTVSPropertyOp44
 70
     1
102
RTVSPropertyOp45
 70
     1
102
RTVSPropertyOp46
 70
     1
102
RTVSPropertyOp47
 70
     1
102
RTVSPropertyOp48
 70
     1
102
RTVSPropertyOp49
 70
     1
102
RTVSPropertyOp50
 70
     1
102
RTVSPropertyOp51
 70
     0
102
RTVSPropertyOp52
 70
     0
102
RTVSPropertyOp53
 70
     1
102
RTVSPropertyOp54
 70
     1
102
RTVSPropertyOp55
 70
     1
102
RTVSPropertyOp56
 70
     1
102
RTVSPropertyOp57
 70
     1
102
RTVSPropertyOp58
 70
     1
102
RTVSPropertyOp59
 70
     1
102
RTVSPropertyOp60
 70
     1
102
RTVSPropertyOp61
 70
     1
102
RTVSPropertyOp62
 70
     1
  0
XRECORD
  5
6B3
102
{ACAD_REACTORS
330
6B2
102
}
330
6B2
100
AcDbXrecord
280
     1
102
RTVSPost2010Prop28
280
     0
102
RTVSPost2010PropOp28
 70
     1
102
RTVSPost2010Prop29
280
     1
102
RTVSPost2010PropOp29
 70
     1
102
RTVSPost2010Prop30
280
     1
102
RTVSPost2010PropOp30
 70
     1
102
RTVSPost2010Prop31
280
     0
102
RTVSPost2010PropOp31
 70
     1
102
RTVSPost2010Prop32
280
     0
102
RTVSPost2010PropOp32
 70
     1
102
RTVSPost2010Prop33
280
     0
102
RTVSPost2010PropOp33
 70
     1
102
RTVSPost2010Prop34
280
     0
102
RTVSPost2010PropOp34
 70
     1
102
RTVSPost2010Prop35
280
     0
102
RTVSPost2010PropOp35
 70
     1
102
RTVSPost2010Prop36
280
     0
102
RTVSPost2010PropOp36
 70
     1
102
RTVSPost2010Prop37
 90
       50
102
RTVSPost2010PropOp37
 70
     1
102
RTVSPost2010Prop38
140
0.0
102
RTVSPost2010PropOp38
 70
     1
102
RTVSPost2010Prop39
140
1.0
102
RTVSPost2010PropOp39
 70
     1
102
RTVSPost2010Prop40
 90
        0
102
RTVSPost2010PropOp40
 70
     1
102
RTVSPost2010Prop41ColorIndex
 90
       18
102
RTVSPost2010Prop41ColorRGB
 90
        0
102
RTVSPost2010PropOp41
 70
     1
102
RTVSPost2010Prop42
 90
       50
102
RTVSPost2010PropOp42
 70
     1
102
RTVSPost2010Prop43
 90
        3
102
RTVSPost2010PropOp43
 70
     1
102
RTVSPost2010Prop44ColorIndex
 90
        5
102
RTVSPost2010Prop44ColorRGB
 90
      255
102
RTVSPost2010PropOp44
 70
     1
102
RTVSPost2010Prop45
280
     0
102
RTVSPost2010PropOp45
 70
     1
102
RTVSPost2010Prop46
 90
       50
102
RTVSPost2010PropOp46
 70
     1
102
RTVSPost2010Prop47
 90
       50
102
RTVSPost2010PropOp47
 70
     1
102
RTVSPost2010Prop48
 90
       50
102
RTVSPost2010PropOp48
 70
     1
102
RTVSPost2010Prop49
280
     0
102
RTVSPost2010PropOp49
 70
     1
102
RTVSPost2010Prop50
 90
       50
102
RTVSPost2010PropOp50
 70
     1
102
RTVSPost2010Prop51ColorIndex
 90
      256
102
RTVSPost2010Prop51ColorRGB
 90
-16777216
102
RTVSPost2010PropOp51
 70
     0
102
RTVSPost2010Prop52
140
1.0
102
RTVSPost2010PropOp52
 70
     0
102
RTVSPost2010Prop53
 90
        2
102
RTVSPost2010PropOp53
 70
     1
102
RTVSPost2010Prop54
  1
strokes_ogs.tif
102
RTVSPost2010PropOp54
 70
     1
102
RTVSPost2010Prop55
280
     0
102
RTVSPost2010PropOp55
 70
     1
102
RTVSPost2010Prop56
140
1.0
102
RTVSPost2010PropOp56
 70
     1
102
RTVSPost2010Prop57
140
1.0
102
RTVSPost2010PropOp57
 70
     1
102
RTVSPropertyOp0
 70
     1
102
RTVSPropertyOp1
 70
     1
102
RTVSPropertyOp2
 70
     1
102
RTVSPropertyOp3
 70
     1
102
RTVSPropertyOp4
 70
     1
102
RTVSPropertyOp5
 70
     1
102
RTVSPropertyOp6
 70
     1
102
RTVSPropertyOp7
 70
     1
102
RTVSPropertyOp8
 70
     1
102
RTVSPropertyOp9
 70
     1
102
RTVSPropertyOp10
 70
     1
102
RTVSPropertyOp11
 70
     1
102
RTVSPropertyOp12
 70
     1
102
RTVSPropertyOp13
 70
     1
102
RTVSPropertyOp14
 70
     1
102
RTVSPropertyOp15
 70
     1
102
RTVSPropertyOp16
 70
     1
102
RTVSPropertyOp17
 70
     1
102
RTVSPropertyOp18
 70
     1
102
RTVSPropertyOp19
 70
     1
102
RTVSPropertyOp20
 70
     1
102
RTVSPropertyOp21
 70
     1
102
RTVSPropertyOp22
 70
     1
102
RTVSPropertyOp23
 70
     1
102
RTVSPropertyOp24
 70
     1
102
RTVSPropertyOp25
 70
     1
102
RTVSPropertyOp26
 70
     1
102
RTVSPropertyOp27
 70
     1
102
RTVSPropertyOp28
 70
     1
102
RTVSPropertyOp29
 70
     1
102
RTVSPropertyOp30
 70
     1
102
RTVSPropertyOp31
 70
     1
102
RTVSPropertyOp32
 70
     1
102
RTVSPropertyOp33
 70
     1
102
RTVSPropertyOp34
 70
     1
102
RTVSPropertyOp35
 70
     1
102
RTVSPropertyOp36
 70
     1
102
RTVSPropertyOp37
 70
     1
102
RTVSPropertyOp38
 70
     1
102
RTVSPropertyOp39
 70
     1
102
RTVSPropertyOp40
 70
     1
102
RTVSPropertyOp41
 70
     1
102
RTVSPropertyOp42
 70
     1
102
RTVSPropertyOp43
 70
     1
102
RTVSPropertyOp44
 70
     1
102
RTVSPropertyOp45
 70
     1
102
RTVSPropertyOp46
 70
     1
102
RTVSPropertyOp47
 70
     1
102
RTVSPropertyOp48
 70
     1
102
RTVSPropertyOp49
 70
     1
102
RTVSPropertyOp50
 70
     1
102
RTVSPropertyOp51
 70
     0
102
RTVSPropertyOp52
 70
     0
102
RTVSPropertyOp53
 70
     1
102
RTVSPropertyOp54
 70
     1
102
RTVSPropertyOp55
 70
     1
102
RTVSPropertyOp56
 70
     1
102
RTVSPropertyOp57
 70
     1
102
RTVSPropertyOp58
 70
     1
102
RTVSPropertyOp59
 70
     1
102
RTVSPropertyOp60
 70
     1
102
RTVSPropertyOp61
 70
     1
102
RTVSPropertyOp62
 70
     1
  0
XRECORD
  5
6B5
102
{ACAD_REACTORS
330
6B4
102
}
330
6B4
100
AcDbXrecord
280
     1
102
RTVSPost2010Prop28
280
     0
102
RTVSPost2010PropOp28
 70
     1
102
RTVSPost2010Prop29
280
     1
102
RTVSPost2010PropOp29
 70
     1
102
RTVSPost2010Prop30
280
     1
102
RTVSPost2010PropOp30
 70
     1
102
RTVSPost2010Prop31
280
     0
102
RTVSPost2010PropOp31
 70
     1
102
RTVSPost2010Prop32
280
     0
102
RTVSPost2010PropOp32
 70
     1
102
RTVSPost2010Prop33
280
     0
102
RTVSPost2010PropOp33
 70
     1
102
RTVSPost2010Prop34
280
     0
102
RTVSPost2010PropOp34
 70
     1
102
RTVSPost2010Prop35
280
     0
102
RTVSPost2010PropOp35
 70
     1
102
RTVSPost2010Prop36
280
     0
102
RTVSPost2010PropOp36
 70
     1
102
RTVSPost2010Prop37
 90
       50
102
RTVSPost2010PropOp37
 70
     1
102
RTVSPost2010Prop38
140
0.0
102
RTVSPost2010PropOp38
 70
     1
102
RTVSPost2010Prop39
140
1.0
102
RTVSPost2010PropOp39
 70
     1
102
RTVSPost2010Prop40
 90
        0
102
RTVSPost2010PropOp40
 70
     1
102
RTVSPost2010Prop41ColorIndex
 90
       18
102
RTVSPost2010Prop41ColorRGB
 90
        0
102
RTVSPost2010PropOp41
 70
     1
102
RTVSPost2010Prop42
 90
       50
102
RTVSPost2010PropOp42
 70
     1
102
RTVSPost2010Prop43
 90
        3
102
RTVSPost2010PropOp43
 70
     1
102
RTVSPost2010Prop44ColorIndex
 90
        5
102
RTVSPost2010Prop44ColorRGB
 90
      255
102
RTVSPost2010PropOp44
 70
     1
102
RTVSPost2010Prop45
280
     0
102
RTVSPost2010PropOp45
 70
     1
102
RTVSPost2010Prop46
 90
       50
102
RTVSPost2010PropOp46
 70
     1
102
RTVSPost2010Prop47
 90
       50
102
RTVSPost2010PropOp47
 70
     1
102
RTVSPost2010Prop48
 90
       50
102
RTVSPost2010PropOp48
 70
     1
102
RTVSPost2010Prop49
280
     0
102
RTVSPost2010PropOp49
 70
     1
102
RTVSPost2010Prop50
 90
       50
102
RTVSPost2010PropOp50
 70
     1
102
RTVSPost2010Prop51ColorIndex
 90
      256
102
RTVSPost2010Prop51ColorRGB
 90
-16777216
102
RTVSPost2010PropOp51
 70
     0
102
RTVSPost2010Prop52
140
1.0
102
RTVSPost2010PropOp52
 70
     0
102
RTVSPost2010Prop53
 90
        2
102
RTVSPost2010PropOp53
 70
     1
102
RTVSPost2010Prop54
  1
strokes_ogs.tif
102
RTVSPost2010PropOp54
 70
     1
102
RTVSPost2010Prop55
280
     0
102
RTVSPost2010PropOp55
 70
     1
102
RTVSPost2010Prop56
140
1.0
102
RTVSPost2010PropOp56
 70
     1
102
RTVSPost2010Prop57
140
1.0
102
RTVSPost2010PropOp57
 70
     1
102
RTVSPropertyOp0
 70
     1
102
RTVSPropertyOp1
 70
     1
102
RTVSPropertyOp2
 70
     1
102
RTVSPropertyOp3
 70
     1
102
RTVSPropertyOp4
 70
     1
102
RTVSPropertyOp5
 70
     1
102
RTVSPropertyOp6
 70
     1
102
RTVSPropertyOp7
 70
     1
102
RTVSPropertyOp8
 70
     1
102
RTVSPropertyOp9
 70
     1
102
RTVSPropertyOp10
 70
     1
102
RTVSPropertyOp11
 70
     1
102
RTVSPropertyOp12
 70
     1
102
RTVSPropertyOp13
 70
     1
102
RTVSPropertyOp14
 70
     1
102
RTVSPropertyOp15
 70
     1
102
RTVSPropertyOp16
 70
     1
102
RTVSPropertyOp17
 70
     1
102
RTVSPropertyOp18
 70
     1
102
RTVSPropertyOp19
 70
     1
102
RTVSPropertyOp20
 70
     1
102
RTVSPropertyOp21
 70
     1
102
RTVSPropertyOp22
 70
     1
102
RTVSPropertyOp23
 70
     1
102
RTVSPropertyOp24
 70
     1
102
RTVSPropertyOp25
 70
     1
102
RTVSPropertyOp26
 70
     1
102
RTVSPropertyOp27
 70
     1
102
RTVSPropertyOp28
 70
     1
102
RTVSPropertyOp29
 70
     1
102
RTVSPropertyOp30
 70
     1
102
RTVSPropertyOp31
 70
     1
102
RTVSPropertyOp32
 70
     1
102
RTVSPropertyOp33
 70
     1
102
RTVSPropertyOp34
 70
     1
102
RTVSPropertyOp35
 70
     1
102
RTVSPropertyOp36
 70
     1
102
RTVSPropertyOp37
 70
     1
102
RTVSPropertyOp38
 70
     1
102
RTVSPropertyOp39
 70
     1
102
RTVSPropertyOp40
 70
     1
102
RTVSPropertyOp41
 70
     1
102
RTVSPropertyOp42
 70
     1
102
RTVSPropertyOp43
 70
     1
102
RTVSPropertyOp44
 70
     1
102
RTVSPropertyOp45
 70
     1
102
RTVSPropertyOp46
 70
     1
102
RTVSPropertyOp47
 70
     1
102
RTVSPropertyOp48
 70
     1
102
RTVSPropertyOp49
 70
     1
102
RTVSPropertyOp50
 70
     1
102
RTVSPropertyOp51
 70
     0
102
RTVSPropertyOp52
 70
     0
102
RTVSPropertyOp53
 70
     1
102
RTVSPropertyOp54
 70
     1
102
RTVSPropertyOp55
 70
     1
102
RTVSPropertyOp56
 70
     1
102
RTVSPropertyOp57
 70
     1
102
RTVSPropertyOp58
 70
     1
102
RTVSPropertyOp59
 70
     1
102
RTVSPropertyOp60
 70
     1
102
RTVSPropertyOp61
 70
     1
102
RTVSPropertyOp62
 70
     1
  0
XRECORD
  5
6B7
102
{ACAD_REACTORS
330
6B6
102
}
330
6B6
100
AcDbXrecord
280
     1
102
RTVSPost2010Prop28
280
     0
102
RTVSPost2010PropOp28
 70
     1
102
RTVSPost2010Prop29
280
     1
102
RTVSPost2010PropOp29
 70
     1
102
RTVSPost2010Prop30
280
     1
102
RTVSPost2010PropOp30
 70
     1
102
RTVSPost2010Prop31
280
     0
102
RTVSPost2010PropOp31
 70
     1
102
RTVSPost2010Prop32
280
     0
102
RTVSPost2010PropOp32
 70
     1
102
RTVSPost2010Prop33
280
     0
102
RTVSPost2010PropOp33
 70
     1
102
RTVSPost2010Prop34
280
     0
102
RTVSPost2010PropOp34
 70
     1
102
RTVSPost2010Prop35
280
     0
102
RTVSPost2010PropOp35
 70
     1
102
RTVSPost2010Prop36
280
     0
102
RTVSPost2010PropOp36
 70
     1
102
RTVSPost2010Prop37
 90
       50
102
RTVSPost2010PropOp37
 70
     1
102
RTVSPost2010Prop38
140
0.0
102
RTVSPost2010PropOp38
 70
     1
102
RTVSPost2010Prop39
140
1.0
102
RTVSPost2010PropOp39
 70
     1
102
RTVSPost2010Prop40
 90
        0
102
RTVSPost2010PropOp40
 70
     1
102
RTVSPost2010Prop41ColorIndex
 90
       18
102
RTVSPost2010Prop41ColorRGB
 90
        0
102
RTVSPost2010PropOp41
 70
     1
102
RTVSPost2010Prop42
 90
       50
102
RTVSPost2010PropOp42
 70
     1
102
RTVSPost2010Prop43
 90
        3
102
RTVSPost2010PropOp43
 70
     1
102
RTVSPost2010Prop44ColorIndex
 90
        5
102
RTVSPost2010Prop44ColorRGB
 90
      255
102
RTVSPost2010PropOp44
 70
     1
102
RTVSPost2010Prop45
280
     0
102
RTVSPost2010PropOp45
 70
     1
102
RTVSPost2010Prop46
 90
       50
102
RTVSPost2010PropOp46
 70
     1
102
RTVSPost2010Prop47
 90
       50
102
RTVSPost2010PropOp47
 70
     1
102
RTVSPost2010Prop48
 90
       50
102
RTVSPost2010PropOp48
 70
     1
102
RTVSPost2010Prop49
280
     0
102
RTVSPost2010PropOp49
 70
     1
102
RTVSPost2010Prop50
 90
       50
102
RTVSPost2010PropOp50
 70
     1
102
RTVSPost2010Prop51ColorIndex
 90
      256
102
RTVSPost2010Prop51ColorRGB
 90
-16777216
102
RTVSPost2010PropOp51
 70
     0
102
RTVSPost2010Prop52
140
1.0
102
RTVSPost2010PropOp52
 70
     0
102
RTVSPost2010Prop53
 90
        2
102
RTVSPost2010PropOp53
 70
     1
102
RTVSPost2010Prop54
  1
strokes_ogs.tif
102
RTVSPost2010PropOp54
 70
     1
102
RTVSPost2010Prop55
280
     0
102
RTVSPost2010PropOp55
 70
     1
102
RTVSPost2010Prop56
140
1.0
102
RTVSPost2010PropOp56
 70
     1
102
RTVSPost2010Prop57
140
1.0
102
RTVSPost2010PropOp57
 70
     1
102
RTVSPropertyOp0
 70
     1
102
RTVSPropertyOp1
 70
     1
102
RTVSPropertyOp2
 70
     1
102
RTVSPropertyOp3
 70
     1
102
RTVSPropertyOp4
 70
     1
102
RTVSPropertyOp5
 70
     1
102
RTVSPropertyOp6
 70
     1
102
RTVSPropertyOp7
 70
     1
102
RTVSPropertyOp8
 70
     1
102
RTVSPropertyOp9
 70
     1
102
RTVSPropertyOp10
 70
     1
102
RTVSPropertyOp11
 70
     1
102
RTVSPropertyOp12
 70
     1
102
RTVSPropertyOp13
 70
     1
102
RTVSPropertyOp14
 70
     1
102
RTVSPropertyOp15
 70
     1
102
RTVSPropertyOp16
 70
     1
102
RTVSPropertyOp17
 70
     1
102
RTVSPropertyOp18
 70
     1
102
RTVSPropertyOp19
 70
     1
102
RTVSPropertyOp20
 70
     1
102
RTVSPropertyOp21
 70
     1
102
RTVSPropertyOp22
 70
     1
102
RTVSPropertyOp23
 70
     1
102
RTVSPropertyOp24
 70
     1
102
RTVSPropertyOp25
 70
     1
102
RTVSPropertyOp26
 70
     1
102
RTVSPropertyOp27
 70
     1
102
RTVSPropertyOp28
 70
     1
102
RTVSPropertyOp29
 70
     1
102
RTVSPropertyOp30
 70
     1
102
RTVSPropertyOp31
 70
     1
102
RTVSPropertyOp32
 70
     1
102
RTVSPropertyOp33
 70
     1
102
RTVSPropertyOp34
 70
     1
102
RTVSPropertyOp35
 70
     1
102
RTVSPropertyOp36
 70
     1
102
RTVSPropertyOp37
 70
     1
102
RTVSPropertyOp38
 70
     1
102
RTVSPropertyOp39
 70
     1
102
RTVSPropertyOp40
 70
     1
102
RTVSPropertyOp41
 70
     1
102
RTVSPropertyOp42
 70
     1
102
RTVSPropertyOp43
 70
     1
102
RTVSPropertyOp44
 70
     1
102
RTVSPropertyOp45
 70
     1
102
RTVSPropertyOp46
 70
     1
102
RTVSPropertyOp47
 70
     1
102
RTVSPropertyOp48
 70
     1
102
RTVSPropertyOp49
 70
     1
102
RTVSPropertyOp50
 70
     1
102
RTVSPropertyOp51
 70
     0
102
RTVSPropertyOp52
 70
     0
102
RTVSPropertyOp53
 70
     1
102
RTVSPropertyOp54
 70
     1
102
RTVSPropertyOp55
 70
     1
102
RTVSPropertyOp56
 70
     1
102
RTVSPropertyOp57
 70
     1
102
RTVSPropertyOp58
 70
     1
102
RTVSPropertyOp59
 70
     1
102
RTVSPropertyOp60
 70
     1
102
RTVSPropertyOp61
 70
     1
102
RTVSPropertyOp62
 70
     1
  0
XRECORD
  5
6BF
102
{ACAD_REACTORS
330
6BE
102
}
330
6BE
100
AcDbXrecord
280
     1
102
RTVSPost2010Prop28
280
     0
102
RTVSPost2010PropOp28
 70
     1
102
RTVSPost2010Prop29
280
     1
102
RTVSPost2010PropOp29
 70
     1
102
RTVSPost2010Prop30
280
     1
102
RTVSPost2010PropOp30
 70
     1
102
RTVSPost2010Prop31
280
     0
102
RTVSPost2010PropOp31
 70
     1
102
RTVSPost2010Prop32
280
     0
102
RTVSPost2010PropOp32
 70
     1
102
RTVSPost2010Prop33
280
     0
102
RTVSPost2010PropOp33
 70
     1
102
RTVSPost2010Prop34
280
     0
102
RTVSPost2010PropOp34
 70
     1
102
RTVSPost2010Prop35
280
     0
102
RTVSPost2010PropOp35
 70
     1
102
RTVSPost2010Prop36
280
     0
102
RTVSPost2010PropOp36
 70
     1
102
RTVSPost2010Prop37
 90
       50
102
RTVSPost2010PropOp37
 70
     1
102
RTVSPost2010Prop38
140
0.0
102
RTVSPost2010PropOp38
 70
     1
102
RTVSPost2010Prop39
140
1.0
102
RTVSPost2010PropOp39
 70
     1
102
RTVSPost2010Prop40
 90
        0
102
RTVSPost2010PropOp40
 70
     1
102
RTVSPost2010Prop41ColorIndex
 90
       18
102
RTVSPost2010Prop41ColorRGB
 90
        0
102
RTVSPost2010PropOp41
 70
     1
102
RTVSPost2010Prop42
 90
       50
102
RTVSPost2010PropOp42
 70
     1
102
RTVSPost2010Prop43
 90
        3
102
RTVSPost2010PropOp43
 70
     1
102
RTVSPost2010Prop44ColorIndex
 90
        5
102
RTVSPost2010Prop44ColorRGB
 90
      255
102
RTVSPost2010PropOp44
 70
     1
102
RTVSPost2010Prop45
280
     0
102
RTVSPost2010PropOp45
 70
     1
102
RTVSPost2010Prop46
 90
       50
102
RTVSPost2010PropOp46
 70
     1
102
RTVSPost2010Prop47
 90
       50
102
RTVSPost2010PropOp47
 70
     1
102
RTVSPost2010Prop48
 90
       50
102
RTVSPost2010PropOp48
 70
     1
102
RTVSPost2010Prop49
280
     0
102
RTVSPost2010PropOp49
 70
     1
102
RTVSPost2010Prop50
 90
       50
102
RTVSPost2010PropOp50
 70
     1
102
RTVSPost2010Prop51ColorIndex
 90
      256
102
RTVSPost2010Prop51ColorRGB
 90
-16777216
102
RTVSPost2010PropOp51
 70
     0
102
RTVSPost2010Prop52
140
1.0
102
RTVSPost2010PropOp52
 70
     0
102
RTVSPost2010Prop53
 90
        2
102
RTVSPost2010PropOp53
 70
     1
102
RTVSPost2010Prop54
  1
strokes_ogs.tif
102
RTVSPost2010PropOp54
 70
     1
102
RTVSPost2010Prop55
280
     0
102
RTVSPost2010PropOp55
 70
     1
102
RTVSPost2010Prop56
140
1.0
102
RTVSPost2010PropOp56
 70
     1
102
RTVSPost2010Prop57
140
1.0
102
RTVSPost2010PropOp57
 70
     1
102
RTVSPropertyOp0
 70
     1
102
RTVSPropertyOp1
 70
     1
102
RTVSPropertyOp2
 70
     1
102
RTVSPropertyOp3
 70
     1
102
RTVSPropertyOp4
 70
     1
102
RTVSPropertyOp5
 70
     1
102
RTVSPropertyOp6
 70
     1
102
RTVSPropertyOp7
 70
     1
102
RTVSPropertyOp8
 70
     1
102
RTVSPropertyOp9
 70
     1
102
RTVSPropertyOp10
 70
     1
102
RTVSPropertyOp11
 70
     1
102
RTVSPropertyOp12
 70
     1
102
RTVSPropertyOp13
 70
     1
102
RTVSPropertyOp14
 70
     1
102
RTVSPropertyOp15
 70
     1
102
RTVSPropertyOp16
 70
     1
102
RTVSPropertyOp17
 70
     1
102
RTVSPropertyOp18
 70
     1
102
RTVSPropertyOp19
 70
     1
102
RTVSPropertyOp20
 70
     1
102
RTVSPropertyOp21
 70
     1
102
RTVSPropertyOp22
 70
     1
102
RTVSPropertyOp23
 70
     1
102
RTVSPropertyOp24
 70
     1
102
RTVSPropertyOp25
 70
     1
102
RTVSPropertyOp26
 70
     1
102
RTVSPropertyOp27
 70
     1
102
RTVSPropertyOp28
 70
     1
102
RTVSPropertyOp29
 70
     1
102
RTVSPropertyOp30
 70
     1
102
RTVSPropertyOp31
 70
     1
102
RTVSPropertyOp32
 70
     1
102
RTVSPropertyOp33
 70
     1
102
RTVSPropertyOp34
 70
     1
102
RTVSPropertyOp35
 70
     1
102
RTVSPropertyOp36
 70
     1
102
RTVSPropertyOp37
 70
     1
102
RTVSPropertyOp38
 70
     1
102
RTVSPropertyOp39
 70
     1
102
RTVSPropertyOp40
 70
     1
102
RTVSPropertyOp41
 70
     1
102
RTVSPropertyOp42
 70
     1
102
RTVSPropertyOp43
 70
     1
102
RTVSPropertyOp44
 70
     1
102
RTVSPropertyOp45
 70
     1
102
RTVSPropertyOp46
 70
     1
102
RTVSPropertyOp47
 70
     1
102
RTVSPropertyOp48
 70
     1
102
RTVSPropertyOp49
 70
     1
102
RTVSPropertyOp50
 70
     1
102
RTVSPropertyOp51
 70
     0
102
RTVSPropertyOp52
 70
     0
102
RTVSPropertyOp53
 70
     1
102
RTVSPropertyOp54
 70
     1
102
RTVSPropertyOp55
 70
     1
102
RTVSPropertyOp56
 70
     1
102
RTVSPropertyOp57
 70
     1
102
RTVSPropertyOp58
 70
     1
102
RTVSPropertyOp59
 70
     1
102
RTVSPropertyOp60
 70
     1
102
RTVSPropertyOp61
 70
     1
102
RTVSPropertyOp62
 70
     1
  0
XRECORD
  5
6D1
102
{ACAD_REACTORS
330
6D0
102
}
330
6D0
100
AcDbXrecord
280
     1
102
RTVSPost2010Prop28
280
     0
102
RTVSPost2010PropOp28
 70
     1
102
RTVSPost2010Prop29
280
     1
102
RTVSPost2010PropOp29
 70
     1
102
RTVSPost2010Prop30
280
     1
102
RTVSPost2010PropOp30
 70
     1
102
RTVSPost2010Prop31
280
     0
102
RTVSPost2010PropOp31
 70
     1
102
RTVSPost2010Prop32
280
     0
102
RTVSPost2010PropOp32
 70
     1
102
RTVSPost2010Prop33
280
     0
102
RTVSPost2010PropOp33
 70
     1
102
RTVSPost2010Prop34
280
     0
102
RTVSPost2010PropOp34
 70
     1
102
RTVSPost2010Prop35
280
     0
102
RTVSPost2010PropOp35
 70
     1
102
RTVSPost2010Prop36
280
     0
102
RTVSPost2010PropOp36
 70
     1
102
RTVSPost2010Prop37
 90
       50
102
RTVSPost2010PropOp37
 70
     1
102
RTVSPost2010Prop38
140
0.0
102
RTVSPost2010PropOp38
 70
     1
102
RTVSPost2010Prop39
140
1.0
102
RTVSPost2010PropOp39
 70
     1
102
RTVSPost2010Prop40
 90
        0
102
RTVSPost2010PropOp40
 70
     1
102
RTVSPost2010Prop41ColorIndex
 90
       18
102
RTVSPost2010Prop41ColorRGB
 90
        0
102
RTVSPost2010PropOp41
 70
     1
102
RTVSPost2010Prop42
 90
       50
102
RTVSPost2010PropOp42
 70
     1
102
RTVSPost2010Prop43
 90
        3
102
RTVSPost2010PropOp43
 70
     1
102
RTVSPost2010Prop44ColorIndex
 90
        5
102
RTVSPost2010Prop44ColorRGB
 90
      255
102
RTVSPost2010PropOp44
 70
     1
102
RTVSPost2010Prop45
280
     0
102
RTVSPost2010PropOp45
 70
     1
102
RTVSPost2010Prop46
 90
       50
102
RTVSPost2010PropOp46
 70
     1
102
RTVSPost2010Prop47
 90
       50
102
RTVSPost2010PropOp47
 70
     1
102
RTVSPost2010Prop48
 90
       50
102
RTVSPost2010PropOp48
 70
     1
102
RTVSPost2010Prop49
280
     0
102
RTVSPost2010PropOp49
 70
     1
102
RTVSPost2010Prop50
 90
       50
102
RTVSPost2010PropOp50
 70
     1
102
RTVSPost2010Prop51ColorIndex
 90
      256
102
RTVSPost2010Prop51ColorRGB
 90
-16777216
102
RTVSPost2010PropOp51
 70
     0
102
RTVSPost2010Prop52
140
1.0
102
RTVSPost2010PropOp52
 70
     0
102
RTVSPost2010Prop53
 90
        2
102
RTVSPost2010PropOp53
 70
     1
102
RTVSPost2010Prop54
  1
strokes_ogs.tif
102
RTVSPost2010PropOp54
 70
     1
102
RTVSPost2010Prop55
280
     0
102
RTVSPost2010PropOp55
 70
     1
102
RTVSPost2010Prop56
140
1.0
102
RTVSPost2010PropOp56
 70
     1
102
RTVSPost2010Prop57
140
1.0
102
RTVSPost2010PropOp57
 70
     1
102
RTVSPropertyOp0
 70
     0
102
RTVSPropertyOp1
 70
     0
102
RTVSPropertyOp2
 70
     0
102
RTVSPropertyOp3
 70
     0
102
RTVSPropertyOp4
 70
     0
102
RTVSPropertyOp5
 70
     0
102
RTVSPropertyOp6
 70
     0
102
RTVSPropertyOp7
 70
     0
102
RTVSPropertyOp8
 70
     0
102
RTVSPropertyOp9
 70
     0
102
RTVSPropertyOp10
 70
     0
102
RTVSPropertyOp11
 70
     0
102
RTVSPropertyOp12
 70
     0
102
RTVSPropertyOp13
 70
     0
102
RTVSPropertyOp14
 70
     2
102
RTVSPropertyOp15
 70
     0
102
RTVSPropertyOp16
 70
     0
102
RTVSPropertyOp17
 70
     0
102
RTVSPropertyOp18
 70
     0
102
RTVSPropertyOp19
 70
     0
102
RTVSPropertyOp20
 70
     0
102
RTVSPropertyOp21
 70
     0
102
RTVSPropertyOp22
 70
     0
102
RTVSPropertyOp23
 70
     0
102
RTVSPropertyOp24
 70
     0
102
RTVSPropertyOp25
 70
     0
102
RTVSPropertyOp26
 70
     0
102
RTVSPropertyOp27
 70
     0
102
RTVSPropertyOp28
 70
     1
102
RTVSPropertyOp29
 70
     1
102
RTVSPropertyOp30
 70
     1
102
RTVSPropertyOp31
 70
     1
102
RTVSPropertyOp32
 70
     1
102
RTVSPropertyOp33
 70
     1
102
RTVSPropertyOp34
 70
     1
102
RTVSPropertyOp35
 70
     1
102
RTVSPropertyOp36
 70
     1
102
RTVSPropertyOp37
 70
     1
102
RTVSPropertyOp38
 70
     1
102
RTVSPropertyOp39
 70
     1
102
RTVSPropertyOp40
 70
     1
102
RTVSPropertyOp41
 70
     1
102
RTVSPropertyOp42
 70
     1
102
RTVSPropertyOp43
 70
     1
102
RTVSPropertyOp44
 70
     1
102
RTVSPropertyOp45
 70
     1
102
RTVSPropertyOp46
 70
     1
102
RTVSPropertyOp47
 70
     1
102
RTVSPropertyOp48
 70
     1
102
RTVSPropertyOp49
 70
     1
102
RTVSPropertyOp50
 70
     1
102
RTVSPropertyOp51
 70
     0
102
RTVSPropertyOp52
 70
     0
102
RTVSPropertyOp53
 70
     1
102
RTVSPropertyOp54
 70
     1
102
RTVSPropertyOp55
 70
     1
102
RTVSPropertyOp56
 70
     1
102
RTVSPropertyOp57
 70
     1
102
RTVSPropertyOp58
 70
     1
102
RTVSPropertyOp59
 70
     1
102
RTVSPropertyOp60
 70
     1
102
RTVSPropertyOp61
 70
     1
102
RTVSPropertyOp62
 70
     1
  0
XRECORD
  5
6CB
102
{ACAD_REACTORS
330
6CA
102
}
330
6CA
100
AcDbXrecord
280
     1
102
RTVSPost2010Prop28
280
     0
102
RTVSPost2010PropOp28
 70
     1
102
RTVSPost2010Prop29
280
     1
102
RTVSPost2010PropOp29
 70
     1
102
RTVSPost2010Prop30
280
     1
102
RTVSPost2010PropOp30
 70
     1
102
RTVSPost2010Prop31
280
     0
102
RTVSPost2010PropOp31
 70
     1
102
RTVSPost2010Prop32
280
     0
102
RTVSPost2010PropOp32
 70
     1
102
RTVSPost2010Prop33
280
     0
102
RTVSPost2010PropOp33
 70
     1
102
RTVSPost2010Prop34
280
     0
102
RTVSPost2010PropOp34
 70
     1
102
RTVSPost2010Prop35
280
     0
102
RTVSPost2010PropOp35
 70
     1
102
RTVSPost2010Prop36
280
     0
102
RTVSPost2010PropOp36
 70
     1
102
RTVSPost2010Prop37
 90
       50
102
RTVSPost2010PropOp37
 70
     1
102
RTVSPost2010Prop38
140
0.0
102
RTVSPost2010PropOp38
 70
     1
102
RTVSPost2010Prop39
140
1.0
102
RTVSPost2010PropOp39
 70
     1
102
RTVSPost2010Prop40
 90
        0
102
RTVSPost2010PropOp40
 70
     1
102
RTVSPost2010Prop41ColorIndex
 90
       18
102
RTVSPost2010Prop41ColorRGB
 90
        0
102
RTVSPost2010PropOp41
 70
     1
102
RTVSPost2010Prop42
 90
       50
102
RTVSPost2010PropOp42
 70
     1
102
RTVSPost2010Prop43
 90
        3
102
RTVSPost2010PropOp43
 70
     1
102
RTVSPost2010Prop44ColorIndex
 90
        5
102
RTVSPost2010Prop44ColorRGB
 90
      255
102
RTVSPost2010PropOp44
 70
     1
102
RTVSPost2010Prop45
280
     0
102
RTVSPost2010PropOp45
 70
     1
102
RTVSPost2010Prop46
 90
       50
102
RTVSPost2010PropOp46
 70
     1
102
RTVSPost2010Prop47
 90
       50
102
RTVSPost2010PropOp47
 70
     1
102
RTVSPost2010Prop48
 90
       50
102
RTVSPost2010PropOp48
 70
     1
102
RTVSPost2010Prop49
280
     0
102
RTVSPost2010PropOp49
 70
     1
102
RTVSPost2010Prop50
 90
       50
102
RTVSPost2010PropOp50
 70
     1
102
RTVSPost2010Prop51ColorIndex
 90
      256
102
RTVSPost2010Prop51ColorRGB
 90
-16777216
102
RTVSPost2010PropOp51
 70
     0
102
RTVSPost2010Prop52
140
1.0
102
RTVSPost2010PropOp52
 70
     0
102
RTVSPost2010Prop53
 90
        2
102
RTVSPost2010PropOp53
 70
     1
102
RTVSPost2010Prop54
  1
strokes_ogs.tif
102
RTVSPost2010PropOp54
 70
     1
102
RTVSPost2010Prop55
280
     0
102
RTVSPost2010PropOp55
 70
     1
102
RTVSPost2010Prop56
140
1.0
102
RTVSPost2010PropOp56
 70
     1
102
RTVSPost2010Prop57
140
1.0
102
RTVSPost2010PropOp57
 70
     1
102
RTVSPropertyOp0
 70
     1
102
RTVSPropertyOp1
 70
     1
102
RTVSPropertyOp2
 70
     1
102
RTVSPropertyOp3
 70
     1
102
RTVSPropertyOp4
 70
     1
102
RTVSPropertyOp5
 70
     1
102
RTVSPropertyOp6
 70
     1
102
RTVSPropertyOp7
 70
     1
102
RTVSPropertyOp8
 70
     1
102
RTVSPropertyOp9
 70
     1
102
RTVSPropertyOp10
 70
     1
102
RTVSPropertyOp11
 70
     1
102
RTVSPropertyOp12
 70
     1
102
RTVSPropertyOp13
 70
     1
102
RTVSPropertyOp14
 70
     1
102
RTVSPropertyOp15
 70
     1
102
RTVSPropertyOp16
 70
     1
102
RTVSPropertyOp17
 70
     1
102
RTVSPropertyOp18
 70
     1
102
RTVSPropertyOp19
 70
     1
102
RTVSPropertyOp20
 70
     1
102
RTVSPropertyOp21
 70
     1
102
RTVSPropertyOp22
 70
     1
102
RTVSPropertyOp23
 70
     1
102
RTVSPropertyOp24
 70
     1
102
RTVSPropertyOp25
 70
     1
102
RTVSPropertyOp26
 70
     1
102
RTVSPropertyOp27
 70
     1
102
RTVSPropertyOp28
 70
     1
102
RTVSPropertyOp29
 70
     1
102
RTVSPropertyOp30
 70
     1
102
RTVSPropertyOp31
 70
     1
102
RTVSPropertyOp32
 70
     1
102
RTVSPropertyOp33
 70
     1
102
RTVSPropertyOp34
 70
     1
102
RTVSPropertyOp35
 70
     1
102
RTVSPropertyOp36
 70
     1
102
RTVSPropertyOp37
 70
     1
102
RTVSPropertyOp38
 70
     1
102
RTVSPropertyOp39
 70
     1
102
RTVSPropertyOp40
 70
     1
102
RTVSPropertyOp41
 70
     1
102
RTVSPropertyOp42
 70
     1
102
RTVSPropertyOp43
 70
     1
102
RTVSPropertyOp44
 70
     1
102
RTVSPropertyOp45
 70
     1
102
RTVSPropertyOp46
 70
     1
102
RTVSPropertyOp47
 70
     1
102
RTVSPropertyOp48
 70
     1
102
RTVSPropertyOp49
 70
     1
102
RTVSPropertyOp50
 70
     1
102
RTVSPropertyOp51
 70
     0
102
RTVSPropertyOp52
 70
     0
102
RTVSPropertyOp53
 70
     1
102
RTVSPropertyOp54
 70
     1
102
RTVSPropertyOp55
 70
     1
102
RTVSPropertyOp56
 70
     1
102
RTVSPropertyOp57
 70
     1
102
RTVSPropertyOp58
 70
     1
102
RTVSPropertyOp59
 70
     1
102
RTVSPropertyOp60
 70
     1
102
RTVSPropertyOp61
 70
     1
102
RTVSPropertyOp62
 70
     1
  0
XRECORD
  5
6D3
102
{ACAD_REACTORS
330
6D2
102
}
330
6D2
100
AcDbXrecord
280
     1
102
RTVSPost2010Prop28
280
     0
102
RTVSPost2010PropOp28
 70
     1
102
RTVSPost2010Prop29
280
     1
102
RTVSPost2010PropOp29
 70
     1
102
RTVSPost2010Prop30
280
     1
102
RTVSPost2010PropOp30
 70
     1
102
RTVSPost2010Prop31
280
     0
102
RTVSPost2010PropOp31
 70
     1
102
RTVSPost2010Prop32
280
     0
102
RTVSPost2010PropOp32
 70
     1
102
RTVSPost2010Prop33
280
     0
102
RTVSPost2010PropOp33
 70
     1
102
RTVSPost2010Prop34
280
     0
102
RTVSPost2010PropOp34
 70
     1
102
RTVSPost2010Prop35
280
     0
102
RTVSPost2010PropOp35
 70
     1
102
RTVSPost2010Prop36
280
     0
102
RTVSPost2010PropOp36
 70
     1
102
RTVSPost2010Prop37
 90
       50
102
RTVSPost2010PropOp37
 70
     1
102
RTVSPost2010Prop38
140
0.0
102
RTVSPost2010PropOp38
 70
     1
102
RTVSPost2010Prop39
140
1.0
102
RTVSPost2010PropOp39
 70
     1
102
RTVSPost2010Prop40
 90
        0
102
RTVSPost2010PropOp40
 70
     1
102
RTVSPost2010Prop41ColorIndex
 90
       18
102
RTVSPost2010Prop41ColorRGB
 90
        0
102
RTVSPost2010PropOp41
 70
     1
102
RTVSPost2010Prop42
 90
       50
102
RTVSPost2010PropOp42
 70
     1
102
RTVSPost2010Prop43
 90
        3
102
RTVSPost2010PropOp43
 70
     1
102
RTVSPost2010Prop44ColorIndex
 90
        5
102
RTVSPost2010Prop44ColorRGB
 90
      255
102
RTVSPost2010PropOp44
 70
     1
102
RTVSPost2010Prop45
280
     0
102
RTVSPost2010PropOp45
 70
     1
102
RTVSPost2010Prop46
 90
       50
102
RTVSPost2010PropOp46
 70
     1
102
RTVSPost2010Prop47
 90
       50
102
RTVSPost2010PropOp47
 70
     1
102
RTVSPost2010Prop48
 90
       50
102
RTVSPost2010PropOp48
 70
     1
102
RTVSPost2010Prop49
280
     0
102
RTVSPost2010PropOp49
 70
     1
102
RTVSPost2010Prop50
 90
       50
102
RTVSPost2010PropOp50
 70
     1
102
RTVSPost2010Prop51ColorIndex
 90
      256
102
RTVSPost2010Prop51ColorRGB
 90
-16777216
102
RTVSPost2010PropOp51
 70
     0
102
RTVSPost2010Prop52
140
1.0
102
RTVSPost2010PropOp52
 70
     0
102
RTVSPost2010Prop53
 90
        2
102
RTVSPost2010PropOp53
 70
     1
102
RTVSPost2010Prop54
  1
strokes_ogs.tif
102
RTVSPost2010PropOp54
 70
     1
102
RTVSPost2010Prop55
280
     0
102
RTVSPost2010PropOp55
 70
     1
102
RTVSPost2010Prop56
140
1.0
102
RTVSPost2010PropOp56
 70
     1
102
RTVSPost2010Prop57
140
1.0
102
RTVSPost2010PropOp57
 70
     1
102
RTVSPropertyOp0
 70
     0
102
RTVSPropertyOp1
 70
     0
102
RTVSPropertyOp2
 70
     0
102
RTVSPropertyOp3
 70
     0
102
RTVSPropertyOp4
 70
     0
102
RTVSPropertyOp5
 70
     0
102
RTVSPropertyOp6
 70
     0
102
RTVSPropertyOp7
 70
     0
102
RTVSPropertyOp8
 70
     0
102
RTVSPropertyOp9
 70
     0
102
RTVSPropertyOp10
 70
     0
102
RTVSPropertyOp11
 70
     0
102
RTVSPropertyOp12
 70
     0
102
RTVSPropertyOp13
 70
     0
102
RTVSPropertyOp14
 70
     2
102
RTVSPropertyOp15
 70
     0
102
RTVSPropertyOp16
 70
     0
102
RTVSPropertyOp17
 70
     0
102
RTVSPropertyOp18
 70
     0
102
RTVSPropertyOp19
 70
     0
102
RTVSPropertyOp20
 70
     0
102
RTVSPropertyOp21
 70
     0
102
RTVSPropertyOp22
 70
     0
102
RTVSPropertyOp23
 70
     0
102
RTVSPropertyOp24
 70
     0
102
RTVSPropertyOp25
 70
     0
102
RTVSPropertyOp26
 70
     0
102
RTVSPropertyOp27
 70
     0
102
RTVSPropertyOp28
 70
     1
102
RTVSPropertyOp29
 70
     1
102
RTVSPropertyOp30
 70
     1
102
RTVSPropertyOp31
 70
     1
102
RTVSPropertyOp32
 70
     1
102
RTVSPropertyOp33
 70
     1
102
RTVSPropertyOp34
 70
     1
102
RTVSPropertyOp35
 70
     1
102
RTVSPropertyOp36
 70
     1
102
RTVSPropertyOp37
 70
     1
102
RTVSPropertyOp38
 70
     1
102
RTVSPropertyOp39
 70
     1
102
RTVSPropertyOp40
 70
     1
102
RTVSPropertyOp41
 70
     1
102
RTVSPropertyOp42
 70
     1
102
RTVSPropertyOp43
 70
     1
102
RTVSPropertyOp44
 70
     1
102
RTVSPropertyOp45
 70
     1
102
RTVSPropertyOp46
 70
     1
102
RTVSPropertyOp47
 70
     1
102
RTVSPropertyOp48
 70
     1
102
RTVSPropertyOp49
 70
     1
102
RTVSPropertyOp50
 70
     1
102
RTVSPropertyOp51
 70
     0
102
RTVSPropertyOp52
 70
     0
102
RTVSPropertyOp53
 70
     1
102
RTVSPropertyOp54
 70
     1
102
RTVSPropertyOp55
 70
     1
102
RTVSPropertyOp56
 70
     1
102
RTVSPropertyOp57
 70
     1
102
RTVSPropertyOp58
 70
     1
102
RTVSPropertyOp59
 70
     1
102
RTVSPropertyOp60
 70
     1
102
RTVSPropertyOp61
 70
     1
102
RTVSPropertyOp62
 70
     1
  0
XRECORD
  5
6C3
102
{ACAD_REACTORS
330
6C2
102
}
330
6C2
100
AcDbXrecord
280
     1
102
RTVSPost2010Prop28
280
     0
102
RTVSPost2010PropOp28
 70
     1
102
RTVSPost2010Prop29
280
     1
102
RTVSPost2010PropOp29
 70
     1
102
RTVSPost2010Prop30
280
     1
102
RTVSPost2010PropOp30
 70
     1
102
RTVSPost2010Prop31
280
     0
102
RTVSPost2010PropOp31
 70
     1
102
RTVSPost2010Prop32
280
     0
102
RTVSPost2010PropOp32
 70
     1
102
RTVSPost2010Prop33
280
     0
102
RTVSPost2010PropOp33
 70
     1
102
RTVSPost2010Prop34
280
     0
102
RTVSPost2010PropOp34
 70
     1
102
RTVSPost2010Prop35
280
     0
102
RTVSPost2010PropOp35
 70
     1
102
RTVSPost2010Prop36
280
     0
102
RTVSPost2010PropOp36
 70
     1
102
RTVSPost2010Prop37
 90
       50
102
RTVSPost2010PropOp37
 70
     1
102
RTVSPost2010Prop38
140
0.0
102
RTVSPost2010PropOp38
 70
     1
102
RTVSPost2010Prop39
140
1.0
102
RTVSPost2010PropOp39
 70
     1
102
RTVSPost2010Prop40
 90
        0
102
RTVSPost2010PropOp40
 70
     1
102
RTVSPost2010Prop41ColorIndex
 90
       18
102
RTVSPost2010Prop41ColorRGB
 90
        0
102
RTVSPost2010PropOp41
 70
     1
102
RTVSPost2010Prop42
 90
       50
102
RTVSPost2010PropOp42
 70
     1
102
RTVSPost2010Prop43
 90
        3
102
RTVSPost2010PropOp43
 70
     1
102
RTVSPost2010Prop44ColorIndex
 90
        5
102
RTVSPost2010Prop44ColorRGB
 90
      255
102
RTVSPost2010PropOp44
 70
     1
102
RTVSPost2010Prop45
280
     0
102
RTVSPost2010PropOp45
 70
     1
102
RTVSPost2010Prop46
 90
       50
102
RTVSPost2010PropOp46
 70
     1
102
RTVSPost2010Prop47
 90
       50
102
RTVSPost2010PropOp47
 70
     1
102
RTVSPost2010Prop48
 90
       50
102
RTVSPost2010PropOp48
 70
     1
102
RTVSPost2010Prop49
280
     0
102
RTVSPost2010PropOp49
 70
     1
102
RTVSPost2010Prop50
 90
       50
102
RTVSPost2010PropOp50
 70
     1
102
RTVSPost2010Prop51ColorIndex
 90
      256
102
RTVSPost2010Prop51ColorRGB
 90
-16777216
102
RTVSPost2010PropOp51
 70
     0
102
RTVSPost2010Prop52
140
1.0
102
RTVSPost2010PropOp52
 70
     0
102
RTVSPost2010Prop53
 90
        2
102
RTVSPost2010PropOp53
 70
     1
102
RTVSPost2010Prop54
  1
strokes_ogs.tif
102
RTVSPost2010PropOp54
 70
     1
102
RTVSPost2010Prop55
280
     0
102
RTVSPost2010PropOp55
 70
     1
102
RTVSPost2010Prop56
140
1.0
102
RTVSPost2010PropOp56
 70
     1
102
RTVSPost2010Prop57
140
1.0
102
RTVSPost2010PropOp57
 70
     1
102
RTVSPropertyOp0
 70
     1
102
RTVSPropertyOp1
 70
     1
102
RTVSPropertyOp2
 70
     1
102
RTVSPropertyOp3
 70
     1
102
RTVSPropertyOp4
 70
     1
102
RTVSPropertyOp5
 70
     1
102
RTVSPropertyOp6
 70
     1
102
RTVSPropertyOp7
 70
     1
102
RTVSPropertyOp8
 70
     1
102
RTVSPropertyOp9
 70
     1
102
RTVSPropertyOp10
 70
     1
102
RTVSPropertyOp11
 70
     1
102
RTVSPropertyOp12
 70
     1
102
RTVSPropertyOp13
 70
     1
102
RTVSPropertyOp14
 70
     1
102
RTVSPropertyOp15
 70
     1
102
RTVSPropertyOp16
 70
     1
102
RTVSPropertyOp17
 70
     1
102
RTVSPropertyOp18
 70
     1
102
RTVSPropertyOp19
 70
     1
102
RTVSPropertyOp20
 70
     1
102
RTVSPropertyOp21
 70
     1
102
RTVSPropertyOp22
 70
     1
102
RTVSPropertyOp23
 70
     1
102
RTVSPropertyOp24
 70
     1
102
RTVSPropertyOp25
 70
     1
102
RTVSPropertyOp26
 70
     1
102
RTVSPropertyOp27
 70
     1
102
RTVSPropertyOp28
 70
     1
102
RTVSPropertyOp29
 70
     1
102
RTVSPropertyOp30
 70
     1
102
RTVSPropertyOp31
 70
     1
102
RTVSPropertyOp32
 70
     1
102
RTVSPropertyOp33
 70
     1
102
RTVSPropertyOp34
 70
     1
102
RTVSPropertyOp35
 70
     1
102
RTVSPropertyOp36
 70
     1
102
RTVSPropertyOp37
 70
     1
102
RTVSPropertyOp38
 70
     1
102
RTVSPropertyOp39
 70
     1
102
RTVSPropertyOp40
 70
     1
102
RTVSPropertyOp41
 70
     1
102
RTVSPropertyOp42
 70
     1
102
RTVSPropertyOp43
 70
     1
102
RTVSPropertyOp44
 70
     1
102
RTVSPropertyOp45
 70
     1
102
RTVSPropertyOp46
 70
     1
102
RTVSPropertyOp47
 70
     1
102
RTVSPropertyOp48
 70
     1
102
RTVSPropertyOp49
 70
     1
102
RTVSPropertyOp50
 70
     1
102
RTVSPropertyOp51
 70
     0
102
RTVSPropertyOp52
 70
     0
102
RTVSPropertyOp53
 70
     1
102
RTVSPropertyOp54
 70
     1
102
RTVSPropertyOp55
 70
     1
102
RTVSPropertyOp56
 70
     1
102
RTVSPropertyOp57
 70
     1
102
RTVSPropertyOp58
 70
     1
102
RTVSPropertyOp59
 70
     1
102
RTVSPropertyOp60
 70
     1
102
RTVSPropertyOp61
 70
     1
102
RTVSPropertyOp62
 70
     1
  0
XRECORD
  5
6DF
102
{ACAD_REACTORS
330
6DE
102
}
330
6DE
100
AcDbXrecord
280
     1
102
RTVSPost2010Prop28
280
     0
102
RTVSPost2010PropOp28
 70
     1
102
RTVSPost2010Prop29
280
     1
102
RTVSPost2010PropOp29
 70
     1
102
RTVSPost2010Prop30
280
     1
102
RTVSPost2010PropOp30
 70
     1
102
RTVSPost2010Prop31
280
     0
102
RTVSPost2010PropOp31
 70
     1
102
RTVSPost2010Prop32
280
     0
102
RTVSPost2010PropOp32
 70
     1
102
RTVSPost2010Prop33
280
     0
102
RTVSPost2010PropOp33
 70
     1
102
RTVSPost2010Prop34
280
     0
102
RTVSPost2010PropOp34
 70
     1
102
RTVSPost2010Prop35
280
     0
102
RTVSPost2010PropOp35
 70
     1
102
RTVSPost2010Prop36
280
     0
102
RTVSPost2010PropOp36
 70
     1
102
RTVSPost2010Prop37
 90
       50
102
RTVSPost2010PropOp37
 70
     1
102
RTVSPost2010Prop38
140
0.0
102
RTVSPost2010PropOp38
 70
     1
102
RTVSPost2010Prop39
140
1.0
102
RTVSPost2010PropOp39
 70
     1
102
RTVSPost2010Prop40
 90
        0
102
RTVSPost2010PropOp40
 70
     1
102
RTVSPost2010Prop41ColorIndex
 90
       18
102
RTVSPost2010Prop41ColorRGB
 90
        0
102
RTVSPost2010PropOp41
 70
     1
102
RTVSPost2010Prop42
 90
       50
102
RTVSPost2010PropOp42
 70
     1
102
RTVSPost2010Prop43
 90
        3
102
RTVSPost2010PropOp43
 70
     1
102
RTVSPost2010Prop44ColorIndex
 90
        5
102
RTVSPost2010Prop44ColorRGB
 90
      255
102
RTVSPost2010PropOp44
 70
     1
102
RTVSPost2010Prop45
280
     0
102
RTVSPost2010PropOp45
 70
     1
102
RTVSPost2010Prop46
 90
       50
102
RTVSPost2010PropOp46
 70
     1
102
RTVSPost2010Prop47
 90
       50
102
RTVSPost2010PropOp47
 70
     1
102
RTVSPost2010Prop48
 90
       50
102
RTVSPost2010PropOp48
 70
     1
102
RTVSPost2010Prop49
280
     0
102
RTVSPost2010PropOp49
 70
     1
102
RTVSPost2010Prop50
 90
       50
102
RTVSPost2010PropOp50
 70
     1
102
RTVSPost2010Prop51ColorIndex
 90
      256
102
RTVSPost2010Prop51ColorRGB
 90
-16777216
102
RTVSPost2010PropOp51
 70
     0
102
RTVSPost2010Prop52
140
1.0
102
RTVSPost2010PropOp52
 70
     0
102
RTVSPost2010Prop53
 90
        2
102
RTVSPost2010PropOp53
 70
     1
102
RTVSPost2010Prop54
  1
strokes_ogs.tif
102
RTVSPost2010PropOp54
 70
     1
102
RTVSPost2010Prop55
280
     0
102
RTVSPost2010PropOp55
 70
     1
102
RTVSPost2010Prop56
140
1.0
102
RTVSPost2010PropOp56
 70
     1
102
RTVSPost2010Prop57
140
1.0
102
RTVSPost2010PropOp57
 70
     1
102
RTVSPropertyOp0
 70
     1
102
RTVSPropertyOp1
 70
     1
102
RTVSPropertyOp2
 70
     1
102
RTVSPropertyOp3
 70
     1
102
RTVSPropertyOp4
 70
     1
102
RTVSPropertyOp5
 70
     1
102
RTVSPropertyOp6
 70
     1
102
RTVSPropertyOp7
 70
     1
102
RTVSPropertyOp8
 70
     1
102
RTVSPropertyOp9
 70
     1
102
RTVSPropertyOp10
 70
     1
102
RTVSPropertyOp11
 70
     1
102
RTVSPropertyOp12
 70
     1
102
RTVSPropertyOp13
 70
     1
102
RTVSPropertyOp14
 70
     1
102
RTVSPropertyOp15
 70
     1
102
RTVSPropertyOp16
 70
     1
102
RTVSPropertyOp17
 70
     1
102
RTVSPropertyOp18
 70
     1
102
RTVSPropertyOp19
 70
     1
102
RTVSPropertyOp20
 70
     1
102
RTVSPropertyOp21
 70
     1
102
RTVSPropertyOp22
 70
     1
102
RTVSPropertyOp23
 70
     1
102
RTVSPropertyOp24
 70
     1
102
RTVSPropertyOp25
 70
     1
102
RTVSPropertyOp26
 70
     1
102
RTVSPropertyOp27
 70
     1
102
RTVSPropertyOp28
 70
     1
102
RTVSPropertyOp29
 70
     1
102
RTVSPropertyOp30
 70
     1
102
RTVSPropertyOp31
 70
     1
102
RTVSPropertyOp32
 70
     1
102
RTVSPropertyOp33
 70
     1
102
RTVSPropertyOp34
 70
     1
102
RTVSPropertyOp35
 70
     1
102
RTVSPropertyOp36
 70
     1
102
RTVSPropertyOp37
 70
     1
102
RTVSPropertyOp38
 70
     1
102
RTVSPropertyOp39
 70
     1
102
RTVSPropertyOp40
 70
     1
102
RTVSPropertyOp41
 70
     1
102
RTVSPropertyOp42
 70
     1
102
RTVSPropertyOp43
 70
     1
102
RTVSPropertyOp44
 70
     1
102
RTVSPropertyOp45
 70
     1
102
RTVSPropertyOp46
 70
     1
102
RTVSPropertyOp47
 70
     1
102
RTVSPropertyOp48
 70
     1
102
RTVSPropertyOp49
 70
     1
102
RTVSPropertyOp50
 70
     1
102
RTVSPropertyOp51
 70
     0
102
RTVSPropertyOp52
 70
     0
102
RTVSPropertyOp53
 70
     1
102
RTVSPropertyOp54
 70
     1
102
RTVSPropertyOp55
 70
     1
102
RTVSPropertyOp56
 70
     1
102
RTVSPropertyOp57
 70
     1
102
RTVSPropertyOp58
 70
     1
102
RTVSPropertyOp59
 70
     1
102
RTVSPropertyOp60
 70
     1
102
RTVSPropertyOp61
 70
     1
102
RTVSPropertyOp62
 70
     1
  0
XRECORD
  5
6DD
102
{ACAD_REACTORS
330
6DC
102
}
330
6DC
100
AcDbXrecord
280
     1
102
RTVSPost2010Prop28
280
     0
102
RTVSPost2010PropOp28
 70
     1
102
RTVSPost2010Prop29
280
     1
102
RTVSPost2010PropOp29
 70
     1
102
RTVSPost2010Prop30
280
     1
102
RTVSPost2010PropOp30
 70
     1
102
RTVSPost2010Prop31
280
     0
102
RTVSPost2010PropOp31
 70
     1
102
RTVSPost2010Prop32
280
     0
102
RTVSPost2010PropOp32
 70
     1
102
RTVSPost2010Prop33
280
     0
102
RTVSPost2010PropOp33
 70
     1
102
RTVSPost2010Prop34
280
     0
102
RTVSPost2010PropOp34
 70
     1
102
RTVSPost2010Prop35
280
     0
102
RTVSPost2010PropOp35
 70
     1
102
RTVSPost2010Prop36
280
     0
102
RTVSPost2010PropOp36
 70
     1
102
RTVSPost2010Prop37
 90
       50
102
RTVSPost2010PropOp37
 70
     1
102
RTVSPost2010Prop38
140
0.0
102
RTVSPost2010PropOp38
 70
     1
102
RTVSPost2010Prop39
140
1.0
102
RTVSPost2010PropOp39
 70
     1
102
RTVSPost2010Prop40
 90
        0
102
RTVSPost2010PropOp40
 70
     1
102
RTVSPost2010Prop41ColorIndex
 90
       18
102
RTVSPost2010Prop41ColorRGB
 90
        0
102
RTVSPost2010PropOp41
 70
     1
102
RTVSPost2010Prop42
 90
       50
102
RTVSPost2010PropOp42
 70
     1
102
RTVSPost2010Prop43
 90
        3
102
RTVSPost2010PropOp43
 70
     1
102
RTVSPost2010Prop44ColorIndex
 90
        5
102
RTVSPost2010Prop44ColorRGB
 90
      255
102
RTVSPost2010PropOp44
 70
     1
102
RTVSPost2010Prop45
280
     0
102
RTVSPost2010PropOp45
 70
     1
102
RTVSPost2010Prop46
 90
       50
102
RTVSPost2010PropOp46
 70
     1
102
RTVSPost2010Prop47
 90
       50
102
RTVSPost2010PropOp47
 70
     1
102
RTVSPost2010Prop48
 90
       50
102
RTVSPost2010PropOp48
 70
     1
102
RTVSPost2010Prop49
280
     0
102
RTVSPost2010PropOp49
 70
     1
102
RTVSPost2010Prop50
 90
       50
102
RTVSPost2010PropOp50
 70
     1
102
RTVSPost2010Prop51ColorIndex
 90
      256
102
RTVSPost2010Prop51ColorRGB
 90
-16777216
102
RTVSPost2010PropOp51
 70
     0
102
RTVSPost2010Prop52
140
1.0
102
RTVSPost2010PropOp52
 70
     0
102
RTVSPost2010Prop53
 90
        2
102
RTVSPost2010PropOp53
 70
     1
102
RTVSPost2010Prop54
  1
strokes_ogs.tif
102
RTVSPost2010PropOp54
 70
     1
102
RTVSPost2010Prop55
280
     0
102
RTVSPost2010PropOp55
 70
     1
102
RTVSPost2010Prop56
140
1.0
102
RTVSPost2010PropOp56
 70
     1
102
RTVSPost2010Prop57
140
1.0
102
RTVSPost2010PropOp57
 70
     1
102
RTVSPropertyOp0
 70
     1
102
RTVSPropertyOp1
 70
     1
102
RTVSPropertyOp2
 70
     1
102
RTVSPropertyOp3
 70
     1
102
RTVSPropertyOp4
 70
     1
102
RTVSPropertyOp5
 70
     1
102
RTVSPropertyOp6
 70
     1
102
RTVSPropertyOp7
 70
     1
102
RTVSPropertyOp8
 70
     1
102
RTVSPropertyOp9
 70
     1
102
RTVSPropertyOp10
 70
     1
102
RTVSPropertyOp11
 70
     1
102
RTVSPropertyOp12
 70
     1
102
RTVSPropertyOp13
 70
     1
102
RTVSPropertyOp14
 70
     1
102
RTVSPropertyOp15
 70
     1
102
RTVSPropertyOp16
 70
     1
102
RTVSPropertyOp17
 70
     1
102
RTVSPropertyOp18
 70
     1
102
RTVSPropertyOp19
 70
     1
102
RTVSPropertyOp20
 70
     1
102
RTVSPropertyOp21
 70
     1
102
RTVSPropertyOp22
 70
     1
102
RTVSPropertyOp23
 70
     1
102
RTVSPropertyOp24
 70
     1
102
RTVSPropertyOp25
 70
     1
102
RTVSPropertyOp26
 70
     1
102
RTVSPropertyOp27
 70
     1
102
RTVSPropertyOp28
 70
     1
102
RTVSPropertyOp29
 70
     1
102
RTVSPropertyOp30
 70
     1
102
RTVSPropertyOp31
 70
     1
102
RTVSPropertyOp32
 70
     1
102
RTVSPropertyOp33
 70
     1
102
RTVSPropertyOp34
 70
     1
102
RTVSPropertyOp35
 70
     1
102
RTVSPropertyOp36
 70
     1
102
RTVSPropertyOp37
 70
     1
102
RTVSPropertyOp38
 70
     1
102
RTVSPropertyOp39
 70
     1
102
RTVSPropertyOp40
 70
     1
102
RTVSPropertyOp41
 70
     1
102
RTVSPropertyOp42
 70
     1
102
RTVSPropertyOp43
 70
     1
102
RTVSPropertyOp44
 70
     1
102
RTVSPropertyOp45
 70
     1
102
RTVSPropertyOp46
 70
     1
102
RTVSPropertyOp47
 70
     1
102
RTVSPropertyOp48
 70
     1
102
RTVSPropertyOp49
 70
     1
102
RTVSPropertyOp50
 70
     1
102
RTVSPropertyOp51
 70
     0
102
RTVSPropertyOp52
 70
     0
102
RTVSPropertyOp53
 70
     1
102
RTVSPropertyOp54
 70
     1
102
RTVSPropertyOp55
 70
     1
102
RTVSPropertyOp56
 70
     1
102
RTVSPropertyOp57
 70
     1
102
RTVSPropertyOp58
 70
     1
102
RTVSPropertyOp59
 70
     1
102
RTVSPropertyOp60
 70
     1
102
RTVSPropertyOp61
 70
     1
102
RTVSPropertyOp62
 70
     1
  0
XRECORD
  5
6D7
102
{ACAD_REACTORS
330
6D6
102
}
330
6D6
100
AcDbXrecord
280
     1
102
RTVSPost2010Prop28
280
     0
102
RTVSPost2010PropOp28
 70
     1
102
RTVSPost2010Prop29
280
     1
102
RTVSPost2010PropOp29
 70
     1
102
RTVSPost2010Prop30
280
     1
102
RTVSPost2010PropOp30
 70
     1
102
RTVSPost2010Prop31
280
     0
102
RTVSPost2010PropOp31
 70
     1
102
RTVSPost2010Prop32
280
     0
102
RTVSPost2010PropOp32
 70
     1
102
RTVSPost2010Prop33
280
     0
102
RTVSPost2010PropOp33
 70
     1
102
RTVSPost2010Prop34
280
     0
102
RTVSPost2010PropOp34
 70
     1
102
RTVSPost2010Prop35
280
     0
102
RTVSPost2010PropOp35
 70
     1
102
RTVSPost2010Prop36
280
     0
102
RTVSPost2010PropOp36
 70
     1
102
RTVSPost2010Prop37
 90
       50
102
RTVSPost2010PropOp37
 70
     1
102
RTVSPost2010Prop38
140
0.0
102
RTVSPost2010PropOp38
 70
     1
102
RTVSPost2010Prop39
140
1.0
102
RTVSPost2010PropOp39
 70
     1
102
RTVSPost2010Prop40
 90
        0
102
RTVSPost2010PropOp40
 70
     1
102
RTVSPost2010Prop41ColorIndex
 90
       18
102
RTVSPost2010Prop41ColorRGB
 90
        0
102
RTVSPost2010PropOp41
 70
     1
102
RTVSPost2010Prop42
 90
       50
102
RTVSPost2010PropOp42
 70
     1
102
RTVSPost2010Prop43
 90
        3
102
RTVSPost2010PropOp43
 70
     1
102
RTVSPost2010Prop44ColorIndex
 90
        5
102
RTVSPost2010Prop44ColorRGB
 90
      255
102
RTVSPost2010PropOp44
 70
     1
102
RTVSPost2010Prop45
280
     0
102
RTVSPost2010PropOp45
 70
     1
102
RTVSPost2010Prop46
 90
       50
102
RTVSPost2010PropOp46
 70
     1
102
RTVSPost2010Prop47
 90
       50
102
RTVSPost2010PropOp47
 70
     1
102
RTVSPost2010Prop48
 90
       50
102
RTVSPost2010PropOp48
 70
     1
102
RTVSPost2010Prop49
280
     0
102
RTVSPost2010PropOp49
 70
     1
102
RTVSPost2010Prop50
 90
       50
102
RTVSPost2010PropOp50
 70
     1
102
RTVSPost2010Prop51ColorIndex
 90
      256
102
RTVSPost2010Prop51ColorRGB
 90
-16777216
102
RTVSPost2010PropOp51
 70
     0
102
RTVSPost2010Prop52
140
1.0
102
RTVSPost2010PropOp52
 70
     0
102
RTVSPost2010Prop53
 90
        2
102
RTVSPost2010PropOp53
 70
     1
102
RTVSPost2010Prop54
  1
strokes_ogs.tif
102
RTVSPost2010PropOp54
 70
     1
102
RTVSPost2010Prop55
280
     0
102
RTVSPost2010PropOp55
 70
     1
102
RTVSPost2010Prop56
140
1.0
102
RTVSPost2010PropOp56
 70
     1
102
RTVSPost2010Prop57
140
1.0
102
RTVSPost2010PropOp57
 70
     1
102
RTVSPropertyOp0
 70
     1
102
RTVSPropertyOp1
 70
     1
102
RTVSPropertyOp2
 70
     1
102
RTVSPropertyOp3
 70
     1
102
RTVSPropertyOp4
 70
     1
102
RTVSPropertyOp5
 70
     1
102
RTVSPropertyOp6
 70
     1
102
RTVSPropertyOp7
 70
     1
102
RTVSPropertyOp8
 70
     1
102
RTVSPropertyOp9
 70
     1
102
RTVSPropertyOp10
 70
     1
102
RTVSPropertyOp11
 70
     1
102
RTVSPropertyOp12
 70
     1
102
RTVSPropertyOp13
 70
     1
102
RTVSPropertyOp14
 70
     1
102
RTVSPropertyOp15
 70
     1
102
RTVSPropertyOp16
 70
     1
102
RTVSPropertyOp17
 70
     1
102
RTVSPropertyOp18
 70
     1
102
RTVSPropertyOp19
 70
     1
102
RTVSPropertyOp20
 70
     1
102
RTVSPropertyOp21
 70
     1
102
RTVSPropertyOp22
 70
     1
102
RTVSPropertyOp23
 70
     1
102
RTVSPropertyOp24
 70
     1
102
RTVSPropertyOp25
 70
     1
102
RTVSPropertyOp26
 70
     1
102
RTVSPropertyOp27
 70
     1
102
RTVSPropertyOp28
 70
     1
102
RTVSPropertyOp29
 70
     1
102
RTVSPropertyOp30
 70
     1
102
RTVSPropertyOp31
 70
     1
102
RTVSPropertyOp32
 70
     1
102
RTVSPropertyOp33
 70
     1
102
RTVSPropertyOp34
 70
     1
102
RTVSPropertyOp35
 70
     1
102
RTVSPropertyOp36
 70
     1
102
RTVSPropertyOp37
 70
     1
102
RTVSPropertyOp38
 70
     1
102
RTVSPropertyOp39
 70
     1
102
RTVSPropertyOp40
 70
     1
102
RTVSPropertyOp41
 70
     1
102
RTVSPropertyOp42
 70
     1
102
RTVSPropertyOp43
 70
     1
102
RTVSPropertyOp44
 70
     1
102
RTVSPropertyOp45
 70
     1
102
RTVSPropertyOp46
 70
     1
102
RTVSPropertyOp47
 70
     1
102
RTVSPropertyOp48
 70
     1
102
RTVSPropertyOp49
 70
     1
102
RTVSPropertyOp50
 70
     1
102
RTVSPropertyOp51
 70
     0
102
RTVSPropertyOp52
 70
     0
102
RTVSPropertyOp53
 70
     1
102
RTVSPropertyOp54
 70
     1
102
RTVSPropertyOp55
 70
     1
102
RTVSPropertyOp56
 70
     1
102
RTVSPropertyOp57
 70
     1
102
RTVSPropertyOp58
 70
     1
102
RTVSPropertyOp59
 70
     1
102
RTVSPropertyOp60
 70
     1
102
RTVSPropertyOp61
 70
     1
102
RTVSPropertyOp62
 70
     1
  0
XRECORD
  5
6D9
102
{ACAD_REACTORS
330
6D8
102
}
330
6D8
100
AcDbXrecord
280
     1
102
RTVSPost2010Prop28
280
     0
102
RTVSPost2010PropOp28
 70
     1
102
RTVSPost2010Prop29
280
     1
102
RTVSPost2010PropOp29
 70
     1
102
RTVSPost2010Prop30
280
     1
102
RTVSPost2010PropOp30
 70
     1
102
RTVSPost2010Prop31
280
     0
102
RTVSPost2010PropOp31
 70
     1
102
RTVSPost2010Prop32
280
     0
102
RTVSPost2010PropOp32
 70
     1
102
RTVSPost2010Prop33
280
     0
102
RTVSPost2010PropOp33
 70
     1
102
RTVSPost2010Prop34
280
     0
102
RTVSPost2010PropOp34
 70
     1
102
RTVSPost2010Prop35
280
     0
102
RTVSPost2010PropOp35
 70
     1
102
RTVSPost2010Prop36
280
     0
102
RTVSPost2010PropOp36
 70
     1
102
RTVSPost2010Prop37
 90
       50
102
RTVSPost2010PropOp37
 70
     1
102
RTVSPost2010Prop38
140
0.0
102
RTVSPost2010PropOp38
 70
     1
102
RTVSPost2010Prop39
140
1.0
102
RTVSPost2010PropOp39
 70
     1
102
RTVSPost2010Prop40
 90
        0
102
RTVSPost2010PropOp40
 70
     1
102
RTVSPost2010Prop41ColorIndex
 90
       18
102
RTVSPost2010Prop41ColorRGB
 90
        0
102
RTVSPost2010PropOp41
 70
     1
102
RTVSPost2010Prop42
 90
       50
102
RTVSPost2010PropOp42
 70
     1
102
RTVSPost2010Prop43
 90
        3
102
RTVSPost2010PropOp43
 70
     1
102
RTVSPost2010Prop44ColorIndex
 90
        5
102
RTVSPost2010Prop44ColorRGB
 90
      255
102
RTVSPost2010PropOp44
 70
     1
102
RTVSPost2010Prop45
280
     0
102
RTVSPost2010PropOp45
 70
     1
102
RTVSPost2010Prop46
 90
       50
102
RTVSPost2010PropOp46
 70
     1
102
RTVSPost2010Prop47
 90
       50
102
RTVSPost2010PropOp47
 70
     1
102
RTVSPost2010Prop48
 90
       50
102
RTVSPost2010PropOp48
 70
     1
102
RTVSPost2010Prop49
280
     0
102
RTVSPost2010PropOp49
 70
     1
102
RTVSPost2010Prop50
 90
       50
102
RTVSPost2010PropOp50
 70
     1
102
RTVSPost2010Prop51ColorIndex
 90
      256
102
RTVSPost2010Prop51ColorRGB
 90
-16777216
102
RTVSPost2010PropOp51
 70
     0
102
RTVSPost2010Prop52
140
1.0
102
RTVSPost2010PropOp52
 70
     0
102
RTVSPost2010Prop53
 90
        2
102
RTVSPost2010PropOp53
 70
     1
102
RTVSPost2010Prop54
  1
strokes_ogs.tif
102
RTVSPost2010PropOp54
 70
     1
102
RTVSPost2010Prop55
280
     0
102
RTVSPost2010PropOp55
 70
     1
102
RTVSPost2010Prop56
140
1.0
102
RTVSPost2010PropOp56
 70
     1
102
RTVSPost2010Prop57
140
1.0
102
RTVSPost2010PropOp57
 70
     1
102
RTVSPropertyOp0
 70
     1
102
RTVSPropertyOp1
 70
     1
102
RTVSPropertyOp2
 70
     1
102
RTVSPropertyOp3
 70
     1
102
RTVSPropertyOp4
 70
     1
102
RTVSPropertyOp5
 70
     1
102
RTVSPropertyOp6
 70
     1
102
RTVSPropertyOp7
 70
     1
102
RTVSPropertyOp8
 70
     1
102
RTVSPropertyOp9
 70
     1
102
RTVSPropertyOp10
 70
     1
102
RTVSPropertyOp11
 70
     1
102
RTVSPropertyOp12
 70
     1
102
RTVSPropertyOp13
 70
     1
102
RTVSPropertyOp14
 70
     1
102
RTVSPropertyOp15
 70
     1
102
RTVSPropertyOp16
 70
     1
102
RTVSPropertyOp17
 70
     1
102
RTVSPropertyOp18
 70
     1
102
RTVSPropertyOp19
 70
     1
102
RTVSPropertyOp20
 70
     1
102
RTVSPropertyOp21
 70
     1
102
RTVSPropertyOp22
 70
     1
102
RTVSPropertyOp23
 70
     1
102
RTVSPropertyOp24
 70
     1
102
RTVSPropertyOp25
 70
     1
102
RTVSPropertyOp26
 70
     1
102
RTVSPropertyOp27
 70
     1
102
RTVSPropertyOp28
 70
     1
102
RTVSPropertyOp29
 70
     1
102
RTVSPropertyOp30
 70
     1
102
RTVSPropertyOp31
 70
     1
102
RTVSPropertyOp32
 70
     1
102
RTVSPropertyOp33
 70
     1
102
RTVSPropertyOp34
 70
     1
102
RTVSPropertyOp35
 70
     1
102
RTVSPropertyOp36
 70
     1
102
RTVSPropertyOp37
 70
     1
102
RTVSPropertyOp38
 70
     1
102
RTVSPropertyOp39
 70
     1
102
RTVSPropertyOp40
 70
     1
102
RTVSPropertyOp41
 70
     1
102
RTVSPropertyOp42
 70
     1
102
RTVSPropertyOp43
 70
     1
102
RTVSPropertyOp44
 70
     1
102
RTVSPropertyOp45
 70
     1
102
RTVSPropertyOp46
 70
     1
102
RTVSPropertyOp47
 70
     1
102
RTVSPropertyOp48
 70
     1
102
RTVSPropertyOp49
 70
     1
102
RTVSPropertyOp50
 70
     1
102
RTVSPropertyOp51
 70
     0
102
RTVSPropertyOp52
 70
     0
102
RTVSPropertyOp53
 70
     1
102
RTVSPropertyOp54
 70
     1
102
RTVSPropertyOp55
 70
     1
102
RTVSPropertyOp56
 70
     1
102
RTVSPropertyOp57
 70
     1
102
RTVSPropertyOp58
 70
     1
102
RTVSPropertyOp59
 70
     1
102
RTVSPropertyOp60
 70
     1
102
RTVSPropertyOp61
 70
     1
102
RTVSPropertyOp62
 70
     1
  0
XRECORD
  5
6C9
102
{ACAD_REACTORS
330
6C8
102
}
330
6C8
100
AcDbXrecord
280
     1
102
RTVSPost2010Prop28
280
     0
102
RTVSPost2010PropOp28
 70
     1
102
RTVSPost2010Prop29
280
     1
102
RTVSPost2010PropOp29
 70
     1
102
RTVSPost2010Prop30
280
     1
102
RTVSPost2010PropOp30
 70
     1
102
RTVSPost2010Prop31
280
     0
102
RTVSPost2010PropOp31
 70
     1
102
RTVSPost2010Prop32
280
     0
102
RTVSPost2010PropOp32
 70
     1
102
RTVSPost2010Prop33
280
     0
102
RTVSPost2010PropOp33
 70
     1
102
RTVSPost2010Prop34
280
     0
102
RTVSPost2010PropOp34
 70
     1
102
RTVSPost2010Prop35
280
     0
102
RTVSPost2010PropOp35
 70
     1
102
RTVSPost2010Prop36
280
     0
102
RTVSPost2010PropOp36
 70
     1
102
RTVSPost2010Prop37
 90
       50
102
RTVSPost2010PropOp37
 70
     1
102
RTVSPost2010Prop38
140
0.0
102
RTVSPost2010PropOp38
 70
     1
102
RTVSPost2010Prop39
140
1.0
102
RTVSPost2010PropOp39
 70
     1
102
RTVSPost2010Prop40
 90
        0
102
RTVSPost2010PropOp40
 70
     1
102
RTVSPost2010Prop41ColorIndex
 90
       18
102
RTVSPost2010Prop41ColorRGB
 90
        0
102
RTVSPost2010PropOp41
 70
     1
102
RTVSPost2010Prop42
 90
       50
102
RTVSPost2010PropOp42
 70
     1
102
RTVSPost2010Prop43
 90
        3
102
RTVSPost2010PropOp43
 70
     1
102
RTVSPost2010Prop44ColorIndex
 90
        5
102
RTVSPost2010Prop44ColorRGB
 90
      255
102
RTVSPost2010PropOp44
 70
     1
102
RTVSPost2010Prop45
280
     0
102
RTVSPost2010PropOp45
 70
     1
102
RTVSPost2010Prop46
 90
       50
102
RTVSPost2010PropOp46
 70
     1
102
RTVSPost2010Prop47
 90
       50
102
RTVSPost2010PropOp47
 70
     1
102
RTVSPost2010Prop48
 90
       50
102
RTVSPost2010PropOp48
 70
     1
102
RTVSPost2010Prop49
280
     0
102
RTVSPost2010PropOp49
 70
     1
102
RTVSPost2010Prop50
 90
       50
102
RTVSPost2010PropOp50
 70
     1
102
RTVSPost2010Prop51ColorIndex
 90
      256
102
RTVSPost2010Prop51ColorRGB
 90
-16777216
102
RTVSPost2010PropOp51
 70
     0
102
RTVSPost2010Prop52
140
1.0
102
RTVSPost2010PropOp52
 70
     0
102
RTVSPost2010Prop53
 90
        2
102
RTVSPost2010PropOp53
 70
     1
102
RTVSPost2010Prop54
  1
strokes_ogs.tif
102
RTVSPost2010PropOp54
 70
     1
102
RTVSPost2010Prop55
280
     0
102
RTVSPost2010PropOp55
 70
     1
102
RTVSPost2010Prop56
140
1.0
102
RTVSPost2010PropOp56
 70
     1
102
RTVSPost2010Prop57
140
1.0
102
RTVSPost2010PropOp57
 70
     1
102
RTVSPropertyOp0
 70
     1
102
RTVSPropertyOp1
 70
     1
102
RTVSPropertyOp2
 70
     1
102
RTVSPropertyOp3
 70
     1
102
RTVSPropertyOp4
 70
     1
102
RTVSPropertyOp5
 70
     1
102
RTVSPropertyOp6
 70
     1
102
RTVSPropertyOp7
 70
     1
102
RTVSPropertyOp8
 70
     1
102
RTVSPropertyOp9
 70
     1
102
RTVSPropertyOp10
 70
     1
102
RTVSPropertyOp11
 70
     1
102
RTVSPropertyOp12
 70
     1
102
RTVSPropertyOp13
 70
     1
102
RTVSPropertyOp14
 70
     1
102
RTVSPropertyOp15
 70
     1
102
RTVSPropertyOp16
 70
     1
102
RTVSPropertyOp17
 70
     1
102
RTVSPropertyOp18
 70
     1
102
RTVSPropertyOp19
 70
     1
102
RTVSPropertyOp20
 70
     1
102
RTVSPropertyOp21
 70
     1
102
RTVSPropertyOp22
 70
     1
102
RTVSPropertyOp23
 70
     1
102
RTVSPropertyOp24
 70
     1
102
RTVSPropertyOp25
 70
     1
102
RTVSPropertyOp26
 70
     1
102
RTVSPropertyOp27
 70
     1
102
RTVSPropertyOp28
 70
     1
102
RTVSPropertyOp29
 70
     1
102
RTVSPropertyOp30
 70
     1
102
RTVSPropertyOp31
 70
     1
102
RTVSPropertyOp32
 70
     1
102
RTVSPropertyOp33
 70
     1
102
RTVSPropertyOp34
 70
     1
102
RTVSPropertyOp35
 70
     1
102
RTVSPropertyOp36
 70
     1
102
RTVSPropertyOp37
 70
     1
102
RTVSPropertyOp38
 70
     1
102
RTVSPropertyOp39
 70
     1
102
RTVSPropertyOp40
 70
     1
102
RTVSPropertyOp41
 70
     1
102
RTVSPropertyOp42
 70
     1
102
RTVSPropertyOp43
 70
     1
102
RTVSPropertyOp44
 70
     1
102
RTVSPropertyOp45
 70
     1
102
RTVSPropertyOp46
 70
     1
102
RTVSPropertyOp47
 70
     1
102
RTVSPropertyOp48
 70
     1
102
RTVSPropertyOp49
 70
     1
102
RTVSPropertyOp50
 70
     1
102
RTVSPropertyOp51
 70
     0
102
RTVSPropertyOp52
 70
     0
102
RTVSPropertyOp53
 70
     1
102
RTVSPropertyOp54
 70
     1
102
RTVSPropertyOp55
 70
     1
102
RTVSPropertyOp56
 70
     1
102
RTVSPropertyOp57
 70
     1
102
RTVSPropertyOp58
 70
     1
102
RTVSPropertyOp59
 70
     1
102
RTVSPropertyOp60
 70
     1
102
RTVSPropertyOp61
 70
     1
102
RTVSPropertyOp62
 70
     1
  0
XRECORD
  5
6BD
102
{ACAD_REACTORS
330
6BC
102
}
330
6BC
100
AcDbXrecord
280
     1
102
RTVSPost2010Prop28
280
     0
102
RTVSPost2010PropOp28
 70
     1
102
RTVSPost2010Prop29
280
     1
102
RTVSPost2010PropOp29
 70
     1
102
RTVSPost2010Prop30
280
     1
102
RTVSPost2010PropOp30
 70
     1
102
RTVSPost2010Prop31
280
     0
102
RTVSPost2010PropOp31
 70
     1
102
RTVSPost2010Prop32
280
     0
102
RTVSPost2010PropOp32
 70
     1
102
RTVSPost2010Prop33
280
     0
102
RTVSPost2010PropOp33
 70
     1
102
RTVSPost2010Prop34
280
     0
102
RTVSPost2010PropOp34
 70
     1
102
RTVSPost2010Prop35
280
     0
102
RTVSPost2010PropOp35
 70
     1
102
RTVSPost2010Prop36
280
     0
102
RTVSPost2010PropOp36
 70
     1
102
RTVSPost2010Prop37
 90
       50
102
RTVSPost2010PropOp37
 70
     1
102
RTVSPost2010Prop38
140
0.0
102
RTVSPost2010PropOp38
 70
     1
102
RTVSPost2010Prop39
140
1.0
102
RTVSPost2010PropOp39
 70
     1
102
RTVSPost2010Prop40
 90
        0
102
RTVSPost2010PropOp40
 70
     1
102
RTVSPost2010Prop41ColorIndex
 90
       18
102
RTVSPost2010Prop41ColorRGB
 90
        0
102
RTVSPost2010PropOp41
 70
     1
102
RTVSPost2010Prop42
 90
       50
102
RTVSPost2010PropOp42
 70
     1
102
RTVSPost2010Prop43
 90
        3
102
RTVSPost2010PropOp43
 70
     1
102
RTVSPost2010Prop44ColorIndex
 90
        5
102
RTVSPost2010Prop44ColorRGB
 90
      255
102
RTVSPost2010PropOp44
 70
     1
102
RTVSPost2010Prop45
280
     0
102
RTVSPost2010PropOp45
 70
     1
102
RTVSPost2010Prop46
 90
       50
102
RTVSPost2010PropOp46
 70
     1
102
RTVSPost2010Prop47
 90
       50
102
RTVSPost2010PropOp47
 70
     1
102
RTVSPost2010Prop48
 90
       50
102
RTVSPost2010PropOp48
 70
     1
102
RTVSPost2010Prop49
280
     0
102
RTVSPost2010PropOp49
 70
     1
102
RTVSPost2010Prop50
 90
       50
102
RTVSPost2010PropOp50
 70
     1
102
RTVSPost2010Prop51ColorIndex
 90
      256
102
RTVSPost2010Prop51ColorRGB
 90
-16777216
102
RTVSPost2010PropOp51
 70
     0
102
RTVSPost2010Prop52
140
1.0
102
RTVSPost2010PropOp52
 70
     0
102
RTVSPost2010Prop53
 90
        2
102
RTVSPost2010PropOp53
 70
     1
102
RTVSPost2010Prop54
  1
strokes_ogs.tif
102
RTVSPost2010PropOp54
 70
     1
102
RTVSPost2010Prop55
280
     0
102
RTVSPost2010PropOp55
 70
     1
102
RTVSPost2010Prop56
140
1.0
102
RTVSPost2010PropOp56
 70
     1
102
RTVSPost2010Prop57
140
1.0
102
RTVSPost2010PropOp57
 70
     1
102
RTVSPropertyOp0
 70
     1
102
RTVSPropertyOp1
 70
     1
102
RTVSPropertyOp2
 70
     1
102
RTVSPropertyOp3
 70
     1
102
RTVSPropertyOp4
 70
     1
102
RTVSPropertyOp5
 70
     1
102
RTVSPropertyOp6
 70
     1
102
RTVSPropertyOp7
 70
     1
102
RTVSPropertyOp8
 70
     1
102
RTVSPropertyOp9
 70
     1
102
RTVSPropertyOp10
 70
     1
102
RTVSPropertyOp11
 70
     1
102
RTVSPropertyOp12
 70
     1
102
RTVSPropertyOp13
 70
     1
102
RTVSPropertyOp14
 70
     1
102
RTVSPropertyOp15
 70
     1
102
RTVSPropertyOp16
 70
     1
102
RTVSPropertyOp17
 70
     1
102
RTVSPropertyOp18
 70
     1
102
RTVSPropertyOp19
 70
     1
102
RTVSPropertyOp20
 70
     1
102
RTVSPropertyOp21
 70
     1
102
RTVSPropertyOp22
 70
     1
102
RTVSPropertyOp23
 70
     1
102
RTVSPropertyOp24
 70
     1
102
RTVSPropertyOp25
 70
     1
102
RTVSPropertyOp26
 70
     1
102
RTVSPropertyOp27
 70
     1
102
RTVSPropertyOp28
 70
     1
102
RTVSPropertyOp29
 70
     1
102
RTVSPropertyOp30
 70
     1
102
RTVSPropertyOp31
 70
     1
102
RTVSPropertyOp32
 70
     1
102
RTVSPropertyOp33
 70
     1
102
RTVSPropertyOp34
 70
     1
102
RTVSPropertyOp35
 70
     1
102
RTVSPropertyOp36
 70
     1
102
RTVSPropertyOp37
 70
     1
102
RTVSPropertyOp38
 70
     1
102
RTVSPropertyOp39
 70
     1
102
RTVSPropertyOp40
 70
     1
102
RTVSPropertyOp41
 70
     1
102
RTVSPropertyOp42
 70
     1
102
RTVSPropertyOp43
 70
     1
102
RTVSPropertyOp44
 70
     1
102
RTVSPropertyOp45
 70
     1
102
RTVSPropertyOp46
 70
     1
102
RTVSPropertyOp47
 70
     1
102
RTVSPropertyOp48
 70
     1
102
RTVSPropertyOp49
 70
     1
102
RTVSPropertyOp50
 70
     1
102
RTVSPropertyOp51
 70
     0
102
RTVSPropertyOp52
 70
     0
102
RTVSPropertyOp53
 70
     1
102
RTVSPropertyOp54
 70
     1
102
RTVSPropertyOp55
 70
     1
102
RTVSPropertyOp56
 70
     1
102
RTVSPropertyOp57
 70
     1
102
RTVSPropertyOp58
 70
     1
102
RTVSPropertyOp59
 70
     1
102
RTVSPropertyOp60
 70
     1
102
RTVSPropertyOp61
 70
     1
102
RTVSPropertyOp62
 70
     1
  0
XRECORD
  5
6DB
102
{ACAD_REACTORS
330
6DA
102
}
330
6DA
100
AcDbXrecord
280
     1
102
RTVSPost2010Prop28
280
     0
102
RTVSPost2010PropOp28
 70
     1
102
RTVSPost2010Prop29
280
     1
102
RTVSPost2010PropOp29
 70
     1
102
RTVSPost2010Prop30
280
     1
102
RTVSPost2010PropOp30
 70
     1
102
RTVSPost2010Prop31
280
     0
102
RTVSPost2010PropOp31
 70
     1
102
RTVSPost2010Prop32
280
     0
102
RTVSPost2010PropOp32
 70
     1
102
RTVSPost2010Prop33
280
     0
102
RTVSPost2010PropOp33
 70
     1
102
RTVSPost2010Prop34
280
     0
102
RTVSPost2010PropOp34
 70
     1
102
RTVSPost2010Prop35
280
     0
102
RTVSPost2010PropOp35
 70
     1
102
RTVSPost2010Prop36
280
     0
102
RTVSPost2010PropOp36
 70
     1
102
RTVSPost2010Prop37
 90
       50
102
RTVSPost2010PropOp37
 70
     1
102
RTVSPost2010Prop38
140
0.0
102
RTVSPost2010PropOp38
 70
     1
102
RTVSPost2010Prop39
140
1.0
102
RTVSPost2010PropOp39
 70
     1
102
RTVSPost2010Prop40
 90
        0
102
RTVSPost2010PropOp40
 70
     1
102
RTVSPost2010Prop41ColorIndex
 90
       18
102
RTVSPost2010Prop41ColorRGB
 90
        0
102
RTVSPost2010PropOp41
 70
     1
102
RTVSPost2010Prop42
 90
       50
102
RTVSPost2010PropOp42
 70
     1
102
RTVSPost2010Prop43
 90
        3
102
RTVSPost2010PropOp43
 70
     1
102
RTVSPost2010Prop44ColorIndex
 90
        5
102
RTVSPost2010Prop44ColorRGB
 90
      255
102
RTVSPost2010PropOp44
 70
     1
102
RTVSPost2010Prop45
280
     0
102
RTVSPost2010PropOp45
 70
     1
102
RTVSPost2010Prop46
 90
       50
102
RTVSPost2010PropOp46
 70
     1
102
RTVSPost2010Prop47
 90
       50
102
RTVSPost2010PropOp47
 70
     1
102
RTVSPost2010Prop48
 90
       50
102
RTVSPost2010PropOp48
 70
     1
102
RTVSPost2010Prop49
280
     0
102
RTVSPost2010PropOp49
 70
     1
102
RTVSPost2010Prop50
 90
       50
102
RTVSPost2010PropOp50
 70
     1
102
RTVSPost2010Prop51ColorIndex
 90
      256
102
RTVSPost2010Prop51ColorRGB
 90
-16777216
102
RTVSPost2010PropOp51
 70
     0
102
RTVSPost2010Prop52
140
1.0
102
RTVSPost2010PropOp52
 70
     0
102
RTVSPost2010Prop53
 90
        2
102
RTVSPost2010PropOp53
 70
     1
102
RTVSPost2010Prop54
  1
strokes_ogs.tif
102
RTVSPost2010PropOp54
 70
     1
102
RTVSPost2010Prop55
280
     0
102
RTVSPost2010PropOp55
 70
     1
102
RTVSPost2010Prop56
140
1.0
102
RTVSPost2010PropOp56
 70
     1
102
RTVSPost2010Prop57
140
1.0
102
RTVSPost2010PropOp57
 70
     1
102
RTVSPropertyOp0
 70
     1
102
RTVSPropertyOp1
 70
     1
102
RTVSPropertyOp2
 70
     1
102
RTVSPropertyOp3
 70
     1
102
RTVSPropertyOp4
 70
     1
102
RTVSPropertyOp5
 70
     1
102
RTVSPropertyOp6
 70
     1
102
RTVSPropertyOp7
 70
     1
102
RTVSPropertyOp8
 70
     1
102
RTVSPropertyOp9
 70
     1
102
RTVSPropertyOp10
 70
     1
102
RTVSPropertyOp11
 70
     1
102
RTVSPropertyOp12
 70
     1
102
RTVSPropertyOp13
 70
     1
102
RTVSPropertyOp14
 70
     1
102
RTVSPropertyOp15
 70
     1
102
RTVSPropertyOp16
 70
     1
102
RTVSPropertyOp17
 70
     1
102
RTVSPropertyOp18
 70
     1
102
RTVSPropertyOp19
 70
     1
102
RTVSPropertyOp20
 70
     1
102
RTVSPropertyOp21
 70
     1
102
RTVSPropertyOp22
 70
     1
102
RTVSPropertyOp23
 70
     1
102
RTVSPropertyOp24
 70
     1
102
RTVSPropertyOp25
 70
     1
102
RTVSPropertyOp26
 70
     1
102
RTVSPropertyOp27
 70
     1
102
RTVSPropertyOp28
 70
     1
102
RTVSPropertyOp29
 70
     1
102
RTVSPropertyOp30
 70
     1
102
RTVSPropertyOp31
 70
     1
102
RTVSPropertyOp32
 70
     1
102
RTVSPropertyOp33
 70
     1
102
RTVSPropertyOp34
 70
     1
102
RTVSPropertyOp35
 70
     1
102
RTVSPropertyOp36
 70
     1
102
RTVSPropertyOp37
 70
     1
102
RTVSPropertyOp38
 70
     1
102
RTVSPropertyOp39
 70
     1
102
RTVSPropertyOp40
 70
     1
102
RTVSPropertyOp41
 70
     1
102
RTVSPropertyOp42
 70
     1
102
RTVSPropertyOp43
 70
     1
102
RTVSPropertyOp44
 70
     1
102
RTVSPropertyOp45
 70
     1
102
RTVSPropertyOp46
 70
     1
102
RTVSPropertyOp47
 70
     1
102
RTVSPropertyOp48
 70
     1
102
RTVSPropertyOp49
 70
     1
102
RTVSPropertyOp50
 70
     1
102
RTVSPropertyOp51
 70
     0
102
RTVSPropertyOp52
 70
     0
102
RTVSPropertyOp53
 70
     1
102
RTVSPropertyOp54
 70
     1
102
RTVSPropertyOp55
 70
     1
102
RTVSPropertyOp56
 70
     1
102
RTVSPropertyOp57
 70
     1
102
RTVSPropertyOp58
 70
     1
102
RTVSPropertyOp59
 70
     1
102
RTVSPropertyOp60
 70
     1
102
RTVSPropertyOp61
 70
     1
102
RTVSPropertyOp62
 70
     1
  0
ENDSEC
  0
EOF
